  0
SECTION
  2
HEADER
  9
$ACADVER
  1
AC1014
  9
$ACADMAINTVER
 70
     0
  9
$DWGCODEPAGE
  3
ANSI_932
  9
$INSBASE
 10
0.0
 20
0.0
 30
0.0
  9
$EXTMIN
 10
-2.1
 20
11.5
 30
0.0
  9
$EXTMAX
 10
199.9
 20
291.5
 30
0.0
  9
$LIMMIN
 10
0.0
 20
0.0
  9
$LIMMAX
 10
210.0
 20
297.0
  9
$ORTHOMODE
 70
     0
  9
$REGENMODE
 70
     1
  9
$FILLMODE
 70
     1
  9
$QTEXTMODE
 70
     0
  9
$MIRRTEXT
 70
     1
  9
$DRAGMODE
 70
     2
  9
$LTSCALE
 40
1.0
  9
$OSMODE
 70
     0
  9
$ATTMODE
 70
     1
  9
$TEXTSIZE
 40
0.2
  9
$TRACEWID
 40
0.05
  9
$TEXTSTYLE
  7
STANDARD
  9
$CLAYER
  8
洗面器
  9
$CELTYPE
  6
CONTINUOUS
  9
$CECOLOR
 62
   256
  9
$CELTSCALE
 40
1.0
  9
$DELOBJ
 70
     1
  9
$DISPSILH
 70
     0
  9
$DIMSCALE
 40
1.0
  9
$DIMASZ
 40
0.18
  9
$DIMEXO
 40
0.0625
  9
$DIMDLI
 40
0.38
  9
$DIMRND
 40
0.0
  9
$DIMDLE
 40
0.0
  9
$DIMEXE
 40
0.18
  9
$DIMTP
 40
0.0
  9
$DIMTM
 40
0.0
  9
$DIMTXT
 40
0.18
  9
$DIMCEN
 40
0.09
  9
$DIMTSZ
 40
0.0
  9
$DIMTOL
 70
     0
  9
$DIMLIM
 70
     0
  9
$DIMTIH
 70
     1
  9
$DIMTOH
 70
     1
  9
$DIMSE1
 70
     0
  9
$DIMSE2
 70
     0
  9
$DIMTAD
 70
     0
  9
$DIMZIN
 70
     0
  9
$DIMBLK
  1

  9
$DIMASO
 70
     1
  9
$DIMSHO
 70
     1
  9
$DIMPOST
  1

  9
$DIMAPOST
  1

  9
$DIMALT
 70
     0
  9
$DIMALTD
 70
     2
  9
$DIMALTF
 40
25.4
  9
$DIMLFAC
 40
1.0
  9
$DIMTOFL
 70
     0
  9
$DIMTVP
 40
0.0
  9
$DIMTIX
 70
     0
  9
$DIMSOXD
 70
     0
  9
$DIMSAH
 70
     0
  9
$DIMBLK1
  1

  9
$DIMBLK2
  1

  9
$DIMSTYLE
  2
STANDARD
  9
$DIMCLRD
 70
     0
  9
$DIMCLRE
 70
     0
  9
$DIMCLRT
 70
     0
  9
$DIMTFAC
 40
1.0
  9
$DIMGAP
 40
0.09
  9
$DIMJUST
 70
     0
  9
$DIMSD1
 70
     0
  9
$DIMSD2
 70
     0
  9
$DIMTOLJ
 70
     1
  9
$DIMTZIN
 70
     0
  9
$DIMALTZ
 70
     0
  9
$DIMALTTZ
 70
     0
  9
$DIMFIT
 70
     3
  9
$DIMUPT
 70
     0
  9
$DIMUNIT
 70
     2
  9
$DIMDEC
 70
     4
  9
$DIMTDEC
 70
     4
  9
$DIMALTU
 70
     2
  9
$DIMALTTD
 70
     2
  9
$DIMTXSTY
  7
STANDARD
  9
$DIMAUNIT
 70
     0
  9
$LUNITS
 70
     2
  9
$LUPREC
 70
     4
  9
$SKETCHINC
 40
0.1
  9
$FILLETRAD
 40
0.0
  9
$AUNITS
 70
     0
  9
$AUPREC
 70
     0
  9
$MENU
  1
acad
  9
$ELEVATION
 40
0.0
  9
$PELEVATION
 40
0.0
  9
$THICKNESS
 40
0.0
  9
$LIMCHECK
 70
     0
  9
$BLIPMODE
 70
     1
  9
$CHAMFERA
 40
0.0
  9
$CHAMFERB
 40
0.0
  9
$CHAMFERC
 40
0.0
  9
$CHAMFERD
 40
0.0
  9
$SKPOLY
 70
     0
  9
$TDCREATE
 40
2456674.065225510
  9
$TDUPDATE
 40
2456674.065225510
  9
$TDINDWG
 40
0.0000000000
  9
$TDUSRTIMER
 40
0.0000000000
  9
$USRTIMER
 70
     1
  9
$ANGBASE
 50
0.0
  9
$ANGDIR
 70
     0
  9
$PDMODE
 70
     0
  9
$PDSIZE
 40
0.0
  9
$PLINEWID
 40
0.0
  9
$COORDS
 70
     1
  9
$SPLFRAME
 70
     0
  9
$SPLINETYPE
 70
     6
  9
$SPLINESEGS
 70
     8
  9
$ATTDIA
 70
     0
  9
$ATTREQ
 70
     1
  9
$HANDLING
 70
     1
  9
$HANDSEED
  5
35E
  9
$SURFTAB1
 70
     6
  9
$SURFTAB2
 70
     6
  9
$SURFTYPE
 70
     6
  9
$SURFU
 70
     6
  9
$SURFV
 70
     6
  9
$UCSNAME
  2

  9
$UCSORG
 10
0.0
 20
0.0
 30
0.0
  9
$UCSXDIR
 10
1.0
 20
0.0
 30
0.0
  9
$UCSYDIR
 10
0.0
 20
1.0
 30
0.0
  9
$PUCSNAME
  2

  9
$PUCSORG
 10
0.0
 20
0.0
 30
0.0
  9
$PUCSXDIR
 10
1.0
 20
0.0
 30
0.0
  9
$PUCSYDIR
 10
0.0
 20
1.0
 30
0.0
  9
$USERI1
 70
     0
  9
$USERI2
 70
     0
  9
$USERI3
 70
     0
  9
$USERI4
 70
     0
  9
$USERI5
 70
     0
  9
$USERR1
 40
0.0
  9
$USERR2
 40
0.0
  9
$USERR3
 40
0.0
  9
$USERR4
 40
0.0
  9
$USERR5
 40
0.0
  9
$WORLDVIEW
 70
     1
  9
$SHADEDGE
 70
     3
  9
$SHADEDIF
 70
    70
  9
$TILEMODE
 70
     1
  9
$MAXACTVP
 70
    16
  9
$PINSBASE
 10
0.0
 20
0.0
 30
0.0
  9
$PLIMCHECK
 70
     0
  9
$PEXTMIN
 10
1.000000E+20
 20
1.000000E+20
 30
1.000000E+20
  9
$PEXTMAX
 10
-1.000000E+20
 20
-1.000000E+20
 30
-1.000000E+20
  9
$PLIMMIN
 10
0.0
 20
0.0
  9
$PLIMMAX
 10
12.0
 20
9.0
  9
$UNITMODE
 70
     0
  9
$VISRETAIN
 70
     0
  9
$PLINEGEN
 70
     1
  9
$PSLTSCALE
 70
     0
  9
$TREEDEPTH
 70
  3020
  9
$PICKSTYLE
 70
     1
  9
$CMLSTYLE
  2
Standard
  9
$CMLJUST
 70
     0
  9
$CMLSCALE
 40
1.0
  9
$PROXYGRAPHICS
 70
     0
  9
$MEASUREMENT
 70
     0
  0
ENDSEC
  0
SECTION
  2
CLASSES
  0
CLASS
  1
LWPOLYLINE
  2
AcDbPolyline
  3
"AutoCAD"
 90
        0
280
     0
281
     1
  0
CLASS
  1
IMAGE
  2
AcDbRasterImage
  3
ISM
 90
      127
280
     0
281
     1
  0
CLASS
  1
OLE2FRAME
  2
AcDbOle2Frame
  3
""
 90
        0
280
     0
281
     1
  0
CLASS
  1
HATCH
  2
AcDbHatch
  3
"ACAD_SEDONA"
 90
        0
280
     0
281
     1
  0
CLASS
  1
DICTIONARYVAR
  2
AcDbDictionaryVar
  3
"AutoCAD"
 90
        0
280
     0
281
     0
  0
CLASS
  1
RASTERVARIABLES
  2
AcDbRasterVariables
  3
ISM
 90
        0
280
     0
281
     0
  0
CLASS
  1
IMAGEDEF
  2
AcDbRasterImageDef
  3
ISM
 90
        0
280
     0
281
     0
  0
CLASS
  1
IMAGEDEF_REACTOR
  2
AcDbRasterImageDefReactor
  3
ISM
 90
        1
280
     0
281
     0
  0
CLASS
  1
IDBUFFER
  2
AcDbIdBuffer
  3
"Acad"
 90
        0
280
     0
281
     0
  0
CLASS
  1
SPATIAL_FILTER
  2
AcDbSpatialFilter
  3
"Acad"
 90
        0
280
     0
281
     0
  0
CLASS
  1
XRECORD
  2
AcDbXrecord
  3
"<Built In>"
 90
        0
280
     0
281
     0
  0
CLASS
  1
SORTENTSTABLE
  2
AcDbSortentsTable
  3
"AutoCAD"
 90
        0
280
     0
281
     0
  0
CLASS
  1
LAYER_INDEX
  2
AcDbLayerIndex
  3
"Acad"
 90
        0
280
     0
281
     0
  0
CLASS
  1
SPATIAL_INDEX
  2
AcDbSpatialIndex
  3
"Acad"
 90
        0
280
     0
281
     0
  0
CLASS
  1
OBJECT_PTR
  2
CAseDLPNTableRecord
  3
"ASE-LPNTableRecord"
 90
        1
280
     0
281
     0
  0
CLASS
  1
LAYOUT
  2
AcDbLayout
  3
"AutoCAD 2000"
 90
        1
280
     0
281
     0
  0
CLASS
  1
PLOTSETTINGS
  2
AcDbPlotSettings
  3
"AutoCAD 2000"
 90
        1
280
     0
281
     0
  0
CLASS
  1
ACDBDICTIONARYWDFLT
  2
AcDbDictionaryWithDefault
  3
"AutoCAD 2000"
 90
        1
280
     0
281
     0
  0
CLASS
  1
ACDBPLACEHOLDER
  2
AcDbPlaceHolder
  3
"AutoCAD 2000"
 90
        1
280
     0
281
     0
  0
CLASS
  1
VBA_PROJECT
  2
AcDbVbaProject
  3
"acadvba"
 90
        1
280
     0
281
     0
  0
CLASS
  1
WIPEOUT
  2
AcDbWipeout
  3
WipeOut|AutoCAD Express Tool|expresstools@autodesk.com
 90
      127
280
     0
281
     1
  0
CLASS
  1
WIPEOUTVARIABLES
  2
AcDbWipeoutVariables
  3
WipeOut|AutoCAD Express Tool|expresstools@autodesk.com
 90
        0
280
     0
281
     0
  0
CLASS
  1
RTEXT
  2
RText
  3
RText|AutoCAD Express Tool|expresstools@autodesk.com
 90
        0
280
     0
281
     1
  0
CLASS
  1
ARCALIGNEDTEXT
  2
AcDbArcAlignedText
  3
ATEXT|AutoCAD Express Tool|expresstools@autodesk.com
 90
        0
280
     0
281
     1
  0
ENDSEC
  0
SECTION
  2
TABLES
  0
TABLE
  2
VPORT
  5
7
100
AcDbSymbolTable
 70
     1
  0
VPORT
  5
15
100
AcDbSymbolTableRecord
100
AcDbViewportTableRecord
  2
*ACTIVE
 70
     0
 10
0.0
 20
0.0
 11
1.0
 21
1.0
 12
989.0
 22
1515.0
 13
0.0
 23
0.0
 14
1.0
 24
1.0
 15
0.0
 25
0.0
 16
0.0
 26
0.0
 36
1.0
 17
0.0
 27
0.0
 37
0.0
 40
2800.0
 41
1.722533
 42
50.0
 43
0.0
 44
0.0
 50
0.0
 51
0.0
 71
     0
 72
   100
 73
     1
 74
     1
 75
     0
 76
     0
 77
     0
 78
     0
  0
ENDTAB
  0
TABLE
  2
LTYPE
  5
4
100
AcDbSymbolTable
 70
     9
  0
LTYPE
  5
11
100
AcDbSymbolTableRecord
100
AcDbLinetypeTableRecord
  2
BYBLOCK
 70
    64
  3

 72
    65
 73
     0
 40
0.0
  0
LTYPE
  5
12
100
AcDbSymbolTableRecord
100
AcDbLinetypeTableRecord
  2
BYLAYER
 70
    64
  3

 72
    65
 73
     0
 40
0.0
  0
LTYPE
  5
13
100
AcDbSymbolTableRecord
100
AcDbLinetypeTableRecord
  2
CONTINUOUS
 70
    64
  3
実線
 72
    65
 73
     0
 40
0.0
  0
LTYPE
  5
1D
100
AcDbSymbolTableRecord
100
AcDbLinetypeTableRecord
  2
EXLTYPE1
 70
    64
  3
破線
 72
    65
 73
     2
 40
3.0
 49
2.0
 74
     0
 49
-1.0
 74
     0
  0
LTYPE
  5
1E
100
AcDbSymbolTableRecord
100
AcDbLinetypeTableRecord
  2
EXLTYPE2
 70
    64
  3
点線
 72
    65
 73
     2
 40
2.0
 49
1.0
 74
     0
 49
-1.0
 74
     0
  0
LTYPE
  5
1F
100
AcDbSymbolTableRecord
100
AcDbLinetypeTableRecord
  2
EXLTYPE3
 70
    64
  3
一点鎖線
 72
    65
 73
     4
 40
10.0
 49
7.0
 74
     0
 49
-1.0
 74
     0
 49
1.0
 74
     0
 49
-1.0
 74
     0
  0
LTYPE
  5
20
100
AcDbSymbolTableRecord
100
AcDbLinetypeTableRecord
  2
EXLTYPE4
 70
    64
  3
二点鎖線
 72
    65
 73
     6
 40
12.0
 49
7.0
 74
     0
 49
-1.0
 74
     0
 49
1.0
 74
     0
 49
-1.0
 74
     0
 49
1.0
 74
     0
 49
-1.0
 74
     0
  0
LTYPE
  5
21
100
AcDbSymbolTableRecord
100
AcDbLinetypeTableRecord
  2
EXLTYPE5
 70
    64
  3
三点鎖線
 72
    65
 73
     8
 40
37.0
 49
30.0
 74
     0
 49
-1.0
 74
     0
 49
1.0
 74
     0
 49
-1.0
 74
     0
 49
1.0
 74
     0
 49
-1.0
 74
     0
 49
1.0
 74
     0
 49
-1.0
 74
     0
  0
LTYPE
  5
22
100
AcDbSymbolTableRecord
100
AcDbLinetypeTableRecord
  2
EXLTYPE6
 70
    64
  3
四点鎖線
 72
    65
 73
    10
 40
39.0
 49
30.0
 74
     0
 49
-1.0
 74
     0
 49
1.0
 74
     0
 49
-1.0
 74
     0
 49
1.0
 74
     0
 49
-1.0
 74
     0
 49
1.0
 74
     0
 49
-1.0
 74
     0
 49
1.0
 74
     0
 49
-1.0
 74
     0
  0
ENDTAB
  0
TABLE
  2
LAYER
  5
2
100
AcDbSymbolTable
 70
     7
  0
LAYER
  5
14
100
AcDbSymbolTableRecord
100
AcDbLayerTableRecord
  2
0
 70
     0
 62
     7
  6
CONTINUOUS
  0
LAYER
  5
25
100
AcDbSymbolTableRecord
100
AcDbLayerTableRecord
  2
枠_
 70
    64
 62
     7
  6
CONTINUOUS
  0
LAYER
  5
26
100
AcDbSymbolTableRecord
100
AcDbLayerTableRecord
  2
洗面器
 70
    64
 62
     7
  6
CONTINUOUS
  0
LAYER
  5
27
100
AcDbSymbolTableRecord
100
AcDbLayerTableRecord
  2
水栓
 70
    64
 62
     7
  6
CONTINUOUS
  0
LAYER
  5
28
100
AcDbSymbolTableRecord
100
AcDbLayerTableRecord
  2
トラップ
 70
    64
 62
     7
  6
CONTINUOUS
  0
LAYER
  5
29
100
AcDbSymbolTableRecord
100
AcDbLayerTableRecord
  2
_2
 70
    64
 62
     7
  6
CONTINUOUS
  0
LAYER
  5
2A
100
AcDbSymbolTableRecord
100
AcDbLayerTableRecord
  2
器具明細表
 70
    64
 62
     7
  6
CONTINUOUS
  0
ENDTAB
  0
TABLE
  2
STYLE
  5
3
100
AcDbSymbolTable
 70
     4
  0
STYLE
  5
17
100
AcDbSymbolTableRecord
100
AcDbTextStyleTableRecord
  2
STANDARD
 70
     0
 40
0.0
 41
1.0
 50
0.0
 71
     0
 42
0.0
  3
monotxt
  4
extfont
  0
STYLE
  5
23
100
AcDbSymbolTableRecord
100
AcDbTextStyleTableRecord
  2
EXCADSTD
 70
    64
 40
0.0
 41
1.0
 50
0.0
 71
     0
 42
0.2
  3
monotxt
  4
extfont
  0
STYLE
  5
24
100
AcDbSymbolTableRecord
100
AcDbTextStyleTableRecord
  2
EXCADVERT
 70
    68
 40
0.0
 41
1.0
 50
0.0
 71
     0
 42
0.286885
  3
monotxt
  4
extfont
  0
STYLE
  5
B3
100
AcDbSymbolTableRecord
100
AcDbTextStyleTableRecord
  2
EXCADTTF1
 70
    64
 40
0.0
 41
1.0
 50
0.0
 71
     0
 42
0.2
  3
MS Gothic.ttf
  4

1001
ACAD
1000
MS Gothic
1071
    32817
  0
ENDTAB
  0
TABLE
  2
VIEW
  5
5
100
AcDbSymbolTable
 70
     0
  0
ENDTAB
  0
TABLE
  2
UCS
  5
6
100
AcDbSymbolTable
 70
     0
  0
ENDTAB
  0
TABLE
  2
APPID
  5
8
100
AcDbSymbolTable
 70
     1
  0
APPID
  5
16
100
AcDbSymbolTableRecord
100
AcDbRegAppTableRecord
  2
ACAD
 70
     0
  0
ENDTAB
  0
TABLE
  2
DIMSTYLE
  5
9
100
AcDbSymbolTable
 70
     1
  0
DIMSTYLE
105
18
100
AcDbSymbolTableRecord
100
AcDbDimStyleTableRecord
  2
STANDARD
 70
     0
  3

  4

  5

  6

  7

 40
1.0
 41
0.18
 42
0.0625
 43
0.38
 44
0.18
 45
0.0
 46
0.0
 47
0.0
 48
0.0
 71
     0
 72
     0
 73
     1
 74
     1
 75
     0
 76
     0
 77
     0
 78
     0
140
0.18
141
0.09
142
0.0
143
25.4
144
1.0
145
0.0
146
1.0
147
0.09
170
     0
171
     2
172
     1
173
     0
174
     0
175
     0
176
     0
177
     0
178
     0
270
     2
271
     4
272
     4
273
     2
274
     2
275
     0
280
     0
281
     0
282
     0
283
     1
284
     0
285
     0
286
     0
287
     0
288
     0
340
17
  0
ENDTAB
  0
TABLE
  2
BLOCK_RECORD
  5
1
100
AcDbSymbolTable
 70
    14
  0
BLOCK_RECORD
  5
A
100
AcDbSymbolTableRecord
100
AcDbBlockTableRecord
  2
*MODEL_SPACE
  0
BLOCK_RECORD
  5
B
100
AcDbSymbolTableRecord
100
AcDbBlockTableRecord
  2
*PAPER_SPACE
  0
BLOCK_RECORD
  5
2B
100
AcDbSymbolTableRecord
100
AcDbBlockTableRecord
  2
_EX_NORM
  0
BLOCK_RECORD
  5
2C
100
AcDbSymbolTableRecord
100
AcDbBlockTableRecord
  2
_EX_BNORM
  0
BLOCK_RECORD
  5
2D
100
AcDbSymbolTableRecord
100
AcDbBlockTableRecord
  2
_EX_BCIR
  0
BLOCK_RECORD
  5
2E
100
AcDbSymbolTableRecord
100
AcDbBlockTableRecord
  2
_EX_RCIVIL
  0
BLOCK_RECORD
  5
2F
100
AcDbSymbolTableRecord
100
AcDbBlockTableRecord
  2
_EX_SLANT
  0
BLOCK_RECORD
  5
30
100
AcDbSymbolTableRecord
100
AcDbBlockTableRecord
  2
_EX_NONE
  0
BLOCK_RECORD
  5
31
100
AcDbSymbolTableRecord
100
AcDbBlockTableRecord
  2
_EX_CIVIL
  0
BLOCK_RECORD
  5
32
100
AcDbSymbolTableRecord
100
AcDbBlockTableRecord
  2
_EX_WCIR
  0
BLOCK_RECORD
  5
33
100
AcDbSymbolTableRecord
100
AcDbBlockTableRecord
  2
_EX_WCIR2
  0
BLOCK_RECORD
  5
34
100
AcDbSymbolTableRecord
100
AcDbBlockTableRecord
  2
_EX_WNORM
  0
BLOCK_RECORD
  5
35
100
AcDbSymbolTableRecord
100
AcDbBlockTableRecord
  2
_EX_NNORM
  0
BLOCK_RECORD
  5
36
100
AcDbSymbolTableRecord
100
AcDbBlockTableRecord
  2
_EX_BBOX
  0
BLOCK_RECORD
  5
37
100
AcDbSymbolTableRecord
100
AcDbBlockTableRecord
  2
_EX_WBOX
  0
BLOCK_RECORD
  5
38
100
AcDbSymbolTableRecord
100
AcDbBlockTableRecord
  2
_EX_INTEGRAL
  0
ENDTAB
  0
ENDSEC
  0
SECTION
  2
BLOCKS
  0
BLOCK
  5
D
100
AcDbEntity
  8
0
100
AcDbBlockBegin
  2
*MODEL_SPACE
 70
     0
 10
0.0
 20
0.0
 30
0.0
  3
*MODEL_SPACE
  1

  0
ENDBLK
  5
E
100
AcDbEntity
  8
0
100
AcDbBlockEnd
  0
BLOCK
  5
F
100
AcDbEntity
 67
     1
  8
0
100
AcDbBlockBegin
  2
*PAPER_SPACE
 70
     0
 10
0.0
 20
0.0
 30
0.0
  3
*PAPER_SPACE
  1

  0
ENDBLK
  5
10
100
AcDbEntity
 67
     1
  8
0
100
AcDbBlockEnd
  0
BLOCK
  5
39
100
AcDbEntity
  8
0
100
AcDbBlockBegin
  2
_EX_NORM
 70
     0
 10
0.0
 20
0.0
 30
0.0
  3
_EX_NORM
  1

  0
LINE
  5
3A
100
AcDbEntity
  8
0
  6
CONTINUOUS
 62
     0
100
AcDbLine
 10
0.0
 20
0.0
 30
0.0
 11
-1.0
 21
0.0
 31
0.0
  0
LINE
  5
3B
100
AcDbEntity
  8
0
  6
CONTINUOUS
 62
     0
100
AcDbLine
 10
0.0
 20
0.0
 30
0.0
 11
-1.0
 21
0.166667
 31
0.0
  0
LINE
  5
3C
100
AcDbEntity
  8
0
  6
CONTINUOUS
 62
     0
100
AcDbLine
 10
0.0
 20
0.0
 30
0.0
 11
-1.0
 21
-0.166667
 31
0.0
  0
ENDBLK
  5
3D
100
AcDbEntity
  8
0
100
AcDbBlockEnd
  0
BLOCK
  5
3E
100
AcDbEntity
  8
0
100
AcDbBlockBegin
  2
_EX_BNORM
 70
     0
 10
0.0
 20
0.0
 30
0.0
  3
_EX_BNORM
  1

  0
LINE
  5
3F
100
AcDbEntity
  8
0
  6
CONTINUOUS
 62
     0
100
AcDbLine
 10
0.0
 20
0.0
 30
0.0
 11
-1.0
 21
0.0
 31
0.0
  0
LINE
  5
40
100
AcDbEntity
  8
0
  6
CONTINUOUS
 62
     0
100
AcDbLine
 10
0.0
 20
0.0
 30
0.0
 11
-1.0
 21
0.166667
 31
0.0
  0
LINE
  5
41
100
AcDbEntity
  8
0
  6
CONTINUOUS
 62
     0
100
AcDbLine
 10
0.0
 20
0.0
 30
0.0
 11
-1.0
 21
-0.166667
 31
0.0
  0
LINE
  5
42
100
AcDbEntity
  8
0
  6
CONTINUOUS
 62
     0
100
AcDbLine
 10
0.0
 20
0.0
 30
0.0
 11
-1.0
 21
0.083333
 31
0.0
  0
LINE
  5
43
100
AcDbEntity
  8
0
  6
CONTINUOUS
 62
     0
100
AcDbLine
 10
0.0
 20
0.0
 30
0.0
 11
-1.0
 21
-0.083333
 31
0.0
  0
LINE
  5
44
100
AcDbEntity
  8
0
  6
CONTINUOUS
 62
     0
100
AcDbLine
 10
-1.0
 20
0.166667
 30
0.0
 11
-1.0
 21
-0.166667
 31
0.0
  0
ENDBLK
  5
45
100
AcDbEntity
  8
0
100
AcDbBlockEnd
  0
BLOCK
  5
46
100
AcDbEntity
  8
0
100
AcDbBlockBegin
  2
_EX_BCIR
 70
     0
 10
0.0
 20
0.0
 30
0.0
  3
_EX_BCIR
  1

  0
LINE
  5
47
100
AcDbEntity
  8
0
  6
CONTINUOUS
 62
     0
100
AcDbLine
 10
0.0
 20
0.0
 30
0.0
 11
-1.0
 21
0.0
 31
0.0
  0
CIRCLE
  5
48
100
AcDbEntity
  8
0
  6
CONTINUOUS
 62
     0
100
AcDbCircle
 10
0.0
 20
0.0
 30
0.0
 40
0.5
  0
CIRCLE
  5
49
100
AcDbEntity
  8
0
  6
CONTINUOUS
 62
     0
100
AcDbCircle
 10
0.0
 20
0.0
 30
0.0
 40
0.25
  0
ENDBLK
  5
4A
100
AcDbEntity
  8
0
100
AcDbBlockEnd
  0
BLOCK
  5
4B
100
AcDbEntity
  8
0
100
AcDbBlockBegin
  2
_EX_RCIVIL
 70
     0
 10
0.0
 20
0.0
 30
0.0
  3
_EX_RCIVIL
  1

  0
LINE
  5
4C
100
AcDbEntity
  8
0
  6
CONTINUOUS
 62
     0
100
AcDbLine
 10
0.0
 20
0.0
 30
0.0
 11
-1.0
 21
0.0
 31
0.0
  0
LINE
  5
4D
100
AcDbEntity
  8
0
  6
CONTINUOUS
 62
     0
100
AcDbLine
 10
-1.0
 20
-0.25
 30
0.0
 11
0.0
 21
-0.25
 31
0.0
  0
LINE
  5
4E
100
AcDbEntity
  8
0
  6
CONTINUOUS
 62
     0
100
AcDbLine
 10
-1.0
 20
-0.125
 30
0.0
 11
0.0
 21
-0.125
 31
0.0
  0
ENDBLK
  5
4F
100
AcDbEntity
  8
0
100
AcDbBlockEnd
  0
BLOCK
  5
50
100
AcDbEntity
  8
0
100
AcDbBlockBegin
  2
_EX_SLANT
 70
     0
 10
0.0
 20
0.0
 30
0.0
  3
_EX_SLANT
  1

  0
LINE
  5
51
100
AcDbEntity
  8
0
  6
CONTINUOUS
 62
     0
100
AcDbLine
 10
0.0
 20
0.0
 30
0.0
 11
-1.0
 21
0.0
 31
0.0
  0
LINE
  5
52
100
AcDbEntity
  8
0
  6
CONTINUOUS
 62
     0
100
AcDbLine
 10
0.707107
 20
0.707107
 30
0.0
 11
-0.707107
 21
-0.707107
 31
0.0
  0
ENDBLK
  5
53
100
AcDbEntity
  8
0
100
AcDbBlockEnd
  0
BLOCK
  5
54
100
AcDbEntity
  8
0
100
AcDbBlockBegin
  2
_EX_NONE
 70
     0
 10
0.0
 20
0.0
 30
0.0
  3
_EX_NONE
  1

  0
LINE
  5
55
100
AcDbEntity
  8
0
  6
CONTINUOUS
 62
     0
100
AcDbLine
 10
0.0
 20
0.0
 30
0.0
 11
-1.0
 21
0.0
 31
0.0
  0
ENDBLK
  5
56
100
AcDbEntity
  8
0
100
AcDbBlockEnd
  0
BLOCK
  5
57
100
AcDbEntity
  8
0
100
AcDbBlockBegin
  2
_EX_CIVIL
 70
     0
 10
0.0
 20
0.0
 30
0.0
  3
_EX_CIVIL
  1

  0
LINE
  5
58
100
AcDbEntity
  8
0
  6
CONTINUOUS
 62
     0
100
AcDbLine
 10
0.0
 20
0.0
 30
0.0
 11
-1.0
 21
0.0
 31
0.0
  0
LINE
  5
59
100
AcDbEntity
  8
0
  6
CONTINUOUS
 62
     0
100
AcDbLine
 10
-1.0
 20
0.25
 30
0.0
 11
0.0
 21
0.25
 31
0.0
  0
LINE
  5
5A
100
AcDbEntity
  8
0
  6
CONTINUOUS
 62
     0
100
AcDbLine
 10
-1.0
 20
0.125
 30
0.0
 11
0.0
 21
0.125
 31
0.0
  0
ENDBLK
  5
5B
100
AcDbEntity
  8
0
100
AcDbBlockEnd
  0
BLOCK
  5
5C
100
AcDbEntity
  8
0
100
AcDbBlockBegin
  2
_EX_WCIR
 70
     0
 10
0.0
 20
0.0
 30
0.0
  3
_EX_WCIR
  1

  0
LINE
  5
5D
100
AcDbEntity
  8
0
  6
CONTINUOUS
 62
     0
100
AcDbLine
 10
0.0
 20
0.0
 30
0.0
 11
-1.0
 21
0.0
 31
0.0
  0
CIRCLE
  5
5E
100
AcDbEntity
  8
0
  6
CONTINUOUS
 62
     0
100
AcDbCircle
 10
0.0
 20
0.0
 30
0.0
 40
0.5
  0
ENDBLK
  5
5F
100
AcDbEntity
  8
0
100
AcDbBlockEnd
  0
BLOCK
  5
60
100
AcDbEntity
  8
0
100
AcDbBlockBegin
  2
_EX_WCIR2
 70
     0
 10
0.0
 20
0.0
 30
0.0
  3
_EX_WCIR2
  1

  0
LINE
  5
61
100
AcDbEntity
  8
0
  6
CONTINUOUS
 62
     0
100
AcDbLine
 10
-0.5
 20
0.0
 30
0.0
 11
-1.0
 21
0.0
 31
0.0
  0
CIRCLE
  5
62
100
AcDbEntity
  8
0
  6
CONTINUOUS
 62
     0
100
AcDbCircle
 10
0.0
 20
0.0
 30
0.0
 40
0.5
  0
ENDBLK
  5
63
100
AcDbEntity
  8
0
100
AcDbBlockEnd
  0
BLOCK
  5
64
100
AcDbEntity
  8
0
100
AcDbBlockBegin
  2
_EX_WNORM
 70
     0
 10
0.0
 20
0.0
 30
0.0
  3
_EX_WNORM
  1

  0
LINE
  5
65
100
AcDbEntity
  8
0
  6
CONTINUOUS
 62
     0
100
AcDbLine
 10
-1.0
 20
0.0
 30
0.0
 11
-1.0
 21
0.0
 31
0.0
  0
LINE
  5
66
100
AcDbEntity
  8
0
  6
CONTINUOUS
 62
     0
100
AcDbLine
 10
0.0
 20
0.0
 30
0.0
 11
-1.0
 21
0.166667
 31
0.0
  0
LINE
  5
67
100
AcDbEntity
  8
0
  6
CONTINUOUS
 62
     0
100
AcDbLine
 10
0.0
 20
0.0
 30
0.0
 11
-1.0
 21
-0.166667
 31
0.0
  0
LINE
  5
68
100
AcDbEntity
  8
0
  6
CONTINUOUS
 62
     0
100
AcDbLine
 10
-1.0
 20
0.166667
 30
0.0
 11
-1.0
 21
-0.166667
 31
0.0
  0
ENDBLK
  5
69
100
AcDbEntity
  8
0
100
AcDbBlockEnd
  0
BLOCK
  5
6A
100
AcDbEntity
  8
0
100
AcDbBlockBegin
  2
_EX_NNORM
 70
     0
 10
0.0
 20
0.0
 30
0.0
  3
_EX_NNORM
  1

  0
LINE
  5
6B
100
AcDbEntity
  8
0
  6
CONTINUOUS
 62
     0
100
AcDbLine
 10
0.0
 20
0.0
 30
0.0
 11
-1.0
 21
0.0
 31
0.0
  0
LINE
  5
6C
100
AcDbEntity
  8
0
  6
CONTINUOUS
 62
     0
100
AcDbLine
 10
0.0
 20
0.0
 30
0.0
 11
-1.0
 21
0.166667
 31
0.0
  0
LINE
  5
6D
100
AcDbEntity
  8
0
  6
CONTINUOUS
 62
     0
100
AcDbLine
 10
0.0
 20
0.0
 30
0.0
 11
-1.0
 21
-0.166667
 31
0.0
  0
LINE
  5
6E
100
AcDbEntity
  8
0
  6
CONTINUOUS
 62
     0
100
AcDbLine
 10
-1.0
 20
0.166667
 30
0.0
 11
-1.0
 21
-0.166667
 31
0.0
  0
ENDBLK
  5
6F
100
AcDbEntity
  8
0
100
AcDbBlockEnd
  0
BLOCK
  5
70
100
AcDbEntity
  8
0
100
AcDbBlockBegin
  2
_EX_BBOX
 70
     0
 10
0.0
 20
0.0
 30
0.0
  3
_EX_BBOX
  1

  0
LINE
  5
71
100
AcDbEntity
  8
0
  6
CONTINUOUS
 62
     0
100
AcDbLine
 10
0.0
 20
0.0
 30
0.0
 11
-1.0
 21
0.0
 31
0.0
  0
LINE
  5
72
100
AcDbEntity
  8
0
  6
CONTINUOUS
 62
     0
100
AcDbLine
 10
-0.5
 20
0.5
 30
0.0
 11
0.5
 21
0.5
 31
0.0
  0
LINE
  5
73
100
AcDbEntity
  8
0
  6
CONTINUOUS
 62
     0
100
AcDbLine
 10
0.5
 20
0.5
 30
0.0
 11
0.5
 21
-0.5
 31
0.0
  0
LINE
  5
74
100
AcDbEntity
  8
0
  6
CONTINUOUS
 62
     0
100
AcDbLine
 10
0.5
 20
-0.5
 30
0.0
 11
-0.5
 21
-0.5
 31
0.0
  0
LINE
  5
75
100
AcDbEntity
  8
0
  6
CONTINUOUS
 62
     0
100
AcDbLine
 10
-0.5
 20
-0.5
 30
0.0
 11
-0.5
 21
0.5
 31
0.0
  0
LINE
  5
76
100
AcDbEntity
  8
0
  6
CONTINUOUS
 62
     0
100
AcDbLine
 10
-0.25
 20
0.25
 30
0.0
 11
0.25
 21
0.25
 31
0.0
  0
LINE
  5
77
100
AcDbEntity
  8
0
  6
CONTINUOUS
 62
     0
100
AcDbLine
 10
0.25
 20
0.25
 30
0.0
 11
0.25
 21
-0.25
 31
0.0
  0
LINE
  5
78
100
AcDbEntity
  8
0
  6
CONTINUOUS
 62
     0
100
AcDbLine
 10
0.25
 20
-0.25
 30
0.0
 11
-0.25
 21
-0.25
 31
0.0
  0
LINE
  5
79
100
AcDbEntity
  8
0
  6
CONTINUOUS
 62
     0
100
AcDbLine
 10
-0.25
 20
-0.25
 30
0.0
 11
-0.25
 21
0.25
 31
0.0
  0
ENDBLK
  5
7A
100
AcDbEntity
  8
0
100
AcDbBlockEnd
  0
BLOCK
  5
7B
100
AcDbEntity
  8
0
100
AcDbBlockBegin
  2
_EX_WBOX
 70
     0
 10
0.0
 20
0.0
 30
0.0
  3
_EX_WBOX
  1

  0
LINE
  5
7C
100
AcDbEntity
  8
0
  6
CONTINUOUS
 62
     0
100
AcDbLine
 10
-0.5
 20
0.0
 30
0.0
 11
-1.0
 21
0.0
 31
0.0
  0
LINE
  5
7D
100
AcDbEntity
  8
0
  6
CONTINUOUS
 62
     0
100
AcDbLine
 10
-0.5
 20
0.5
 30
0.0
 11
0.5
 21
0.5
 31
0.0
  0
LINE
  5
7E
100
AcDbEntity
  8
0
  6
CONTINUOUS
 62
     0
100
AcDbLine
 10
0.5
 20
0.5
 30
0.0
 11
0.5
 21
-0.5
 31
0.0
  0
LINE
  5
7F
100
AcDbEntity
  8
0
  6
CONTINUOUS
 62
     0
100
AcDbLine
 10
0.5
 20
-0.5
 30
0.0
 11
-0.5
 21
-0.5
 31
0.0
  0
LINE
  5
80
100
AcDbEntity
  8
0
  6
CONTINUOUS
 62
     0
100
AcDbLine
 10
-0.5
 20
-0.5
 30
0.0
 11
-0.5
 21
0.5
 31
0.0
  0
ENDBLK
  5
81
100
AcDbEntity
  8
0
100
AcDbBlockEnd
  0
BLOCK
  5
82
100
AcDbEntity
  8
0
100
AcDbBlockBegin
  2
_EX_INTEGRAL
 70
     0
 10
0.0
 20
0.0
 30
0.0
  3
_EX_INTEGRAL
  1

  0
LINE
  5
83
100
AcDbEntity
  8
0
  6
CONTINUOUS
 62
     0
100
AcDbLine
 10
0.0
 20
0.0
 30
0.0
 11
-1.0
 21
0.0
 31
0.0
  0
ARC
  5
84
100
AcDbEntity
  8
0
  6
CONTINUOUS
 62
     0
100
AcDbCircle
 10
0.542115
 20
0.164992
 30
0.0
 40
0.56667
100
AcDbArc
 50
73.07249
 51
196.927513
  0
ARC
  5
85
100
AcDbEntity
  8
0
  6
CONTINUOUS
 62
     0
100
AcDbCircle
 10
-0.542115
 20
-0.164992
 30
0.0
 40
0.56667
100
AcDbArc
 50
253.072487
 51
16.927513
  0
ENDBLK
  5
86
100
AcDbEntity
  8
0
100
AcDbBlockEnd
  0
ENDSEC
  0
SECTION
  2
ENTITIES
  0
TEXT
  5
87
100
AcDbEntity
  8
枠_
  6
CONTINUOUS
 62
     2
100
AcDbText
 10
840.25
 20
243.75
 30
0.0
 40
62.5
  1
隅付小形手洗器
 41
0.9744
  7
EXCADSTD
 72
     5
 11
1347.75
 21
243.75
 31
0.0
100
AcDbText
  0
TEXT
  5
88
100
AcDbEntity
  8
枠_
  6
CONTINUOUS
 62
     2
100
AcDbText
 10
1458.0
 20
243.75
 30
0.0
 40
62.5
  1
Ｌ９１Ｄ
 41
0.82656
  7
EXCADSTD
 72
     5
 11
1704.0
 21
243.75
 31
0.0
100
AcDbText
  0
LINE
  5
89
100
AcDbEntity
  8
枠_
  6
CONTINUOUS
 62
     7
100
AcDbLine
 10
179.0
 20
115.0
 30
0.0
 11
1999.0
 21
115.0
 31
0.0
  0
LINE
  5
8A
100
AcDbEntity
  8
枠_
  6
CONTINUOUS
 62
     7
100
AcDbLine
 10
1999.0
 20
115.0
 30
0.0
 11
1999.0
 21
2915.0
 31
0.0
  0
LINE
  5
8B
100
AcDbEntity
  8
枠_
  6
CONTINUOUS
 62
     7
100
AcDbLine
 10
179.0
 20
115.0
 30
0.0
 11
179.0
 21
2915.0
 31
0.0
  0
LINE
  5
8C
100
AcDbEntity
  8
枠_
  6
CONTINUOUS
 62
     7
100
AcDbLine
 10
179.0
 20
2915.0
 30
0.0
 11
1999.0
 21
2915.0
 31
0.0
  0
LINE
  5
8D
100
AcDbEntity
  8
枠_
  6
CONTINUOUS
 62
     7
100
AcDbLine
 10
179.0
 20
335.0
 30
0.0
 11
1999.0
 21
335.0
 31
0.0
  0
LINE
  5
8E
100
AcDbEntity
  8
枠_
  6
CONTINUOUS
 62
     6
100
AcDbLine
 10
1999.0
 20
215.0
 30
0.0
 11
749.0
 21
215.0
 31
0.0
  0
LINE
  5
8F
100
AcDbEntity
  8
枠_
  6
CONTINUOUS
 62
     6
100
AcDbLine
 10
1859.0
 20
335.0
 30
0.0
 11
1859.0
 21
215.0
 31
0.0
  0
LINE
  5
90
100
AcDbEntity
  8
枠_
  6
CONTINUOUS
 62
     6
100
AcDbLine
 10
1809.0
 20
335.0
 30
0.0
 11
1809.0
 21
215.0
 31
0.0
  0
LINE
  5
91
100
AcDbEntity
  8
枠_
  6
CONTINUOUS
 62
     6
100
AcDbLine
 10
1439.0
 20
335.0
 30
0.0
 11
1439.0
 21
115.0
 31
0.0
  0
LINE
  5
92
100
AcDbEntity
  8
枠_
  6
CONTINUOUS
 62
     6
100
AcDbLine
 10
1389.0
 20
335.0
 30
0.0
 11
1389.0
 21
115.0
 31
0.0
  0
LINE
  5
93
100
AcDbEntity
  8
枠_
  6
CONTINUOUS
 62
     6
100
AcDbLine
 10
799.0
 20
335.0
 30
0.0
 11
799.0
 21
215.0
 31
0.0
  0
LINE
  5
94
100
AcDbEntity
  8
枠_
  6
CONTINUOUS
 62
     6
100
AcDbLine
 10
749.0
 20
335.0
 30
0.0
 11
749.0
 21
115.0
 31
0.0
  0
LINE
  5
95
100
AcDbEntity
  8
枠_
  6
CONTINUOUS
 62
     6
100
AcDbLine
 10
619.0
 20
335.0
 30
0.0
 11
619.0
 21
115.0
 31
0.0
  0
LINE
  5
96
100
AcDbEntity
  8
枠_
  6
CONTINUOUS
 62
     6
100
AcDbLine
 10
489.0
 20
335.0
 30
0.0
 11
489.0
 21
115.0
 31
0.0
  0
LINE
  5
97
100
AcDbEntity
  8
枠_
  6
CONTINUOUS
 62
     6
100
AcDbLine
 10
334.0
 20
335.0
 30
0.0
 11
334.0
 21
115.0
 31
0.0
  0
LINE
  5
98
100
AcDbEntity
  8
枠_
  6
CONTINUOUS
 62
     6
100
AcDbLine
 10
179.0
 20
285.0
 30
0.0
 11
749.0
 21
285.0
 31
0.0
  0
LINE
  5
99
100
AcDbEntity
  8
枠_
  6
CONTINUOUS
 62
     6
100
AcDbLine
 10
1891.653809
 20
238.00293
 30
0.0
 11
1968.993897
 21
316.699829
 31
0.0
  0
TEXT
  5
9A
100
AcDbEntity
  8
枠_
  6
CONTINUOUS
 62
     2
100
AcDbText
 10
1889.537109
 20
282.722778
 30
0.0
 40
30.0
  1
１
 41
0.826
  7
EXCADSTD
 72
     5
 11
1913.13711
 21
282.722778
 31
0.0
100
AcDbText
  0
TEXT
  5
9B
100
AcDbEntity
  8
枠_
  6
CONTINUOUS
 62
     2
100
AcDbText
 10
1930.279297
 20
238.348846
 30
0.0
 40
30.0
  1
１０
 41
0.791
  7
EXCADSTD
 72
     5
 11
1982.067198
 21
238.348846
 31
0.0
100
AcDbText
  0
TEXT
  5
9C
100
AcDbEntity
  8
枠_
  6
CONTINUOUS
 62
     2
100
AcDbText
 10
201.5
 20
288.75
 30
0.0
 40
42.5
  1
製図
 41
1.087059
  7
EXCADSTD
 72
     5
 11
302.326
 21
288.75
 31
0.0
100
AcDbText
  0
TEXT
  5
9D
100
AcDbEntity
  8
枠_
  6
CONTINUOUS
 62
     2
100
AcDbText
 10
356.5
 20
288.75
 30
0.0
 40
42.5
  1
写図
 41
1.087059
  7
EXCADSTD
 72
     5
 11
457.326
 21
288.75
 31
0.0
100
AcDbText
  0
TEXT
  5
9E
100
AcDbEntity
  8
枠_
  6
CONTINUOUS
 62
     2
100
AcDbText
 10
506.5
 20
288.75
 30
0.0
 40
42.5
  1
検図
 41
0.938824
  7
EXCADSTD
 72
     5
 11
593.577
 21
288.75
 31
0.0
100
AcDbText
  0
TEXT
  5
9F
100
AcDbEntity
  8
枠_
  6
CONTINUOUS
 62
     2
100
AcDbText
 10
636.5
 20
288.75
 30
0.0
 40
42.5
  1
承認
 41
0.938824
  7
EXCADSTD
 72
     5
 11
723.577
 21
288.75
 31
0.0
100
AcDbText
  0
TEXT
  5
A0
100
AcDbEntity
  8
枠_
  6
CONTINUOUS
 62
     2
100
AcDbText
 10
752.75
 20
278.75
 30
0.0
 40
42.5
  1
品
 41
0.84
  7
EXCADSTD
 72
     5
 11
786.75
 21
278.75
 31
0.0
100
AcDbText
  0
TEXT
  5
A1
100
AcDbEntity
  8
枠_
  6
CONTINUOUS
 62
     2
100
AcDbText
 10
752.75
 20
228.75
 30
0.0
 40
42.5
  1
名
 41
0.84
  7
EXCADSTD
 72
     5
 11
786.75
 21
228.75
 31
0.0
100
AcDbText
  0
TEXT
  5
A2
100
AcDbEntity
  8
枠_
  6
CONTINUOUS
 62
     2
100
AcDbText
 10
1392.75
 20
278.75
 30
0.0
 40
42.5
  1
品
 41
0.84
  7
EXCADSTD
 72
     5
 11
1426.75
 21
278.75
 31
0.0
100
AcDbText
  0
TEXT
  5
A3
100
AcDbEntity
  8
枠_
  6
CONTINUOUS
 62
     2
100
AcDbText
 10
1392.75
 20
228.75
 30
0.0
 40
42.5
  1
番
 41
0.84
  7
EXCADSTD
 72
     5
 11
1426.75
 21
228.75
 31
0.0
100
AcDbText
  0
TEXT
  5
A4
100
AcDbEntity
  8
枠_
  6
CONTINUOUS
 62
     2
100
AcDbText
 10
1812.75
 20
278.75
 30
0.0
 40
42.5
  1
尺
 41
0.84
  7
EXCADSTD
 72
     5
 11
1846.75
 21
278.75
 31
0.0
100
AcDbText
  0
TEXT
  5
A5
100
AcDbEntity
  8
枠_
  6
CONTINUOUS
 62
     2
100
AcDbText
 10
1812.75
 20
228.75
 30
0.0
 40
42.5
  1
度
 41
0.84
  7
EXCADSTD
 72
     5
 11
1846.75
 21
228.75
 31
0.0
100
AcDbText
  0
TEXT
  5
A6
100
AcDbEntity
  8
枠_
  6
CONTINUOUS
 62
     2
100
AcDbText
 10
1392.75
 20
165.75
 30
0.0
 40
42.5
  1
図
 41
0.84
  7
EXCADSTD
 72
     5
 11
1426.75
 21
165.75
 31
0.0
100
AcDbText
  0
TEXT
  5
A7
100
AcDbEntity
  8
枠_
  6
CONTINUOUS
 62
     2
100
AcDbText
 10
1392.75
 20
122.75
 30
0.0
 40
42.5
  1
番
 41
0.84
  7
EXCADSTD
 72
     5
 11
1426.75
 21
122.75
 31
0.0
100
AcDbText
  0
LINE
  5
A8
100
AcDbEntity
  8
枠_
  6
EXLTYPE2
 62
     6
100
AcDbLine
 10
179.0
 20
165.0
 30
0.0
 11
489.0
 21
165.0
 31
0.0
  0
CIRCLE
  5
A9
100
AcDbEntity
  8
枠_
  6
CONTINUOUS
 62
     6
100
AcDbCircle
 10
229.0
 20
140.0
 30
0.0
 40
1.0
  0
CIRCLE
  5
AA
100
AcDbEntity
  8
枠_
  6
CONTINUOUS
 62
     6
100
AcDbCircle
 10
279.0
 20
140.0
 30
0.0
 40
1.0
  0
CIRCLE
  5
AB
100
AcDbEntity
  8
枠_
  6
CONTINUOUS
 62
     6
100
AcDbCircle
 10
384.0
 20
140.0
 30
0.0
 40
1.0
  0
CIRCLE
  5
AC
100
AcDbEntity
  8
枠_
  6
CONTINUOUS
 62
     6
100
AcDbCircle
 10
434.0
 20
140.0
 30
0.0
 40
1.0
  0
LINE
  5
AD
100
AcDbEntity
  8
枠_
  6
EXLTYPE2
 62
     6
100
AcDbLine
 10
179.0
 20
1515.0
 30
0.0
 11
-21.0
 21
1515.0
 31
0.0
  0
TEXT
  5
AE
100
AcDbEntity
  8
枠_
  6
CONTINUOUS
 62
     6
100
AcDbText
 10
205.5
 20
200.0
 30
0.0
 40
50.0
  1
間瀬
 41
0.8568
  7
EXCADSTD
 72
     5
 11
298.9932
 21
200.0
 31
0.0
100
AcDbText
  0
TEXT
  5
AF
100
AcDbEntity
  8
枠_
  6
CONTINUOUS
 62
     6
100
AcDbText
 10
635.0
 20
200.0
 30
0.0
 40
50.0
  1
古林
 41
0.8568
  7
EXCADSTD
 72
     5
 11
728.4932
 21
200.0
 31
0.0
100
AcDbText
  0
TEXT
  5
B0
100
AcDbEntity
  8
枠_
  6
CONTINUOUS
 62
     6
100
AcDbText
 10
181.044116
 20
126.950073
 30
0.0
 40
25.0
  1
２０
 41
0.75768
  7
EXCADSTD
 72
     5
 11
222.382775
 21
126.950073
 31
0.0
100
AcDbText
  0
TEXT
  5
B1
100
AcDbEntity
  8
枠_
  6
CONTINUOUS
 62
     6
100
AcDbText
 10
231.144116
 20
126.950073
 30
0.0
 40
25.0
  1
１１
 41
0.75768
  7
EXCADSTD
 72
     5
 11
272.482775
 21
126.950073
 31
0.0
100
AcDbText
  0
TEXT
  5
B2
100
AcDbEntity
  8
枠_
  6
CONTINUOUS
 62
     6
100
AcDbText
 10
289.044116
 20
126.950073
 30
0.0
 40
25.0
  1
７
 41
0.89208
  7
EXCADSTD
 72
     5
 11
310.284116
 21
126.950073
 31
0.0
100
AcDbText
  0
TEXT
  5
B4
100
AcDbEntity
  8
枠_
  6
CONTINUOUS
 62
     2
100
AcDbText
 10
769.0
 20
135.0
 30
0.0
 40
45.0
  1
ジャニス工業株式会社
  7
EXCADTTF1
 72
     5
 11
1369.0
 21
135.0
 31
0.0
100
AcDbText
  0
TEXT
  5
B5
100
AcDbEntity
  8
枠_
  6
CONTINUOUS
 62
     7
100
AcDbText
 10
1453.25
 20
130.75
 30
0.0
 40
70.0
  1
Ｌ００９１０１４
 41
0.795
  7
EXCADSTD
 72
     5
 11
1983.25
 21
130.75
 31
0.0
100
AcDbText
  0
TEXT
  5
B6
100
AcDbEntity
  8
洗面器
  6
CONTINUOUS
 62
     2
100
AcDbText
 10
921.691132
 20
1886.749309
 30
0.0
 40
40.0
  1
２３５
 50
90.0
 41
0.833
  7
EXCADSTD
 72
     5
 11
921.691132
 21
2005.749309
 31
0.0
100
AcDbText
  0
LINE
  5
B7
100
AcDbEntity
  8
洗面器
  6
CONTINUOUS
 62
     3
100
AcDbLine
 10
925.191132
 20
1828.498619
 30
0.0
 11
925.191132
 21
2064.0
 31
0.0
  0
LINE
  5
B8
100
AcDbEntity
  8
洗面器
  6
CONTINUOUS
 62
     3
100
AcDbLine
 10
919.357798
 20
1863.498619
 30
0.0
 11
925.191132
 21
1828.498619
 31
0.0
  0
LINE
  5
B9
100
AcDbEntity
  8
洗面器
  6
CONTINUOUS
 62
     3
100
AcDbLine
 10
925.191132
 20
1828.498619
 30
0.0
 11
931.024465
 21
1863.498619
 31
0.0
  0
LINE
  5
BA
100
AcDbEntity
  8
洗面器
  6
CONTINUOUS
 62
     3
100
AcDbLine
 10
931.024465
 20
2029.0
 30
0.0
 11
925.191132
 21
2064.0
 31
0.0
  0
LINE
  5
BB
100
AcDbEntity
  8
洗面器
  6
CONTINUOUS
 62
     3
100
AcDbLine
 10
925.191132
 20
2064.0
 30
0.0
 11
919.357798
 21
2029.0
 31
0.0
  0
TEXT
  5
BC
100
AcDbEntity
  8
洗面器
  6
CONTINUOUS
 62
     2
100
AcDbText
 10
981.691132
 20
1886.498619
 30
0.0
 40
40.0
  1
１８０
 50
90.0
 41
0.833
  7
EXCADSTD
 72
     5
 11
981.691132
 21
2005.498619
 31
0.0
100
AcDbText
  0
LINE
  5
BD
100
AcDbEntity
  8
洗面器
  6
CONTINUOUS
 62
     3
100
AcDbLine
 10
985.191132
 20
2035.998619
 30
0.0
 11
985.191132
 21
1855.998619
 31
0.0
  0
LINE
  5
BE
100
AcDbEntity
  8
洗面器
  6
CONTINUOUS
 62
     3
100
AcDbLine
 10
991.024465
 20
2000.998619
 30
0.0
 11
985.191132
 21
2035.998619
 31
0.0
  0
LINE
  5
BF
100
AcDbEntity
  8
洗面器
  6
CONTINUOUS
 62
     3
100
AcDbLine
 10
985.191132
 20
2035.998619
 30
0.0
 11
979.357798
 21
2000.998619
 31
0.0
  0
LINE
  5
C0
100
AcDbEntity
  8
洗面器
  6
CONTINUOUS
 62
     3
100
AcDbLine
 10
979.357798
 20
1890.998619
 30
0.0
 11
985.191132
 21
1855.998619
 31
0.0
  0
LINE
  5
C1
100
AcDbEntity
  8
洗面器
  6
CONTINUOUS
 62
     3
100
AcDbLine
 10
985.191132
 20
1855.998619
 30
0.0
 11
991.024465
 21
1890.998619
 31
0.0
  0
TEXT
  5
C2
100
AcDbEntity
  8
洗面器
  6
CONTINUOUS
 62
     2
100
AcDbText
 10
1373.691132
 20
1982.749318
 30
0.0
 40
40.0
  1
８０
 50
90.0
 41
0.861
  7
EXCADSTD
 72
     5
 11
1373.691132
 21
2057.910517
 31
0.0
100
AcDbText
  0
LINE
  5
C3
100
AcDbEntity
  8
洗面器
  6
CONTINUOUS
 62
     3
100
AcDbLine
 10
1377.191132
 20
2109.0
 30
0.0
 11
1377.191132
 21
1938.498635
 31
0.0
  0
LINE
  5
C4
100
AcDbEntity
  8
洗面器
  6
CONTINUOUS
 62
     3
100
AcDbLine
 10
1371.357798
 20
2099.0
 30
0.0
 11
1377.191132
 21
2064.0
 31
0.0
  0
LINE
  5
C5
100
AcDbEntity
  8
洗面器
  6
CONTINUOUS
 62
     3
100
AcDbLine
 10
1377.191132
 20
2064.0
 30
0.0
 11
1383.024465
 21
2099.0
 31
0.0
  0
LINE
  5
C6
100
AcDbEntity
  8
洗面器
  6
CONTINUOUS
 62
     3
100
AcDbLine
 10
1383.024465
 20
1948.498635
 30
0.0
 11
1377.191132
 21
1983.498635
 31
0.0
  0
LINE
  5
C7
100
AcDbEntity
  8
洗面器
  6
CONTINUOUS
 62
     3
100
AcDbLine
 10
1377.191132
 20
1983.498635
 30
0.0
 11
1371.357798
 21
1948.498635
 31
0.0
  0
TEXT
  5
C8
100
AcDbEntity
  8
洗面器
  6
CONTINUOUS
 62
     2
100
AcDbText
 10
1374.194061
 20
1313.299992
 30
0.0
 40
40.0
  1
３０
 50
90.0
 41
0.861
  7
EXCADSTD
 72
     5
 11
1374.194061
 21
1388.461192
 31
0.0
100
AcDbText
  0
LINE
  5
C9
100
AcDbEntity
  8
洗面器
  6
CONTINUOUS
 62
     3
100
AcDbLine
 10
1377.694061
 20
1379.224243
 30
0.0
 11
1377.694061
 21
1214.999984
 31
0.0
  0
LINE
  5
CA
100
AcDbEntity
  8
洗面器
  6
CONTINUOUS
 62
     3
100
AcDbLine
 10
1371.860728
 20
1325.0
 30
0.0
 11
1377.694061
 21
1290.0
 31
0.0
  0
LINE
  5
CB
100
AcDbEntity
  8
洗面器
  6
CONTINUOUS
 62
     3
100
AcDbLine
 10
1377.694061
 20
1290.0
 30
0.0
 11
1383.527395
 21
1325.0
 31
0.0
  0
LINE
  5
CC
100
AcDbEntity
  8
洗面器
  6
CONTINUOUS
 62
     3
100
AcDbLine
 10
1383.527395
 20
1224.999984
 30
0.0
 11
1377.694061
 21
1259.999984
 31
0.0
  0
LINE
  5
CD
100
AcDbEntity
  8
洗面器
  6
CONTINUOUS
 62
     3
100
AcDbLine
 10
1377.694061
 20
1259.999984
 30
0.0
 11
1371.860728
 21
1224.999984
 31
0.0
  0
TEXT
  5
CE
100
AcDbEntity
  8
洗面器
  6
CONTINUOUS
 62
     2
100
AcDbText
 10
955.194061
 20
1315.000014
 30
0.0
 40
40.0
  1
５０
 50
90.0
 41
0.861
  7
EXCADSTD
 72
     5
 11
955.194061
 21
1390.161214
 31
0.0
100
AcDbText
  0
TEXT
  5
CF
100
AcDbEntity
  8
洗面器
  6
CONTINUOUS
 62
     2
100
AcDbText
 10
955.194061
 20
1120.5
 30
0.0
 40
40.0
  1
１２０
 50
90.0
 41
0.833
  7
EXCADSTD
 72
     5
 11
955.194061
 21
1239.5
 31
0.0
100
AcDbText
  0
LINE
  5
D0
100
AcDbEntity
  8
洗面器
  6
CONTINUOUS
 62
     3
100
AcDbLine
 10
958.694061
 20
1120.0
 30
0.0
 11
958.694061
 21
1240.0
 31
0.0
  0
LINE
  5
D1
100
AcDbEntity
  8
洗面器
  6
CONTINUOUS
 62
     3
100
AcDbLine
 10
952.860728
 20
1155.0
 30
0.0
 11
958.694061
 21
1120.0
 31
0.0
  0
LINE
  5
D2
100
AcDbEntity
  8
洗面器
  6
CONTINUOUS
 62
     3
100
AcDbLine
 10
958.694061
 20
1120.0
 30
0.0
 11
964.527395
 21
1155.0
 31
0.0
  0
LINE
  5
D3
100
AcDbEntity
  8
洗面器
  6
CONTINUOUS
 62
     3
100
AcDbLine
 10
964.527395
 20
1205.0
 30
0.0
 11
958.694061
 21
1240.0
 31
0.0
  0
LINE
  5
D4
100
AcDbEntity
  8
洗面器
  6
CONTINUOUS
 62
     3
100
AcDbLine
 10
958.694061
 20
1240.0
 30
0.0
 11
952.860728
 21
1205.0
 31
0.0
  0
LEADER
  5
D5
100
AcDbEntity
  8
洗面器
  6
CONTINUOUS
 62
     6
100
AcDbLeader
  3
STANDARD
 73
     3
 74
     1
 75
     0
 40
0.0
 76
     2
 10
1202.507251
 20
1263.75
 30
0.0
 10
983.428846
 20
1390.234976
 30
0.0
 77
     6
1001
ACAD
1000
DSTYLE
1002
{
1070
    41
1040
35.0
1070
     5
1000
_EX_NORM
1070
     6
1000
_EX_NORM
1070
     7
1000
_EX_NORM
1070
   341
1005
2B
1002
}
  0
LINE
  5
D6
100
AcDbEntity
  8
洗面器
  6
CONTINUOUS
 62
     7
100
AcDbLine
 10
800.902161
 20
2064.0
 30
0.0
 11
1289.0
 21
2064.0
 31
0.0
  0
LINE
  5
D7
100
AcDbEntity
  8
洗面器
  6
CONTINUOUS
 62
     3
100
AcDbLine
 10
958.694061
 20
1290.000029
 30
0.0
 11
967.752728
 21
1323.807433
 31
0.0
  0
LINE
  5
D8
100
AcDbEntity
  8
洗面器
  6
CONTINUOUS
 62
     3
100
AcDbLine
 10
958.694061
 20
1290.000029
 30
0.0
 11
949.635395
 21
1323.807433
 31
0.0
  0
LINE
  5
D9
100
AcDbEntity
  8
洗面器
  6
CONTINUOUS
 62
     3
100
AcDbLine
 10
958.694061
 20
1240.0
 30
0.0
 11
958.694061
 21
1383.224243
 31
0.0
  0
ARC
  5
DA
100
AcDbEntity
  8
洗面器
  6
CONTINUOUS
 62
     7
100
AcDbCircle
 10
1264.0
 20
2038.999107
 30
0.0
 40
5.0
100
AcDbArc
 50
0.0
 51
90.0
  0
LINE
  5
DB
100
AcDbEntity
  8
洗面器
  6
CONTINUOUS
 62
     7
100
AcDbLine
 10
1139.0
 20
2043.999107
 30
0.0
 11
1264.0
 21
2043.999107
 31
0.0
  0
ARC
  5
DC
100
AcDbEntity
  8
洗面器
  6
CONTINUOUS
 62
     7
100
AcDbCircle
 10
1170.999512
 20
1945.998619
 30
0.0
 40
90.0
100
AcDbArc
 50
11.837217
 51
357.771787
  0
ARC
  5
DD
100
AcDbEntity
  8
洗面器
  6
CONTINUOUS
 62
     7
100
AcDbCircle
 10
1170.999512
 20
1945.998619
 30
0.0
 40
116.999998
100
AcDbArc
 50
136.653976
 51
313.34465
  0
ARC
  5
DE
100
AcDbEntity
  8
洗面器
  6
CONTINUOUS
 62
     7
100
AcDbCircle
 10
1304.080566
 20
1820.388267
 30
0.0
 40
300.0
100
AcDbArc
 50
125.704361
 51
136.654083
  0
ARC
  5
DF
100
AcDbEntity
  8
洗面器
  6
CONTINUOUS
 62
     7
100
AcDbCircle
 10
1045.391602
 20
2079.082115
 30
0.0
 40
300.0
100
AcDbArc
 50
313.344711
 51
324.294754
  0
ARC
  5
E0
100
AcDbEntity
  8
洗面器
  6
CONTINUOUS
 62
     7
100
AcDbCircle
 10
1066.001953
 20
1228.000031
 30
0.0
 40
11.999998
100
AcDbArc
 50
90.0
 51
180.0
  0
ARC
  5
E1
100
AcDbEntity
  8
洗面器
  6
CONTINUOUS
 62
     7
100
AcDbCircle
 10
1260.386719
 20
1245.0
 30
0.0
 40
5.0
100
AcDbArc
 50
270.0
 51
355.42627
  0
ARC
  5
E2
100
AcDbEntity
  8
洗面器
  6
CONTINUOUS
 62
     7
100
AcDbCircle
 10
1276.387695
 20
1281.99997
 30
0.0
 40
8.0
100
AcDbArc
 50
90.0
 51
175.426041
  0
ARC
  5
E3
100
AcDbEntity
  8
洗面器
  6
CONTINUOUS
 62
     7
100
AcDbCircle
 10
1059.0
 20
1215.0
 30
0.0
 40
5.0
100
AcDbArc
 50
180.0
 51
270.0
  0
ARC
  5
E4
100
AcDbEntity
  8
洗面器
  6
CONTINUOUS
 62
     7
100
AcDbCircle
 10
1148.838867
 20
1278.000031
 30
0.0
 40
11.999998
100
AcDbArc
 50
90.0
 51
168.690216
  0
ARC
  5
E5
100
AcDbEntity
  8
洗面器
  6
CONTINUOUS
 62
     7
100
AcDbCircle
 10
1124.90332
 20
1245.0
 30
0.0
 40
5.0
100
AcDbArc
 50
270.0
 51
348.69043
  0
LINE
  5
E6
100
AcDbEntity
  8
洗面器
  6
CONTINUOUS
 62
     7
100
AcDbLine
 10
1268.411621
 20
1282.63794
 30
0.0
 11
1265.369629
 21
1244.601288
 31
0.0
  0
LINE
  5
E7
100
AcDbEntity
  8
洗面器
  6
CONTINUOUS
 62
     7
100
AcDbLine
 10
1137.071289
 20
1280.353546
 30
0.0
 11
1129.805664
 21
1244.01947
 31
0.0
  0
LINE
  5
E8
100
AcDbEntity
  8
洗面器
  6
CONTINUOUS
 62
     7
100
AcDbLine
 10
1148.838867
 20
1290.0
 30
0.0
 11
1289.002441
 21
1290.0
 31
0.0
  0
LINE
  5
E9
100
AcDbEntity
  8
洗面器
  6
CONTINUOUS
 62
     7
100
AcDbLine
 10
1059.0
 20
1210.0
 30
0.0
 11
1289.0
 21
1210.0
 31
0.0
  0
LINE
  5
EA
100
AcDbEntity
  8
洗面器
  6
CONTINUOUS
 62
     7
100
AcDbLine
 10
1054.002441
 20
1228.000031
 30
0.0
 11
1054.0
 21
1215.0
 31
0.0
  0
LINE
  5
EB
100
AcDbEntity
  8
洗面器
  6
CONTINUOUS
 62
     7
100
AcDbLine
 10
1147.498535
 20
1120.0
 30
0.0
 11
1210.501465
 21
1120.0
 31
0.0
  0
ARC
  5
EC
100
AcDbEntity
  8
洗面器
  6
CONTINUOUS
 62
     6
100
AcDbCircle
 10
1305.77124
 20
1956.572823
 30
0.0
 40
30.0
100
AcDbArc
 50
63.834961
 51
83.821533
  0
ARC
  5
ED
100
AcDbEntity
  8
洗面器
  6
CONTINUOUS
 62
     6
100
AcDbCircle
 10
1305.77124
 20
2010.424447
 30
0.0
 40
30.0
100
AcDbArc
 50
276.178467
 51
296.165039
  0
ARC
  5
EE
100
AcDbEntity
  8
洗面器
  6
CONTINUOUS
 62
     6
100
AcDbCircle
 10
1269.517883
 20
1983.498635
 30
0.0
 40
7.517859
100
AcDbArc
 50
93.950073
 51
266.050049
  0
ARC
  5
EF
100
AcDbEntity
  8
洗面器
  6
CONTINUOUS
 62
     6
100
AcDbCircle
 10
1235.925812
 20
2080.770347
 30
0.0
 40
30.0
100
AcDbArc
 50
153.834961
 51
173.821533
  0
ARC
  5
F0
100
AcDbEntity
  8
洗面器
  6
CONTINUOUS
 62
     6
100
AcDbCircle
 10
1182.074188
 20
2080.770347
 30
0.0
 40
30.0
100
AcDbArc
 50
6.178467
 51
26.165039
  0
ARC
  5
F1
100
AcDbEntity
  8
洗面器
  6
CONTINUOUS
 62
     6
100
AcDbCircle
 10
1209.0
 20
2044.51699
 30
0.0
 40
7.517859
100
AcDbArc
 50
183.950073
 51
356.050049
  0
LINE
  5
F2
100
AcDbEntity
  8
洗面器
  6
CONTINUOUS
 62
     6
100
AcDbLine
 10
1211.899933
 20
2063.999107
 30
0.0
 11
1211.899933
 21
2083.999107
 31
0.0
  0
LINE
  5
F3
100
AcDbEntity
  8
洗面器
  6
CONTINUOUS
 62
     6
100
AcDbLine
 10
1206.100067
 20
2063.999107
 30
0.0
 11
1206.100067
 21
2083.999107
 31
0.0
  0
LINE
  5
F4
100
AcDbEntity
  8
洗面器
  6
CONTINUOUS
 62
     6
100
AcDbLine
 10
1289.0
 20
1986.398568
 30
0.0
 11
1309.0
 21
1986.398568
 31
0.0
  0
LINE
  5
F5
100
AcDbEntity
  8
洗面器
  6
CONTINUOUS
 62
     6
100
AcDbLine
 10
1289.0
 20
1980.598702
 30
0.0
 11
1309.0
 21
1980.598702
 31
0.0
  0
CIRCLE
  5
F6
100
AcDbEntity
  8
洗面器
  6
CONTINUOUS
 62
     6
100
AcDbCircle
 10
1209.002441
 20
1260.0
 30
0.0
 40
7.5
  0
ARC
  5
F7
100
AcDbEntity
  8
洗面器
  6
CONTINUOUS
 62
     6
100
AcDbCircle
 10
1303.972229
 20
1286.925812
 30
0.0
 40
30.0
100
AcDbArc
 50
276.178467
 51
296.165039
  0
ARC
  5
F8
100
AcDbEntity
  8
洗面器
  6
CONTINUOUS
 62
     6
100
AcDbCircle
 10
1303.972229
 20
1233.074188
 30
0.0
 40
30.0
100
AcDbArc
 50
63.834961
 51
83.821533
  0
ARC
  5
F9
100
AcDbEntity
  8
洗面器
  6
CONTINUOUS
 62
     6
100
AcDbCircle
 10
1267.718872
 20
1260.0
 30
0.0
 40
7.517859
100
AcDbArc
 50
93.950073
 51
256.904785
  0
LINE
  5
FA
100
AcDbEntity
  8
洗面器
  6
CONTINUOUS
 62
     6
100
AcDbLine
 10
1289.002441
 20
1262.899933
 30
0.0
 11
1307.200989
 21
1262.899933
 31
0.0
  0
LINE
  5
FB
100
AcDbEntity
  8
洗面器
  6
CONTINUOUS
 62
     6
100
AcDbLine
 10
1289.002441
 20
1257.100067
 30
0.0
 11
1307.200989
 21
1257.100067
 31
0.0
  0
ARC
  5
FC
100
AcDbEntity
  8
洗面器
  6
CONTINUOUS
 62
     7
100
AcDbCircle
 10
1062.452606
 20
1205.0
 30
0.0
 40
5.0
100
AcDbArc
 50
14.744898
 51
90.0
  0
ARC
  5
FD
100
AcDbEntity
  8
洗面器
  6
CONTINUOUS
 62
     7
100
AcDbCircle
 10
1273.101715
 20
1205.0
 30
0.0
 40
5.0
100
AcDbArc
 50
90.0
 51
170.507492
  0
ARC
  5
FE
100
AcDbEntity
  8
洗面器
  6
CONTINUOUS
 62
     6
100
AcDbCircle
 10
1179.0
 20
1953.999107
 30
0.0
 40
26.999998
100
AcDbArc
 50
18.991663
 51
338.613028
  0
ARC
  5
FF
100
AcDbEntity
  8
洗面器
  6
CONTINUOUS
 62
     6
100
AcDbCircle
 10
1179.0
 20
1953.999107
 30
0.0
 40
17.5
100
AcDbArc
 50
76.029327
 51
272.538407
  0
LINE
  5
100
100
AcDbEntity
  8
洗面器
  6
CONTINUOUS
 62
     6
100
AcDbLine
 10
1177.249969
 20
1969.644426
 30
0.0
 11
1177.249969
 21
1971.411369
 31
0.0
  0
LINE
  5
101
100
AcDbEntity
  8
洗面器
  6
CONTINUOUS
 62
     6
100
AcDbLine
 10
1180.75003
 20
1970.694191
 30
0.0
 11
1180.75003
 21
1971.411369
 31
0.0
  0
LINE
  5
102
100
AcDbEntity
  8
洗面器
  6
CONTINUOUS
 62
     6
100
AcDbLine
 10
1166.645313
 20
1955.749137
 30
0.0
 11
1161.587738
 21
1955.749137
 31
0.0
  0
LINE
  5
103
100
AcDbEntity
  8
洗面器
  6
CONTINUOUS
 62
     6
100
AcDbLine
 10
1166.544667
 20
1952.249076
 30
0.0
 11
1161.587738
 21
1952.249076
 31
0.0
  0
LINE
  5
104
100
AcDbEntity
  8
洗面器
  6
CONTINUOUS
 62
     6
100
AcDbLine
 10
1177.249969
 20
1936.586845
 30
0.0
 11
1177.249969
 21
1937.352812
 31
0.0
  0
ARC
  5
105
100
AcDbEntity
  8
洗面器
  6
CONTINUOUS
 62
     7
100
AcDbCircle
 10
1225.22406
 20
1117.128296
 30
0.0
 40
15.0
100
AcDbArc
 50
121.8741
 51
168.962799
  0
ARC
  5
106
100
AcDbEntity
  8
洗面器
  6
CONTINUOUS
 62
     7
100
AcDbCircle
 10
1137.519287
 20
1119.357147
 30
0.0
 40
10.0
100
AcDbArc
 50
3.685842
 51
72.138718
  0
ARC
  5
107
100
AcDbEntity
  8
洗面器
  6
CONTINUOUS
 62
     7
100
AcDbCircle
 10
1158.689941
 20
1224.129334
 30
0.0
 40
111.000004
100
AcDbArc
 50
301.873779
 51
350.508057
  0
ARC
  5
108
100
AcDbEntity
  8
洗面器
  6
CONTINUOUS
 62
     7
100
AcDbCircle
 10
1174.632324
 20
1234.524994
 30
0.0
 40
111.000004
100
AcDbArc
 50
194.745514
 51
252.138367
  0
LINE
  5
109
100
AcDbEntity
  8
洗面器
  6
CONTINUOUS
 62
     7
100
AcDbLine
 10
1066.001953
 20
1240.0
 30
0.0
 11
1289.002441
 21
1240.0
 31
0.0
  0
LINE
  5
10A
100
AcDbEntity
  8
洗面器
  6
CONTINUOUS
 62
     3
100
AcDbLine
 10
1327.4995
 20
1983.498635
 30
0.0
 11
1397.191132
 21
1983.498635
 31
0.0
  0
LINE
  5
10B
100
AcDbEntity
  8
洗面器
  6
CONTINUOUS
 62
     3
100
AcDbLine
 10
1140.999512
 20
2035.998619
 30
0.0
 11
965.191132
 21
2035.998619
 31
0.0
  0
LINE
  5
10C
100
AcDbEntity
  8
洗面器
  6
CONTINUOUS
 62
     3
100
AcDbLine
 10
1140.999512
 20
1855.998619
 30
0.0
 11
965.191132
 21
1855.998619
 31
0.0
  0
LINE
  5
10D
100
AcDbEntity
  8
洗面器
  6
CONTINUOUS
 62
     3
100
AcDbLine
 10
1140.999512
 20
1828.498619
 30
0.0
 11
905.191132
 21
1828.498619
 31
0.0
  0
LINE
  5
10E
100
AcDbEntity
  8
洗面器
  6
CONTINUOUS
 62
     6
100
AcDbLine
 10
1178.499512
 20
2000.994466
 30
0.0
 11
1178.499512
 21
1970.111705
 31
0.0
  0
LINE
  5
10F
100
AcDbEntity
  8
洗面器
  6
CONTINUOUS
 62
     6
100
AcDbLine
 10
1178.499512
 20
1936.885533
 30
0.0
 11
1178.499512
 21
1907.003748
 31
0.0
  0
LINE
  5
110
100
AcDbEntity
  8
洗面器
  6
CONTINUOUS
 62
     3
100
AcDbLine
 10
1299.0
 20
1290.0
 30
0.0
 11
1397.694061
 21
1290.0
 31
0.0
  0
LINE
  5
111
100
AcDbEntity
  8
洗面器
  6
CONTINUOUS
 62
     3
100
AcDbLine
 10
1326.200977
 20
1259.999984
 30
0.0
 11
1397.694061
 21
1259.999984
 31
0.0
  0
LINE
  5
112
100
AcDbEntity
  8
洗面器
  6
CONTINUOUS
 62
     3
100
AcDbLine
 10
1129.000269
 20
1290.000029
 30
0.0
 11
938.694061
 21
1290.000029
 31
0.0
  0
LINE
  5
113
100
AcDbEntity
  8
洗面器
  6
CONTINUOUS
 62
     3
100
AcDbLine
 10
1046.002258
 20
1240.0
 30
0.0
 11
818.694061
 21
1240.0
 31
0.0
  0
LINE
  5
114
100
AcDbEntity
  8
洗面器
  6
CONTINUOUS
 62
     3
100
AcDbLine
 10
1137.498603
 20
1120.0
 30
0.0
 11
938.694061
 21
1120.0
 31
0.0
  0
LINE
  5
115
100
AcDbEntity
  8
洗面器
  6
CONTINUOUS
 62
     6
100
AcDbLine
 10
1209.002441
 20
1282.5
 30
0.0
 11
1209.002441
 21
1240.0
 31
0.0
  0
LINE
  5
116
100
AcDbEntity
  8
洗面器
  6
CONTINUOUS
 62
     6
100
AcDbLine
 10
1231.502441
 20
1260.0
 30
0.0
 11
1186.502441
 21
1260.0
 31
0.0
  0
LINE
  5
117
100
AcDbEntity
  8
洗面器
  6
CONTINUOUS
 62
     7
100
AcDbLine
 10
1269.0
 20
1913.999107
 30
0.0
 11
1269.0
 21
1942.498619
 31
0.0
  0
LINE
  5
118
100
AcDbEntity
  8
洗面器
  6
CONTINUOUS
 62
     7
100
AcDbLine
 10
1269.0
 20
1964.498619
 30
0.0
 11
1269.0
 21
2038.999107
 31
0.0
  0
LINE
  5
119
100
AcDbEntity
  8
洗面器
  6
CONTINUOUS
 62
     6
100
AcDbLine
 10
1227.8
 20
1953.498619
 30
0.0
 11
1132.004641
 21
1953.498619
 31
0.0
  0
LINE
  5
11A
100
AcDbEntity
  8
洗面器
  6
CONTINUOUS
 62
     6
100
AcDbLine
 10
1316.499402
 20
1953.498619
 30
0.0
 11
1259.8
 21
1953.498619
 31
0.0
  0
LINE
  5
11B
100
AcDbEntity
  8
洗面器
  6
CONTINUOUS
 62
     6
100
AcDbLine
 10
1247.8
 20
1953.498619
 30
0.0
 11
1239.8
 21
1953.498619
 31
0.0
  0
LINE
  5
11C
100
AcDbEntity
  8
洗面器
  6
CONTINUOUS
 62
     6
100
AcDbLine
 10
1179.002441
 20
1140.0
 30
0.0
 11
1179.002441
 21
1070.224243
 31
0.0
  0
LINE
  5
11D
100
AcDbEntity
  8
洗面器
  6
CONTINUOUS
 62
     6
100
AcDbLine
 10
1179.002441
 20
1058.224243
 30
0.0
 11
1179.002441
 21
1050.224243
 31
0.0
  0
LINE
  5
11E
100
AcDbEntity
  8
洗面器
  6
CONTINUOUS
 62
     6
100
AcDbLine
 10
1179.002441
 20
1038.224243
 30
0.0
 11
1179.002441
 21
990.0
 31
0.0
  0
LINE
  5
11F
100
AcDbEntity
  8
洗面器
  6
CONTINUOUS
 62
     3
100
AcDbLine
 10
1179.002441
 20
983.0
 30
0.0
 11
1179.002441
 21
977.0
 31
0.0
  0
LINE
  5
120
100
AcDbEntity
  8
洗面器
  6
CONTINUOUS
 62
     6
100
AcDbLine
 10
1179.002441
 20
970.0
 30
0.0
 11
1179.002441
 21
806.224243
 31
0.0
  0
LINE
  5
121
100
AcDbEntity
  8
洗面器
  6
CONTINUOUS
 62
     7
100
AcDbLine
 10
1289.0
 20
1743.0
 30
0.0
 11
1289.0
 21
2064.0
 31
0.0
  0
TEXT
  5
122
100
AcDbEntity
  8
洗面器
  6
CONTINUOUS
 62
     2
100
AcDbText
 10
1285.5
 20
1506.424243
 30
0.0
 40
40.0
  1
Ｗ．Ｌ
 50
90.0
 41
0.833
  7
EXCADSTD
 72
     5
 11
1285.5
 21
1625.424243
 31
0.0
100
AcDbText
  0
LINE
  5
123
100
AcDbEntity
  8
洗面器
  6
CONTINUOUS
 62
     7
100
AcDbLine
 10
1289.0
 20
480.0
 30
0.0
 11
1289.0
 21
1625.0
 31
0.0
  0
TEXT
  5
124
100
AcDbEntity
  8
洗面器
  6
CONTINUOUS
 62
     2
100
AcDbText
 10
934.894061
 20
483.5
 30
0.0
 40
40.0
  1
Ｆ．Ｌ
 41
0.833
  7
EXCADSTD
 72
     5
 11
1053.894061
 21
483.5
 31
0.0
100
AcDbText
  0
TEXT
  5
125
100
AcDbEntity
  8
洗面器
  6
CONTINUOUS
 62
     2
100
AcDbText
 10
716.428847
 20
1393.734976
 30
0.0
 40
40.0
  1
ＮＴ７Ａ（２）
 41
0.801
  7
EXCADSTD
 72
     5
 11
983.428846
 21
1393.734976
 31
0.0
100
AcDbText
  0
LINE
  5
126
100
AcDbEntity
  8
洗面器
  6
CONTINUOUS
 62
     6
100
AcDbLine
 10
983.428846
 20
1390.234976
 30
0.0
 11
705.0
 21
1390.234976
 31
0.0
  0
LEADER
  5
127
100
AcDbEntity
  8
水栓
  6
CONTINUOUS
 62
     6
100
AcDbLeader
  3
STANDARD
 73
     3
 74
     1
 75
     0
 40
0.0
 76
     2
 10
1170.28926
 20
1393.140143
 30
0.0
 10
1074.2202
 20
1448.60564
 30
0.0
 77
     6
1001
ACAD
1000
DSTYLE
1002
{
1070
    41
1040
35.0
1070
     5
1000
_EX_NORM
1070
     6
1000
_EX_NORM
1070
     7
1000
_EX_NORM
1070
   341
1005
2B
1002
}
  0
ARC
  5
128
100
AcDbEntity
  8
水栓
  6
CONTINUOUS
 62
     6
100
AcDbCircle
 10
1184.0
 20
1953.498619
 30
0.0
 40
17.5
100
AcDbArc
 50
40.142122
 51
319.857878
  0
LINE
  5
129
100
AcDbEntity
  8
水栓
  6
CONTINUOUS
 62
     6
100
AcDbLine
 10
1283.0
 20
1944.498619
 30
0.0
 11
1208.572607
 21
1944.498619
 31
0.0
  0
LINE
  5
12A
100
AcDbEntity
  8
水栓
  6
CONTINUOUS
 62
     6
100
AcDbLine
 10
1283.0
 20
1962.498619
 30
0.0
 11
1208.572607
 21
1962.498619
 31
0.0
  0
LINE
  5
12B
100
AcDbEntity
  8
水栓
  6
CONTINUOUS
 62
     6
100
AcDbLine
 10
1288.0
 20
1976.498619
 30
0.0
 11
1289.0
 21
1976.498619
 31
0.0
  0
LINE
  5
12C
100
AcDbEntity
  8
水栓
  6
CONTINUOUS
 62
     6
100
AcDbLine
 10
1288.0
 20
1930.498619
 30
0.0
 11
1289.0
 21
1930.498619
 31
0.0
  0
ARC
  5
12D
100
AcDbEntity
  8
水栓
  6
CONTINUOUS
 62
     6
100
AcDbCircle
 10
1288.0
 20
1974.498619
 30
0.0
 40
2.0
100
AcDbArc
 50
90.0
 51
180.0
  0
ARC
  5
12E
100
AcDbEntity
  8
水栓
  6
CONTINUOUS
 62
     6
100
AcDbCircle
 10
1288.0
 20
1932.498619
 30
0.0
 40
2.0
100
AcDbArc
 50
180.0
 51
270.0
  0
ARC
  5
12F
100
AcDbEntity
  8
水栓
  6
CONTINUOUS
 62
     6
100
AcDbCircle
 10
1283.0
 20
1965.498619
 30
0.0
 40
3.0
100
AcDbArc
 50
270.0
 51
0.0
  0
ARC
  5
130
100
AcDbEntity
  8
水栓
  6
CONTINUOUS
 62
     6
100
AcDbCircle
 10
1283.0
 20
1941.498619
 30
0.0
 40
3.0
100
AcDbArc
 50
0.0
 51
90.0
  0
LINE
  5
131
100
AcDbEntity
  8
水栓
  6
CONTINUOUS
 62
     6
100
AcDbLine
 10
1286.0
 20
1932.498619
 30
0.0
 11
1286.0
 21
1974.498619
 31
0.0
  0
ARC
  5
132
100
AcDbEntity
  8
水栓
  6
CONTINUOUS
 62
     6
100
AcDbCircle
 10
1208.572607
 20
1991.098619
 30
0.0
 40
28.6
100
AcDbArc
 50
239.585471
 51
270.0
  0
ARC
  5
133
100
AcDbEntity
  8
水栓
  6
CONTINUOUS
 62
     6
100
AcDbCircle
 10
1208.572607
 20
1915.898619
 30
0.0
 40
28.6
100
AcDbArc
 50
90.0
 51
120.414529
  0
CIRCLE
  5
134
100
AcDbEntity
  8
水栓
  6
CONTINUOUS
 62
     6
100
AcDbCircle
 10
1186.5
 20
1953.498619
 30
0.0
 40
15.0
  0
LINE
  5
135
100
AcDbEntity
  8
水栓
  6
CONTINUOUS
 62
     6
100
AcDbLine
 10
1301.2725
 20
1963.976119
 30
0.0
 11
1303.0
 21
1962.248619
 31
0.0
  0
LINE
  5
136
100
AcDbEntity
  8
水栓
  6
CONTINUOUS
 62
     6
100
AcDbLine
 10
1302.4345
 20
1962.814119
 30
0.0
 11
1290.162
 21
1962.814119
 31
0.0
  0
LINE
  5
137
100
AcDbEntity
  8
水栓
  6
CONTINUOUS
 62
     6
100
AcDbLine
 10
1289.0
 20
1963.976119
 30
0.0
 11
1290.162
 21
1962.814119
 31
0.0
  0
LINE
  5
138
100
AcDbEntity
  8
水栓
  6
CONTINUOUS
 62
     6
100
AcDbLine
 10
1301.2725
 20
1943.021119
 30
0.0
 11
1303.0
 21
1944.748619
 31
0.0
  0
LINE
  5
139
100
AcDbEntity
  8
水栓
  6
CONTINUOUS
 62
     6
100
AcDbLine
 10
1302.4345
 20
1944.183119
 30
0.0
 11
1290.162
 21
1944.183119
 31
0.0
  0
LINE
  5
13A
100
AcDbEntity
  8
水栓
  6
CONTINUOUS
 62
     6
100
AcDbLine
 10
1289.0
 20
1943.021119
 30
0.0
 11
1290.162
 21
1944.183119
 31
0.0
  0
LINE
  5
13B
100
AcDbEntity
  8
水栓
  6
CONTINUOUS
 62
     6
100
AcDbLine
 10
1289.0
 20
1963.976119
 30
0.0
 11
1301.2725
 21
1963.976119
 31
0.0
  0
LINE
  5
13C
100
AcDbEntity
  8
水栓
  6
CONTINUOUS
 62
     6
100
AcDbLine
 10
1289.0
 20
1943.021119
 30
0.0
 11
1301.2725
 21
1943.021119
 31
0.0
  0
LINE
  5
13D
100
AcDbEntity
  8
水栓
  6
CONTINUOUS
 62
     6
100
AcDbLine
 10
1303.0
 20
1944.748619
 30
0.0
 11
1303.0
 21
1962.248619
 31
0.0
  0
LINE
  5
13E
100
AcDbEntity
  8
水栓
  6
CONTINUOUS
 62
     6
100
AcDbLine
 10
1301.2725
 20
1963.976119
 30
0.0
 11
1301.2725
 21
1943.021119
 31
0.0
  0
LINE
  5
13F
100
AcDbEntity
  8
水栓
  6
CONTINUOUS
 62
     6
100
AcDbLine
 10
1288.002441
 20
1413.0
 30
0.0
 11
1289.002441
 21
1413.0
 31
0.0
  0
LINE
  5
140
100
AcDbEntity
  8
水栓
  6
CONTINUOUS
 62
     6
100
AcDbLine
 10
1288.002441
 20
1367.0
 30
0.0
 11
1289.002441
 21
1367.0
 31
0.0
  0
ARC
  5
141
100
AcDbEntity
  8
水栓
  6
CONTINUOUS
 62
     6
100
AcDbCircle
 10
1288.002441
 20
1411.0
 30
0.0
 40
2.0
100
AcDbArc
 50
90.0
 51
180.0
  0
ARC
  5
142
100
AcDbEntity
  8
水栓
  6
CONTINUOUS
 62
     6
100
AcDbCircle
 10
1288.002441
 20
1369.0
 30
0.0
 40
2.0
100
AcDbArc
 50
180.0
 51
270.0
  0
LINE
  5
143
100
AcDbEntity
  8
水栓
  6
CONTINUOUS
 62
     6
100
AcDbLine
 10
1204.802441
 20
1399.0
 30
0.0
 11
1283.002441
 21
1399.0
 31
0.0
  0
ARC
  5
144
100
AcDbEntity
  8
水栓
  6
CONTINUOUS
 62
     6
100
AcDbCircle
 10
1283.002441
 20
1402.0
 30
0.0
 40
3.0
100
AcDbArc
 50
270.0
 51
0.0
  0
LINE
  5
145
100
AcDbEntity
  8
水栓
  6
CONTINUOUS
 62
     6
100
AcDbLine
 10
1286.002441
 20
1411.0
 30
0.0
 11
1286.002441
 21
1369.0
 31
0.0
  0
LINE
  5
146
100
AcDbEntity
  8
水栓
  6
CONTINUOUS
 62
     6
100
AcDbLine
 10
1166.502441
 20
1362.0
 30
0.0
 11
1201.502441
 21
1362.0
 31
0.0
  0
ARC
  5
147
100
AcDbEntity
  8
水栓
  6
CONTINUOUS
 62
     6
100
AcDbCircle
 10
1186.850781
 20
1274.0
 30
0.0
 40
130.0
100
AcDbArc
 50
83.802313
 51
96.415769
  0
LINE
  5
148
100
AcDbEntity
  8
水栓
  6
CONTINUOUS
 62
     6
100
AcDbLine
 10
1201.502441
 20
1374.7
 30
0.0
 11
1201.502441
 21
1362.0
 31
0.0
  0
LINE
  5
149
100
AcDbEntity
  8
水栓
  6
CONTINUOUS
 62
     6
100
AcDbLine
 10
1169.794607
 20
1389.257579
 30
0.0
 11
1166.502441
 21
1362.0
 31
0.0
  0
ARC
  5
14A
100
AcDbEntity
  8
水栓
  6
CONTINUOUS
 62
     6
100
AcDbCircle
 10
1207.802441
 20
1374.7
 30
0.0
 40
6.3
100
AcDbArc
 50
90.0
 51
180.0
  0
ARC
  5
14B
100
AcDbEntity
  8
水栓
  6
CONTINUOUS
 62
     6
100
AcDbCircle
 10
1204.802441
 20
1402.3
 30
0.0
 40
3.3
100
AcDbArc
 50
176.498721
 51
270.0
  0
ARC
  5
14C
100
AcDbEntity
  8
水栓
  6
CONTINUOUS
 62
     6
100
AcDbCircle
 10
1467.630095
 20
1353.285062
 30
0.0
 40
300.0
100
AcDbArc
 50
170.537573
 51
173.113184
  0
ARC
  5
14D
100
AcDbEntity
  8
水栓
  6
CONTINUOUS
 62
     6
100
AcDbCircle
 10
1172.402484
 20
1402.49022
 30
0.0
 40
0.7
100
AcDbArc
 50
96.415769
 51
170.537573
  0
ARC
  5
14E
100
AcDbEntity
  8
水栓
  6
CONTINUOUS
 62
     6
100
AcDbCircle
 10
1200.809908
 20
1402.544283
 30
0.0
 40
0.7
100
AcDbArc
 50
356.498721
 51
83.802313
  0
LINE
  5
14F
100
AcDbEntity
  8
水栓
  6
CONTINUOUS
 62
     6
100
AcDbLine
 10
1176.752441
 20
1362.0
 30
0.0
 11
1176.752441
 21
1356.0
 31
0.0
  0
LINE
  5
150
100
AcDbEntity
  8
水栓
  6
CONTINUOUS
 62
     6
100
AcDbLine
 10
1191.252441
 20
1362.0
 30
0.0
 11
1191.252441
 21
1356.0
 31
0.0
  0
ARC
  5
151
100
AcDbEntity
  8
水栓
  6
CONTINUOUS
 62
     6
100
AcDbCircle
 10
1177.752441
 20
1356.0
 30
0.0
 40
1.0
100
AcDbArc
 50
180.0
 51
270.0
  0
ARC
  5
152
100
AcDbEntity
  8
水栓
  6
CONTINUOUS
 62
     6
100
AcDbCircle
 10
1190.252441
 20
1356.0
 30
0.0
 40
1.0
100
AcDbArc
 50
270.0
 51
0.0
  0
LINE
  5
153
100
AcDbEntity
  8
水栓
  6
CONTINUOUS
 62
     6
100
AcDbLine
 10
1207.802441
 20
1381.0
 30
0.0
 11
1283.002441
 21
1381.0
 31
0.0
  0
ARC
  5
154
100
AcDbEntity
  8
水栓
  6
CONTINUOUS
 62
     6
100
AcDbCircle
 10
1283.002441
 20
1378.0
 30
0.0
 40
3.0
100
AcDbArc
 50
0.0
 51
90.0
  0
LINE
  5
155
100
AcDbEntity
  8
水栓
  6
CONTINUOUS
 62
     6
100
AcDbLine
 10
1301.274941
 20
1400.4775
 30
0.0
 11
1303.002441
 21
1398.75
 31
0.0
  0
LINE
  5
156
100
AcDbEntity
  8
水栓
  6
CONTINUOUS
 62
     6
100
AcDbLine
 10
1302.436941
 20
1399.3155
 30
0.0
 11
1290.164441
 21
1399.3155
 31
0.0
  0
LINE
  5
157
100
AcDbEntity
  8
水栓
  6
CONTINUOUS
 62
     6
100
AcDbLine
 10
1289.002441
 20
1400.4775
 30
0.0
 11
1290.164441
 21
1399.3155
 31
0.0
  0
LINE
  5
158
100
AcDbEntity
  8
水栓
  6
CONTINUOUS
 62
     6
100
AcDbLine
 10
1301.274941
 20
1379.5225
 30
0.0
 11
1303.002441
 21
1381.25
 31
0.0
  0
LINE
  5
159
100
AcDbEntity
  8
水栓
  6
CONTINUOUS
 62
     6
100
AcDbLine
 10
1302.436941
 20
1380.6845
 30
0.0
 11
1290.164441
 21
1380.6845
 31
0.0
  0
LINE
  5
15A
100
AcDbEntity
  8
水栓
  6
CONTINUOUS
 62
     6
100
AcDbLine
 10
1289.002441
 20
1379.5225
 30
0.0
 11
1290.164441
 21
1380.6845
 31
0.0
  0
LINE
  5
15B
100
AcDbEntity
  8
水栓
  6
CONTINUOUS
 62
     6
100
AcDbLine
 10
1289.002441
 20
1400.4775
 30
0.0
 11
1301.274941
 21
1400.4775
 31
0.0
  0
LINE
  5
15C
100
AcDbEntity
  8
水栓
  6
CONTINUOUS
 62
     6
100
AcDbLine
 10
1289.002441
 20
1379.5225
 30
0.0
 11
1301.274941
 21
1379.5225
 31
0.0
  0
LINE
  5
15D
100
AcDbEntity
  8
水栓
  6
CONTINUOUS
 62
     6
100
AcDbLine
 10
1303.002441
 20
1381.25
 30
0.0
 11
1303.002441
 21
1398.75
 31
0.0
  0
LINE
  5
15E
100
AcDbEntity
  8
水栓
  6
CONTINUOUS
 62
     6
100
AcDbLine
 10
1173.002441
 20
1336.0
 30
0.0
 11
1195.002441
 21
1336.0
 31
0.0
  0
ARC
  5
15F
100
AcDbEntity
  8
水栓
  6
CONTINUOUS
 62
     6
100
AcDbCircle
 10
1173.002441
 20
1340.0
 30
0.0
 40
4.0
100
AcDbArc
 50
108.715366
 51
270.0
  0
LINE
  5
160
100
AcDbEntity
  8
水栓
  6
CONTINUOUS
 62
     6
100
AcDbLine
 10
1180.752441
 20
1352.0
 30
0.0
 11
1180.752441
 21
1349.0
 31
0.0
  0
ARC
  5
161
100
AcDbEntity
  8
水栓
  6
CONTINUOUS
 62
     6
100
AcDbCircle
 10
1177.752441
 20
1349.0
 30
0.0
 40
3.0
100
AcDbArc
 50
288.715366
 51
0.0
  0
LINE
  5
162
100
AcDbEntity
  8
水栓
  6
CONTINUOUS
 62
     6
100
AcDbLine
 10
1178.715042
 20
1346.158627
 30
0.0
 11
1171.718973
 21
1343.788497
 31
0.0
  0
LINE
  5
163
100
AcDbEntity
  8
水栓
  6
CONTINUOUS
 62
     6
100
AcDbLine
 10
1177.752441
 20
1355.0
 30
0.0
 11
1190.252441
 21
1355.0
 31
0.0
  0
LINE
  5
164
100
AcDbEntity
  8
水栓
  6
CONTINUOUS
 62
     6
100
AcDbLine
 10
1179.002441
 20
1355.0
 30
0.0
 11
1179.002441
 21
1354.727178
 31
0.0
  0
ARC
  5
165
100
AcDbEntity
  8
水栓
  6
CONTINUOUS
 62
     6
100
AcDbCircle
 10
1177.752441
 20
1352.0
 30
0.0
 40
3.0
100
AcDbArc
 50
0.0
 51
65.375682
  0
ARC
  5
166
100
AcDbEntity
  8
水栓
  6
CONTINUOUS
 62
     6
100
AcDbCircle
 10
1190.252441
 20
1349.0
 30
0.0
 40
3.0
100
AcDbArc
 50
180.0
 51
251.284634
  0
LINE
  5
167
100
AcDbEntity
  8
水栓
  6
CONTINUOUS
 62
     6
100
AcDbLine
 10
1187.252441
 20
1352.0
 30
0.0
 11
1187.252441
 21
1349.0
 31
0.0
  0
ARC
  5
168
100
AcDbEntity
  8
水栓
  6
CONTINUOUS
 62
     6
100
AcDbCircle
 10
1190.252441
 20
1352.0
 30
0.0
 40
3.0
100
AcDbArc
 50
114.624318
 51
180.0
  0
LINE
  5
169
100
AcDbEntity
  8
水栓
  6
CONTINUOUS
 62
     6
100
AcDbLine
 10
1189.002441
 20
1355.0
 30
0.0
 11
1189.002441
 21
1354.727178
 31
0.0
  0
LINE
  5
16A
100
AcDbEntity
  8
水栓
  6
CONTINUOUS
 62
     6
100
AcDbLine
 10
1189.28984
 20
1346.158627
 30
0.0
 11
1196.285909
 21
1343.788497
 31
0.0
  0
ARC
  5
16B
100
AcDbEntity
  8
水栓
  6
CONTINUOUS
 62
     6
100
AcDbCircle
 10
1195.002441
 20
1340.0
 30
0.0
 40
4.0
100
AcDbArc
 50
270.0
 51
71.284634
  0
LINE
  5
16C
100
AcDbEntity
  8
水栓
  6
CONTINUOUS
 62
     6
100
AcDbLine
 10
1301.274941
 20
1400.4775
 30
0.0
 11
1301.274941
 21
1379.5225
 31
0.0
  0
TEXT
  5
16D
100
AcDbEntity
  8
水栓
  6
CONTINUOUS
 62
     2
100
AcDbText
 10
918.2202
 20
1452.10564
 30
0.0
 40
40.0
  1
ＮＬ１５
 41
0.819
  7
EXCADSTD
 72
     5
 11
1074.2202
 21
1452.10564
 31
0.0
100
AcDbText
  0
LINE
  5
16E
100
AcDbEntity
  8
水栓
  6
CONTINUOUS
 62
     6
100
AcDbLine
 10
1074.2202
 20
1448.60564
 30
0.0
 11
920.0
 21
1448.60564
 31
0.0
  0
POLYLINE
  5
16F
100
AcDbEntity
  8
トラップ
  6
CONTINUOUS
 62
     6
100
AcDb2dPolyline
 66
     1
 10
0.0
 20
0.0
 30
0.0
 70
   128
  0
VERTEX
  5
170
100
AcDbEntity
  8
トラップ
  6
CONTINUOUS
 62
     6
100
AcDbVertex
100
AcDb2dVertex
 10
1191.199554
 20
2086.292598
 30
0.0
  0
VERTEX
  5
171
100
AcDbEntity
  8
トラップ
  6
CONTINUOUS
 62
     6
100
AcDbVertex
100
AcDb2dVertex
 10
1216.704002
 20
2130.467596
 30
0.0
  0
SEQEND
  5
172
100
AcDbEntity
  8
トラップ
  6
CONTINUOUS
 62
     6
  0
LINE
  5
173
100
AcDbEntity
  8
トラップ
  6
CONTINUOUS
 62
     6
100
AcDbLine
 10
1203.64774
 20
2119.520154
 30
0.0
 11
1191.199554
 21
2086.292598
 31
0.0
  0
LINE
  5
174
100
AcDbEntity
  8
トラップ
  6
CONTINUOUS
 62
     6
100
AcDbLine
 10
1191.199554
 20
2086.292598
 30
0.0
 11
1213.751369
 21
2113.68682
 31
0.0
  0
POLYLINE
  5
175
100
AcDbEntity
  8
トラップ
  6
CONTINUOUS
 62
     6
100
AcDb2dPolyline
 66
     1
 10
0.0
 20
0.0
 30
0.0
 70
   128
  0
VERTEX
  5
176
100
AcDbEntity
  8
トラップ
  6
CONTINUOUS
 62
     6
100
AcDbVertex
100
AcDb2dVertex
 10
1166.302399
 20
915.283911
 30
0.0
  0
VERTEX
  5
177
100
AcDbEntity
  8
トラップ
  6
CONTINUOUS
 62
     6
100
AcDbVertex
100
AcDb2dVertex
 10
1135.831416
 20
862.506621
 30
0.0
  0
SEQEND
  5
178
100
AcDbEntity
  8
トラップ
  6
CONTINUOUS
 62
     6
  0
LINE
  5
179
100
AcDbEntity
  8
トラップ
  6
CONTINUOUS
 62
     6
100
AcDbLine
 10
1153.854214
 20
882.056356
 30
0.0
 11
1166.302399
 21
915.283911
 31
0.0
  0
LINE
  5
17A
100
AcDbEntity
  8
トラップ
  6
CONTINUOUS
 62
     6
100
AcDbLine
 10
1166.302399
 20
915.283911
 30
0.0
 11
1143.750584
 21
887.889689
 31
0.0
  0
POLYLINE
  5
17B
100
AcDbEntity
  8
トラップ
  6
CONTINUOUS
 62
     6
100
AcDb2dPolyline
 66
     1
 10
0.0
 20
0.0
 30
0.0
 70
   128
  0
VERTEX
  5
17C
100
AcDbEntity
  8
トラップ
  6
CONTINUOUS
 62
     6
100
AcDbVertex
100
AcDb2dVertex
 10
1295.97154
 20
1400.4775
 30
0.0
  0
VERTEX
  5
17D
100
AcDbEntity
  8
トラップ
  6
CONTINUOUS
 62
     6
100
AcDbVertex
100
AcDb2dVertex
 10
1324.107944
 20
1449.211181
 30
0.0
  0
SEQEND
  5
17E
100
AcDbEntity
  8
トラップ
  6
CONTINUOUS
 62
     6
  0
LINE
  5
17F
100
AcDbEntity
  8
トラップ
  6
CONTINUOUS
 62
     6
100
AcDbLine
 10
1308.419725
 20
1433.705056
 30
0.0
 11
1295.97154
 21
1400.4775
 31
0.0
  0
LINE
  5
180
100
AcDbEntity
  8
トラップ
  6
CONTINUOUS
 62
     6
100
AcDbLine
 10
1295.97154
 20
1400.4775
 30
0.0
 11
1318.523354
 21
1427.871722
 31
0.0
  0
POLYLINE
  5
181
100
AcDbEntity
  8
トラップ
  6
CONTINUOUS
 62
     6
100
AcDb2dPolyline
 66
     1
 10
0.0
 20
0.0
 30
0.0
 70
   128
  0
VERTEX
  5
182
100
AcDbEntity
  8
トラップ
  6
CONTINUOUS
 62
     6
100
AcDbVertex
100
AcDb2dVertex
 10
1192.845925
 20
472.430582
 30
0.0
  0
VERTEX
  5
183
100
AcDbEntity
  8
トラップ
  6
CONTINUOUS
 62
     6
100
AcDbVertex
100
AcDb2dVertex
 10
1164.413947
 20
423.184953
 30
0.0
  0
SEQEND
  5
184
100
AcDbEntity
  8
トラップ
  6
CONTINUOUS
 62
     6
  0
LINE
  5
185
100
AcDbEntity
  8
トラップ
  6
CONTINUOUS
 62
     6
100
AcDbLine
 10
1180.397739
 20
439.203026
 30
0.0
 11
1192.845925
 21
472.430582
 31
0.0
  0
LINE
  5
186
100
AcDbEntity
  8
トラップ
  6
CONTINUOUS
 62
     6
100
AcDbLine
 10
1192.845925
 20
472.430582
 30
0.0
 11
1170.29411
 21
445.036359
 31
0.0
  0
POLYLINE
  5
187
100
AcDbEntity
  8
トラップ
  6
CONTINUOUS
 62
     6
100
AcDb2dPolyline
 66
     1
 10
0.0
 20
0.0
 30
0.0
 70
   128
  0
VERTEX
  5
188
100
AcDbEntity
  8
トラップ
  6
CONTINUOUS
 62
     6
100
AcDbVertex
100
AcDb2dVertex
 10
1192.702393
 20
732.0
 30
0.0
  0
VERTEX
  5
189
100
AcDbEntity
  8
トラップ
  6
CONTINUOUS
 62
     6
100
AcDbVertex
100
AcDb2dVertex
 10
1164.097435
 20
682.45476
 30
0.0
  0
SEQEND
  5
18A
100
AcDbEntity
  8
トラップ
  6
CONTINUOUS
 62
     6
  0
LINE
  5
18B
100
AcDbEntity
  8
トラップ
  6
CONTINUOUS
 62
     6
100
AcDbLine
 10
1180.254207
 20
698.772444
 30
0.0
 11
1192.702393
 21
732.0
 31
0.0
  0
LINE
  5
18C
100
AcDbEntity
  8
トラップ
  6
CONTINUOUS
 62
     6
100
AcDbLine
 10
1192.702393
 20
732.0
 30
0.0
 11
1170.150578
 21
704.605778
 31
0.0
  0
ARC
  5
18D
100
AcDbEntity
  8
トラップ
  6
CONTINUOUS
 62
     6
100
AcDbCircle
 10
1179.002441
 20
894.49997
 30
0.0
 40
12.700043
100
AcDbArc
 50
180.0
 51
0.0
  0
LINE
  5
18E
100
AcDbEntity
  8
トラップ
  6
CONTINUOUS
 62
     6
100
AcDbLine
 10
1204.25238
 20
1114.128265
 30
0.0
 11
1204.25238
 21
1115.128326
 31
0.0
  0
LINE
  5
18F
100
AcDbEntity
  8
トラップ
  6
CONTINUOUS
 62
     6
100
AcDbLine
 10
1153.752503
 20
1114.128265
 30
0.0
 11
1204.25238
 21
1114.128265
 31
0.0
  0
LINE
  5
190
100
AcDbEntity
  8
トラップ
  6
CONTINUOUS
 62
     6
100
AcDbLine
 10
1153.752503
 20
1114.128265
 30
0.0
 11
1153.752503
 21
1115.128326
 31
0.0
  0
LINE
  5
191
100
AcDbEntity
  8
トラップ
  6
CONTINUOUS
 62
     6
100
AcDbLine
 10
1194.402527
 20
1105.128174
 30
0.0
 11
1194.402527
 21
1099.999847
 31
0.0
  0
LINE
  5
192
100
AcDbEntity
  8
トラップ
  6
CONTINUOUS
 62
     6
100
AcDbLine
 10
1195.002503
 20
1105.128174
 30
0.0
 11
1195.002503
 21
1099.999847
 31
0.0
  0
LINE
  5
193
100
AcDbEntity
  8
トラップ
  6
CONTINUOUS
 62
     6
100
AcDbLine
 10
1163.602356
 20
1105.128174
 30
0.0
 11
1163.602356
 21
1099.999847
 31
0.0
  0
LINE
  5
194
100
AcDbEntity
  8
トラップ
  6
CONTINUOUS
 62
     6
100
AcDbLine
 10
1199.502472
 20
1120.0
 30
0.0
 11
1204.25238
 21
1115.128326
 31
0.0
  0
LINE
  5
195
100
AcDbEntity
  8
トラップ
  6
CONTINUOUS
 62
     6
100
AcDbLine
 10
1158.502411
 20
1120.0
 30
0.0
 11
1153.752503
 21
1115.128326
 31
0.0
  0
LINE
  5
196
100
AcDbEntity
  8
トラップ
  6
CONTINUOUS
 62
     6
100
AcDbLine
 10
1195.752625
 20
1099.999847
 30
0.0
 11
1162.252258
 21
1099.999847
 31
0.0
  0
POLYLINE
  5
197
100
AcDbEntity
  8
トラップ
  6
CONTINUOUS
 62
     6
100
AcDb2dPolyline
 66
     1
 10
0.0
 20
0.0
 30
0.0
 70
   128
  0
VERTEX
  5
198
100
AcDbEntity
  8
トラップ
  6
CONTINUOUS
 62
     6
100
AcDbVertex
100
AcDb2dVertex
 10
1187.022003
 20
1093.999939
 30
0.0
  0
VERTEX
  5
199
100
AcDbEntity
  8
トラップ
  6
CONTINUOUS
 62
     6
100
AcDbVertex
100
AcDb2dVertex
 10
1186.788935
 20
1095.23217
 30
0.0
  0
VERTEX
  5
19A
100
AcDbEntity
  8
トラップ
  6
CONTINUOUS
 62
     6
100
AcDbVertex
100
AcDb2dVertex
 10
1186.103402
 20
1096.392783
 30
0.0
  0
VERTEX
  5
19B
100
AcDbEntity
  8
トラップ
  6
CONTINUOUS
 62
     6
100
AcDbVertex
100
AcDb2dVertex
 10
1185.005106
 20
1097.414336
 30
0.0
  0
VERTEX
  5
19C
100
AcDbEntity
  8
トラップ
  6
CONTINUOUS
 62
     6
100
AcDbVertex
100
AcDb2dVertex
 10
1183.557969
 20
1098.237511
 30
0.0
  0
VERTEX
  5
19D
100
AcDbEntity
  8
トラップ
  6
CONTINUOUS
 62
     6
100
AcDbVertex
100
AcDb2dVertex
 10
1181.846153
 20
1098.814404
 30
0.0
  0
VERTEX
  5
19E
100
AcDbEntity
  8
トラップ
  6
CONTINUOUS
 62
     6
100
AcDbVertex
100
AcDb2dVertex
 10
1179.969076
 20
1099.111464
 30
0.0
  0
VERTEX
  5
19F
100
AcDbEntity
  8
トラップ
  6
CONTINUOUS
 62
     6
100
AcDbVertex
100
AcDb2dVertex
 10
1178.035807
 20
1099.111464
 30
0.0
  0
VERTEX
  5
1A0
100
AcDbEntity
  8
トラップ
  6
CONTINUOUS
 62
     6
100
AcDbVertex
100
AcDb2dVertex
 10
1176.15873
 20
1098.814404
 30
0.0
  0
VERTEX
  5
1A1
100
AcDbEntity
  8
トラップ
  6
CONTINUOUS
 62
     6
100
AcDbVertex
100
AcDb2dVertex
 10
1174.446914
 20
1098.237511
 30
0.0
  0
VERTEX
  5
1A2
100
AcDbEntity
  8
トラップ
  6
CONTINUOUS
 62
     6
100
AcDbVertex
100
AcDb2dVertex
 10
1172.999777
 20
1097.414336
 30
0.0
  0
VERTEX
  5
1A3
100
AcDbEntity
  8
トラップ
  6
CONTINUOUS
 62
     6
100
AcDbVertex
100
AcDb2dVertex
 10
1171.901481
 20
1096.392783
 30
0.0
  0
VERTEX
  5
1A4
100
AcDbEntity
  8
トラップ
  6
CONTINUOUS
 62
     6
100
AcDbVertex
100
AcDb2dVertex
 10
1171.215948
 20
1095.23217
 30
0.0
  0
VERTEX
  5
1A5
100
AcDbEntity
  8
トラップ
  6
CONTINUOUS
 62
     6
100
AcDbVertex
100
AcDb2dVertex
 10
1170.98288
 20
1093.999939
 30
0.0
  0
VERTEX
  5
1A6
100
AcDbEntity
  8
トラップ
  6
CONTINUOUS
 62
     6
100
AcDbVertex
100
AcDb2dVertex
 10
1171.215948
 20
1092.767708
 30
0.0
  0
VERTEX
  5
1A7
100
AcDbEntity
  8
トラップ
  6
CONTINUOUS
 62
     6
100
AcDbVertex
100
AcDb2dVertex
 10
1171.901481
 20
1091.607095
 30
0.0
  0
VERTEX
  5
1A8
100
AcDbEntity
  8
トラップ
  6
CONTINUOUS
 62
     6
100
AcDbVertex
100
AcDb2dVertex
 10
1172.999777
 20
1090.585542
 30
0.0
  0
VERTEX
  5
1A9
100
AcDbEntity
  8
トラップ
  6
CONTINUOUS
 62
     6
100
AcDbVertex
100
AcDb2dVertex
 10
1174.446914
 20
1089.762367
 30
0.0
  0
VERTEX
  5
1AA
100
AcDbEntity
  8
トラップ
  6
CONTINUOUS
 62
     6
100
AcDbVertex
100
AcDb2dVertex
 10
1176.15873
 20
1089.185474
 30
0.0
  0
VERTEX
  5
1AB
100
AcDbEntity
  8
トラップ
  6
CONTINUOUS
 62
     6
100
AcDbVertex
100
AcDb2dVertex
 10
1178.035807
 20
1088.888414
 30
0.0
  0
VERTEX
  5
1AC
100
AcDbEntity
  8
トラップ
  6
CONTINUOUS
 62
     6
100
AcDbVertex
100
AcDb2dVertex
 10
1179.969076
 20
1088.888414
 30
0.0
  0
VERTEX
  5
1AD
100
AcDbEntity
  8
トラップ
  6
CONTINUOUS
 62
     6
100
AcDbVertex
100
AcDb2dVertex
 10
1181.846153
 20
1089.185474
 30
0.0
  0
VERTEX
  5
1AE
100
AcDbEntity
  8
トラップ
  6
CONTINUOUS
 62
     6
100
AcDbVertex
100
AcDb2dVertex
 10
1183.557969
 20
1089.762367
 30
0.0
  0
VERTEX
  5
1AF
100
AcDbEntity
  8
トラップ
  6
CONTINUOUS
 62
     6
100
AcDbVertex
100
AcDb2dVertex
 10
1185.005106
 20
1090.585542
 30
0.0
  0
VERTEX
  5
1B0
100
AcDbEntity
  8
トラップ
  6
CONTINUOUS
 62
     6
100
AcDbVertex
100
AcDb2dVertex
 10
1186.103402
 20
1091.607095
 30
0.0
  0
VERTEX
  5
1B1
100
AcDbEntity
  8
トラップ
  6
CONTINUOUS
 62
     6
100
AcDbVertex
100
AcDb2dVertex
 10
1186.788935
 20
1092.767708
 30
0.0
  0
VERTEX
  5
1B2
100
AcDbEntity
  8
トラップ
  6
CONTINUOUS
 62
     6
100
AcDbVertex
100
AcDb2dVertex
 10
1187.022003
 20
1093.999939
 30
0.0
  0
SEQEND
  5
1B3
100
AcDbEntity
  8
トラップ
  6
CONTINUOUS
 62
     6
  0
POLYLINE
  5
1B4
100
AcDbEntity
  8
トラップ
  6
CONTINUOUS
 62
     6
100
AcDb2dPolyline
 66
     1
 10
0.0
 20
0.0
 30
0.0
 70
   128
  0
VERTEX
  5
1B5
100
AcDbEntity
  8
トラップ
  6
CONTINUOUS
 62
     6
100
AcDbVertex
100
AcDb2dVertex
 10
1167.856812
 20
1093.999939
 30
0.0
  0
VERTEX
  5
1B6
100
AcDbEntity
  8
トラップ
  6
CONTINUOUS
 62
     6
100
AcDbVertex
100
AcDb2dVertex
 10
1167.740277
 20
1095.23217
 30
0.0
  0
VERTEX
  5
1B7
100
AcDbEntity
  8
トラップ
  6
CONTINUOUS
 62
     6
100
AcDbVertex
100
AcDb2dVertex
 10
1167.397518
 20
1096.392783
 30
0.0
  0
VERTEX
  5
1B8
100
AcDbEntity
  8
トラップ
  6
CONTINUOUS
 62
     6
100
AcDbVertex
100
AcDb2dVertex
 10
1166.848416
 20
1097.414336
 30
0.0
  0
VERTEX
  5
1B9
100
AcDbEntity
  8
トラップ
  6
CONTINUOUS
 62
     6
100
AcDbVertex
100
AcDb2dVertex
 10
1166.124866
 20
1098.237511
 30
0.0
  0
VERTEX
  5
1BA
100
AcDbEntity
  8
トラップ
  6
CONTINUOUS
 62
     6
100
AcDbVertex
100
AcDb2dVertex
 10
1165.268921
 20
1098.814404
 30
0.0
  0
VERTEX
  5
1BB
100
AcDbEntity
  8
トラップ
  6
CONTINUOUS
 62
     6
100
AcDbVertex
100
AcDb2dVertex
 10
1164.330388
 20
1099.111464
 30
0.0
  0
VERTEX
  5
1BC
100
AcDbEntity
  8
トラップ
  6
CONTINUOUS
 62
     6
100
AcDbVertex
100
AcDb2dVertex
 10
1163.36375
 20
1099.111464
 30
0.0
  0
VERTEX
  5
1BD
100
AcDbEntity
  8
トラップ
  6
CONTINUOUS
 62
     6
100
AcDbVertex
100
AcDb2dVertex
 10
1162.425146
 20
1098.814404
 30
0.0
  0
VERTEX
  5
1BE
100
AcDbEntity
  8
トラップ
  6
CONTINUOUS
 62
     6
100
AcDbVertex
100
AcDb2dVertex
 10
1161.569195
 20
1098.237511
 30
0.0
  0
VERTEX
  5
1BF
100
AcDbEntity
  8
トラップ
  6
CONTINUOUS
 62
     6
100
AcDbVertex
100
AcDb2dVertex
 10
1160.845646
 20
1097.414336
 30
0.0
  0
VERTEX
  5
1C0
100
AcDbEntity
  8
トラップ
  6
CONTINUOUS
 62
     6
100
AcDbVertex
100
AcDb2dVertex
 10
1160.296543
 20
1096.392783
 30
0.0
  0
VERTEX
  5
1C1
100
AcDbEntity
  8
トラップ
  6
CONTINUOUS
 62
     6
100
AcDbVertex
100
AcDb2dVertex
 10
1159.953784
 20
1095.23217
 30
0.0
  0
VERTEX
  5
1C2
100
AcDbEntity
  8
トラップ
  6
CONTINUOUS
 62
     6
100
AcDbVertex
100
AcDb2dVertex
 10
1159.83725
 20
1093.999939
 30
0.0
  0
VERTEX
  5
1C3
100
AcDbEntity
  8
トラップ
  6
CONTINUOUS
 62
     6
100
AcDbVertex
100
AcDb2dVertex
 10
1159.953784
 20
1092.767708
 30
0.0
  0
VERTEX
  5
1C4
100
AcDbEntity
  8
トラップ
  6
CONTINUOUS
 62
     6
100
AcDbVertex
100
AcDb2dVertex
 10
1160.296543
 20
1091.607095
 30
0.0
  0
VERTEX
  5
1C5
100
AcDbEntity
  8
トラップ
  6
CONTINUOUS
 62
     6
100
AcDbVertex
100
AcDb2dVertex
 10
1160.845646
 20
1090.585542
 30
0.0
  0
VERTEX
  5
1C6
100
AcDbEntity
  8
トラップ
  6
CONTINUOUS
 62
     6
100
AcDbVertex
100
AcDb2dVertex
 10
1161.569195
 20
1089.762367
 30
0.0
  0
VERTEX
  5
1C7
100
AcDbEntity
  8
トラップ
  6
CONTINUOUS
 62
     6
100
AcDbVertex
100
AcDb2dVertex
 10
1162.425146
 20
1089.185474
 30
0.0
  0
VERTEX
  5
1C8
100
AcDbEntity
  8
トラップ
  6
CONTINUOUS
 62
     6
100
AcDbVertex
100
AcDb2dVertex
 10
1163.36375
 20
1088.888414
 30
0.0
  0
VERTEX
  5
1C9
100
AcDbEntity
  8
トラップ
  6
CONTINUOUS
 62
     6
100
AcDbVertex
100
AcDb2dVertex
 10
1164.330388
 20
1088.888414
 30
0.0
  0
VERTEX
  5
1CA
100
AcDbEntity
  8
トラップ
  6
CONTINUOUS
 62
     6
100
AcDbVertex
100
AcDb2dVertex
 10
1165.268921
 20
1089.185474
 30
0.0
  0
VERTEX
  5
1CB
100
AcDbEntity
  8
トラップ
  6
CONTINUOUS
 62
     6
100
AcDbVertex
100
AcDb2dVertex
 10
1166.124866
 20
1089.762367
 30
0.0
  0
VERTEX
  5
1CC
100
AcDbEntity
  8
トラップ
  6
CONTINUOUS
 62
     6
100
AcDbVertex
100
AcDb2dVertex
 10
1166.848416
 20
1090.585542
 30
0.0
  0
VERTEX
  5
1CD
100
AcDbEntity
  8
トラップ
  6
CONTINUOUS
 62
     6
100
AcDbVertex
100
AcDb2dVertex
 10
1167.397518
 20
1091.607095
 30
0.0
  0
VERTEX
  5
1CE
100
AcDbEntity
  8
トラップ
  6
CONTINUOUS
 62
     6
100
AcDbVertex
100
AcDb2dVertex
 10
1167.740277
 20
1092.767708
 30
0.0
  0
VERTEX
  5
1CF
100
AcDbEntity
  8
トラップ
  6
CONTINUOUS
 62
     6
100
AcDbVertex
100
AcDb2dVertex
 10
1167.856812
 20
1093.999939
 30
0.0
  0
SEQEND
  5
1D0
100
AcDbEntity
  8
トラップ
  6
CONTINUOUS
 62
     6
  0
POLYLINE
  5
1D1
100
AcDbEntity
  8
トラップ
  6
CONTINUOUS
 62
     6
100
AcDb2dPolyline
 66
     1
 10
0.0
 20
0.0
 30
0.0
 70
   128
  0
VERTEX
  5
1D2
100
AcDbEntity
  8
トラップ
  6
CONTINUOUS
 62
     6
100
AcDbVertex
100
AcDb2dVertex
 10
1198.252472
 20
1093.999939
 30
0.0
  0
VERTEX
  5
1D3
100
AcDbEntity
  8
トラップ
  6
CONTINUOUS
 62
     6
100
AcDbVertex
100
AcDb2dVertex
 10
1198.134728
 20
1095.23217
 30
0.0
  0
VERTEX
  5
1D4
100
AcDbEntity
  8
トラップ
  6
CONTINUOUS
 62
     6
100
AcDbVertex
100
AcDb2dVertex
 10
1197.788286
 20
1096.392783
 30
0.0
  0
VERTEX
  5
1D5
100
AcDbEntity
  8
トラップ
  6
CONTINUOUS
 62
     6
100
AcDbVertex
100
AcDb2dVertex
 10
1197.233393
 20
1097.414336
 30
0.0
  0
VERTEX
  5
1D6
100
AcDbEntity
  8
トラップ
  6
CONTINUOUS
 62
     6
100
AcDbVertex
100
AcDb2dVertex
 10
1196.502161
 20
1098.237511
 30
0.0
  0
VERTEX
  5
1D7
100
AcDbEntity
  8
トラップ
  6
CONTINUOUS
 62
     6
100
AcDbVertex
100
AcDb2dVertex
 10
1195.63718
 20
1098.814404
 30
0.0
  0
VERTEX
  5
1D8
100
AcDbEntity
  8
トラップ
  6
CONTINUOUS
 62
     6
100
AcDbVertex
100
AcDb2dVertex
 10
1194.688678
 20
1099.111464
 30
0.0
  0
VERTEX
  5
1D9
100
AcDbEntity
  8
トラップ
  6
CONTINUOUS
 62
     6
100
AcDbVertex
100
AcDb2dVertex
 10
1193.711789
 20
1099.111464
 30
0.0
  0
VERTEX
  5
1DA
100
AcDbEntity
  8
トラップ
  6
CONTINUOUS
 62
     6
100
AcDbVertex
100
AcDb2dVertex
 10
1192.763358
 20
1098.814404
 30
0.0
  0
VERTEX
  5
1DB
100
AcDbEntity
  8
トラップ
  6
CONTINUOUS
 62
     6
100
AcDbVertex
100
AcDb2dVertex
 10
1191.898382
 20
1098.237511
 30
0.0
  0
VERTEX
  5
1DC
100
AcDbEntity
  8
トラップ
  6
CONTINUOUS
 62
     6
100
AcDbVertex
100
AcDb2dVertex
 10
1191.167151
 20
1097.414336
 30
0.0
  0
VERTEX
  5
1DD
100
AcDbEntity
  8
トラップ
  6
CONTINUOUS
 62
     6
100
AcDbVertex
100
AcDb2dVertex
 10
1190.612257
 20
1096.392783
 30
0.0
  0
VERTEX
  5
1DE
100
AcDbEntity
  8
トラップ
  6
CONTINUOUS
 62
     6
100
AcDbVertex
100
AcDb2dVertex
 10
1190.265816
 20
1095.23217
 30
0.0
  0
VERTEX
  5
1DF
100
AcDbEntity
  8
トラップ
  6
CONTINUOUS
 62
     6
100
AcDbVertex
100
AcDb2dVertex
 10
1190.148071
 20
1093.999939
 30
0.0
  0
VERTEX
  5
1E0
100
AcDbEntity
  8
トラップ
  6
CONTINUOUS
 62
     6
100
AcDbVertex
100
AcDb2dVertex
 10
1190.265816
 20
1092.767708
 30
0.0
  0
VERTEX
  5
1E1
100
AcDbEntity
  8
トラップ
  6
CONTINUOUS
 62
     6
100
AcDbVertex
100
AcDb2dVertex
 10
1190.612257
 20
1091.607095
 30
0.0
  0
VERTEX
  5
1E2
100
AcDbEntity
  8
トラップ
  6
CONTINUOUS
 62
     6
100
AcDbVertex
100
AcDb2dVertex
 10
1191.167151
 20
1090.585542
 30
0.0
  0
VERTEX
  5
1E3
100
AcDbEntity
  8
トラップ
  6
CONTINUOUS
 62
     6
100
AcDbVertex
100
AcDb2dVertex
 10
1191.898382
 20
1089.762367
 30
0.0
  0
VERTEX
  5
1E4
100
AcDbEntity
  8
トラップ
  6
CONTINUOUS
 62
     6
100
AcDbVertex
100
AcDb2dVertex
 10
1192.763358
 20
1089.185474
 30
0.0
  0
VERTEX
  5
1E5
100
AcDbEntity
  8
トラップ
  6
CONTINUOUS
 62
     6
100
AcDbVertex
100
AcDb2dVertex
 10
1193.711789
 20
1088.888414
 30
0.0
  0
VERTEX
  5
1E6
100
AcDbEntity
  8
トラップ
  6
CONTINUOUS
 62
     6
100
AcDbVertex
100
AcDb2dVertex
 10
1194.688678
 20
1088.888414
 30
0.0
  0
VERTEX
  5
1E7
100
AcDbEntity
  8
トラップ
  6
CONTINUOUS
 62
     6
100
AcDbVertex
100
AcDb2dVertex
 10
1195.63718
 20
1089.185474
 30
0.0
  0
VERTEX
  5
1E8
100
AcDbEntity
  8
トラップ
  6
CONTINUOUS
 62
     6
100
AcDbVertex
100
AcDb2dVertex
 10
1196.502161
 20
1089.762367
 30
0.0
  0
VERTEX
  5
1E9
100
AcDbEntity
  8
トラップ
  6
CONTINUOUS
 62
     6
100
AcDbVertex
100
AcDb2dVertex
 10
1197.233393
 20
1090.585542
 30
0.0
  0
VERTEX
  5
1EA
100
AcDbEntity
  8
トラップ
  6
CONTINUOUS
 62
     6
100
AcDbVertex
100
AcDb2dVertex
 10
1197.788286
 20
1091.607095
 30
0.0
  0
VERTEX
  5
1EB
100
AcDbEntity
  8
トラップ
  6
CONTINUOUS
 62
     6
100
AcDbVertex
100
AcDb2dVertex
 10
1198.134728
 20
1092.767708
 30
0.0
  0
VERTEX
  5
1EC
100
AcDbEntity
  8
トラップ
  6
CONTINUOUS
 62
     6
100
AcDbVertex
100
AcDb2dVertex
 10
1198.252472
 20
1093.999939
 30
0.0
  0
SEQEND
  5
1ED
100
AcDbEntity
  8
トラップ
  6
CONTINUOUS
 62
     6
  0
ARC
  5
1EE
100
AcDbEntity
  8
トラップ
  6
CONTINUOUS
 62
     6
100
AcDbCircle
 10
1189.80246
 20
1093.999939
 30
0.0
 40
8.45
100
AcDbArc
 50
314.759277
 51
45.238495
  0
ARC
  5
1EF
100
AcDbEntity
  8
トラップ
  6
CONTINUOUS
 62
     6
100
AcDbCircle
 10
1168.202423
 20
1093.999939
 30
0.0
 40
8.45
100
AcDbArc
 50
134.761505
 51
225.240753
  0
LINE
  5
1F0
100
AcDbEntity
  8
トラップ
  6
CONTINUOUS
 62
     6
100
AcDbLine
 10
1195.752319
 20
1087.999878
 30
0.0
 11
1162.252564
 21
1087.999878
 31
0.0
  0
LINE
  5
1F1
100
AcDbEntity
  8
トラップ
  6
CONTINUOUS
 62
     6
100
AcDbLine
 10
1163.00238
 20
1105.128174
 30
0.0
 11
1163.00238
 21
1099.999847
 31
0.0
  0
LINE
  5
1F2
100
AcDbEntity
  8
トラップ
  6
CONTINUOUS
 62
     6
100
AcDbLine
 10
1169.545349
 20
1107.127991
 30
0.0
 11
1167.493195
 21
1107.127991
 31
0.0
  0
LINE
  5
1F3
100
AcDbEntity
  8
トラップ
  6
CONTINUOUS
 62
     6
100
AcDbLine
 10
1190.511993
 20
1107.128296
 30
0.0
 11
1188.459534
 21
1107.128296
 31
0.0
  0
LINE
  5
1F4
100
AcDbEntity
  8
トラップ
  6
CONTINUOUS
 62
     6
100
AcDbLine
 10
1158.03595
 20
1111.128235
 30
0.0
 11
1158.03595
 21
1107.128143
 31
0.0
  0
LINE
  5
1F5
100
AcDbEntity
  8
トラップ
  6
CONTINUOUS
 62
     6
100
AcDbLine
 10
1199.968933
 20
1111.128235
 30
0.0
 11
1199.968933
 21
1107.108917
 31
0.0
  0
ARC
  5
1F6
100
AcDbEntity
  8
トラップ
  6
CONTINUOUS
 62
     6
100
AcDbCircle
 10
1195.24054
 20
1115.180359
 30
0.0
 40
9.337856
100
AcDbArc
 50
239.577042
 51
300.422119
  0
LINE
  5
1F7
100
AcDbEntity
  8
トラップ
  6
CONTINUOUS
 62
     6
100
AcDbLine
 10
1167.493195
 20
1107.127991
 30
0.0
 11
1167.493195
 21
1111.128235
 31
0.0
  0
ARC
  5
1F8
100
AcDbEntity
  8
トラップ
  6
CONTINUOUS
 62
     6
100
AcDbCircle
 10
1162.764649
 20
1115.180817
 30
0.0
 40
9.338417
100
AcDbArc
 50
239.577652
 51
300.421631
  0
LINE
  5
1F9
100
AcDbEntity
  8
トラップ
  6
CONTINUOUS
 62
     6
100
AcDbLine
 10
1169.545349
 20
1107.128143
 30
0.0
 11
1169.545349
 21
1111.128235
 31
0.0
  0
ARC
  5
1FA
100
AcDbEntity
  8
トラップ
  6
CONTINUOUS
 62
     6
100
AcDbCircle
 10
1179.002441
 20
1141.26648
 30
0.0
 40
35.423985
100
AcDbArc
 50
254.516068
 51
285.483887
  0
LINE
  5
1FB
100
AcDbEntity
  8
トラップ
  6
CONTINUOUS
 62
     6
100
AcDbLine
 10
1188.459534
 20
1107.128143
 30
0.0
 11
1188.459534
 21
1111.128235
 31
0.0
  0
LINE
  5
1FC
100
AcDbEntity
  8
トラップ
  6
CONTINUOUS
 62
     6
100
AcDbLine
 10
1190.511993
 20
1107.128296
 30
0.0
 11
1190.511993
 21
1111.128235
 31
0.0
  0
LINE
  5
1FD
100
AcDbEntity
  8
トラップ
  6
CONTINUOUS
 62
     6
100
AcDbLine
 10
1158.00238
 20
1111.128235
 30
0.0
 11
1158.00238
 21
1107.128143
 31
0.0
  0
LINE
  5
1FE
100
AcDbEntity
  8
トラップ
  6
CONTINUOUS
 62
     6
100
AcDbLine
 10
1200.002503
 20
1111.128235
 30
0.0
 11
1200.002503
 21
1107.128143
 31
0.0
  0
LINE
  5
1FF
100
AcDbEntity
  8
トラップ
  6
CONTINUOUS
 62
     6
100
AcDbLine
 10
1161.502441
 20
1105.128174
 30
0.0
 11
1158.00238
 21
1107.128143
 31
0.0
  0
LINE
  5
200
100
AcDbEntity
  8
トラップ
  6
CONTINUOUS
 62
     6
100
AcDbLine
 10
1196.502441
 20
1105.128174
 30
0.0
 11
1200.002503
 21
1107.128143
 31
0.0
  0
LINE
  5
201
100
AcDbEntity
  8
トラップ
  6
CONTINUOUS
 62
     6
100
AcDbLine
 10
1196.502441
 20
1105.128174
 30
0.0
 11
1161.502441
 21
1105.128174
 31
0.0
  0
LINE
  5
202
100
AcDbEntity
  8
トラップ
  6
CONTINUOUS
 62
     6
100
AcDbLine
 10
1204.002441
 20
1111.128235
 30
0.0
 11
1154.002441
 21
1111.128235
 31
0.0
  0
LINE
  5
203
100
AcDbEntity
  8
トラップ
  6
CONTINUOUS
 62
     6
100
AcDbLine
 10
1154.002441
 20
1114.128265
 30
0.0
 11
1154.002441
 21
1111.128235
 31
0.0
  0
LINE
  5
204
100
AcDbEntity
  8
トラップ
  6
CONTINUOUS
 62
     6
100
AcDbLine
 10
1204.002441
 20
1114.128265
 30
0.0
 11
1204.002441
 21
1111.128235
 31
0.0
  0
LINE
  5
205
100
AcDbEntity
  8
トラップ
  6
CONTINUOUS
 62
     6
100
AcDbLine
 10
1166.302399
 20
941.99997
 30
0.0
 11
1162.502441
 21
941.99997
 31
0.0
  0
LINE
  5
206
100
AcDbEntity
  8
トラップ
  6
CONTINUOUS
 62
     6
100
AcDbLine
 10
1161.502441
 20
931.0
 30
0.0
 11
1161.502441
 21
940.99997
 31
0.0
  0
POLYLINE
  5
207
100
AcDbEntity
  8
トラップ
  6
CONTINUOUS
 62
     6
100
AcDb2dPolyline
 66
     1
 10
0.0
 20
0.0
 30
0.0
 70
   128
  0
VERTEX
  5
208
100
AcDbEntity
  8
トラップ
  6
CONTINUOUS
 62
     6
100
AcDbVertex
100
AcDb2dVertex
 10
1166.302392
 20
940.235151
 30
0.0
  0
VERTEX
  5
209
100
AcDbEntity
  8
トラップ
  6
CONTINUOUS
 62
     6
100
AcDbVertex
100
AcDb2dVertex
 10
1165.889295
 20
940.006063
 30
0.0
  0
VERTEX
  5
20A
100
AcDbEntity
  8
トラップ
  6
CONTINUOUS
 62
     6
100
AcDbVertex
100
AcDb2dVertex
 10
1165.500228
 20
939.754927
 30
0.0
  0
VERTEX
  5
20B
100
AcDbEntity
  8
トラップ
  6
CONTINUOUS
 62
     6
100
AcDbVertex
100
AcDb2dVertex
 10
1165.13744
 20
939.483047
 30
0.0
  0
VERTEX
  5
20C
100
AcDbEntity
  8
トラップ
  6
CONTINUOUS
 62
     6
100
AcDbVertex
100
AcDb2dVertex
 10
1164.802903
 20
939.191929
 30
0.0
  0
VERTEX
  5
20D
100
AcDbEntity
  8
トラップ
  6
CONTINUOUS
 62
     6
100
AcDbVertex
100
AcDb2dVertex
 10
1164.498363
 20
938.88324
 30
0.0
  0
VERTEX
  5
20E
100
AcDbEntity
  8
トラップ
  6
CONTINUOUS
 62
     6
100
AcDbVertex
100
AcDb2dVertex
 10
1164.225554
 20
938.558656
 30
0.0
  0
VERTEX
  5
20F
100
AcDbEntity
  8
トラップ
  6
CONTINUOUS
 62
     6
100
AcDbVertex
100
AcDb2dVertex
 10
1163.98609
 20
938.219904
 30
0.0
  0
VERTEX
  5
210
100
AcDbEntity
  8
トラップ
  6
CONTINUOUS
 62
     6
100
AcDbVertex
100
AcDb2dVertex
 10
1163.781156
 20
937.868906
 30
0.0
  0
VERTEX
  5
211
100
AcDbEntity
  8
トラップ
  6
CONTINUOUS
 62
     6
100
AcDbVertex
100
AcDb2dVertex
 10
1163.611841
 20
937.507625
 30
0.0
  0
VERTEX
  5
212
100
AcDbEntity
  8
トラップ
  6
CONTINUOUS
 62
     6
100
AcDbVertex
100
AcDb2dVertex
 10
1163.479222
 20
937.138029
 30
0.0
  0
VERTEX
  5
213
100
AcDbEntity
  8
トラップ
  6
CONTINUOUS
 62
     6
100
AcDbVertex
100
AcDb2dVertex
 10
1163.384018
 20
936.762148
 30
0.0
  0
VERTEX
  5
214
100
AcDbEntity
  8
トラップ
  6
CONTINUOUS
 62
     6
100
AcDbVertex
100
AcDb2dVertex
 10
1163.32662
 20
936.382075
 30
0.0
  0
VERTEX
  5
215
100
AcDbEntity
  8
トラップ
  6
CONTINUOUS
 62
     6
100
AcDbVertex
100
AcDb2dVertex
 10
1163.307404
 20
935.999907
 30
0.0
  0
VERTEX
  5
216
100
AcDbEntity
  8
トラップ
  6
CONTINUOUS
 62
     6
100
AcDbVertex
100
AcDb2dVertex
 10
1163.32662
 20
935.617739
 30
0.0
  0
VERTEX
  5
217
100
AcDbEntity
  8
トラップ
  6
CONTINUOUS
 62
     6
100
AcDbVertex
100
AcDb2dVertex
 10
1163.384019
 20
935.237667
 30
0.0
  0
VERTEX
  5
218
100
AcDbEntity
  8
トラップ
  6
CONTINUOUS
 62
     6
100
AcDbVertex
100
AcDb2dVertex
 10
1163.479223
 20
934.861786
 30
0.0
  0
VERTEX
  5
219
100
AcDbEntity
  8
トラップ
  6
CONTINUOUS
 62
     6
100
AcDbVertex
100
AcDb2dVertex
 10
1163.611842
 20
934.492189
 30
0.0
  0
VERTEX
  5
21A
100
AcDbEntity
  8
トラップ
  6
CONTINUOUS
 62
     6
100
AcDbVertex
100
AcDb2dVertex
 10
1163.781157
 20
934.130909
 30
0.0
  0
VERTEX
  5
21B
100
AcDbEntity
  8
トラップ
  6
CONTINUOUS
 62
     6
100
AcDbVertex
100
AcDb2dVertex
 10
1163.986092
 20
933.779911
 30
0.0
  0
VERTEX
  5
21C
100
AcDbEntity
  8
トラップ
  6
CONTINUOUS
 62
     6
100
AcDbVertex
100
AcDb2dVertex
 10
1164.225556
 20
933.441159
 30
0.0
  0
VERTEX
  5
21D
100
AcDbEntity
  8
トラップ
  6
CONTINUOUS
 62
     6
100
AcDbVertex
100
AcDb2dVertex
 10
1164.498365
 20
933.116574
 30
0.0
  0
VERTEX
  5
21E
100
AcDbEntity
  8
トラップ
  6
CONTINUOUS
 62
     6
100
AcDbVertex
100
AcDb2dVertex
 10
1164.802906
 20
932.807886
 30
0.0
  0
VERTEX
  5
21F
100
AcDbEntity
  8
トラップ
  6
CONTINUOUS
 62
     6
100
AcDbVertex
100
AcDb2dVertex
 10
1165.137442
 20
932.516768
 30
0.0
  0
VERTEX
  5
220
100
AcDbEntity
  8
トラップ
  6
CONTINUOUS
 62
     6
100
AcDbVertex
100
AcDb2dVertex
 10
1165.50023
 20
932.244888
 30
0.0
  0
VERTEX
  5
221
100
AcDbEntity
  8
トラップ
  6
CONTINUOUS
 62
     6
100
AcDbVertex
100
AcDb2dVertex
 10
1165.889298
 20
931.993752
 30
0.0
  0
VERTEX
  5
222
100
AcDbEntity
  8
トラップ
  6
CONTINUOUS
 62
     6
100
AcDbVertex
100
AcDb2dVertex
 10
1166.302395
 20
931.764664
 30
0.0
  0
SEQEND
  5
223
100
AcDbEntity
  8
トラップ
  6
CONTINUOUS
 62
     6
  0
LINE
  5
224
100
AcDbEntity
  8
トラップ
  6
CONTINUOUS
 62
     6
100
AcDbLine
 10
1166.302399
 20
930.0
 30
0.0
 11
1162.502441
 21
930.0
 31
0.0
  0
LINE
  5
225
100
AcDbEntity
  8
トラップ
  6
CONTINUOUS
 62
     6
100
AcDbLine
 10
1195.502441
 20
941.99997
 30
0.0
 11
1191.702484
 21
941.99997
 31
0.0
  0
LINE
  5
226
100
AcDbEntity
  8
トラップ
  6
CONTINUOUS
 62
     6
100
AcDbLine
 10
1196.502441
 20
931.0
 30
0.0
 11
1196.502441
 21
940.99997
 31
0.0
  0
POLYLINE
  5
227
100
AcDbEntity
  8
トラップ
  6
CONTINUOUS
 62
     6
100
AcDb2dPolyline
 66
     1
 10
0.0
 20
0.0
 30
0.0
 70
   128
  0
VERTEX
  5
228
100
AcDbEntity
  8
トラップ
  6
CONTINUOUS
 62
     6
100
AcDbVertex
100
AcDb2dVertex
 10
1194.697479
 20
935.999908
 30
0.0
  0
VERTEX
  5
229
100
AcDbEntity
  8
トラップ
  6
CONTINUOUS
 62
     6
100
AcDbVertex
100
AcDb2dVertex
 10
1194.692667
 20
936.191124
 30
0.0
  0
VERTEX
  5
22A
100
AcDbEntity
  8
トラップ
  6
CONTINUOUS
 62
     6
100
AcDbVertex
100
AcDb2dVertex
 10
1194.678263
 20
936.382077
 30
0.0
  0
VERTEX
  5
22B
100
AcDbEntity
  8
トラップ
  6
CONTINUOUS
 62
     6
100
AcDbVertex
100
AcDb2dVertex
 10
1194.654313
 20
936.572506
 30
0.0
  0
VERTEX
  5
22C
100
AcDbEntity
  8
トラップ
  6
CONTINUOUS
 62
     6
100
AcDbVertex
100
AcDb2dVertex
 10
1194.620864
 20
936.76215
 30
0.0
  0
VERTEX
  5
22D
100
AcDbEntity
  8
トラップ
  6
CONTINUOUS
 62
     6
100
AcDbVertex
100
AcDb2dVertex
 10
1194.577964
 20
936.950745
 30
0.0
  0
VERTEX
  5
22E
100
AcDbEntity
  8
トラップ
  6
CONTINUOUS
 62
     6
100
AcDbVertex
100
AcDb2dVertex
 10
1194.52566
 20
937.138031
 30
0.0
  0
VERTEX
  5
22F
100
AcDbEntity
  8
トラップ
  6
CONTINUOUS
 62
     6
100
AcDbVertex
100
AcDb2dVertex
 10
1194.463999
 20
937.323745
 30
0.0
  0
VERTEX
  5
230
100
AcDbEntity
  8
トラップ
  6
CONTINUOUS
 62
     6
100
AcDbVertex
100
AcDb2dVertex
 10
1194.393041
 20
937.507628
 30
0.0
  0
VERTEX
  5
231
100
AcDbEntity
  8
トラップ
  6
CONTINUOUS
 62
     6
100
AcDbVertex
100
AcDb2dVertex
 10
1194.312904
 20
937.689431
 30
0.0
  0
VERTEX
  5
232
100
AcDbEntity
  8
トラップ
  6
CONTINUOUS
 62
     6
100
AcDbVertex
100
AcDb2dVertex
 10
1194.223726
 20
937.868908
 30
0.0
  0
VERTEX
  5
233
100
AcDbEntity
  8
トラップ
  6
CONTINUOUS
 62
     6
100
AcDbVertex
100
AcDb2dVertex
 10
1194.125643
 20
938.045815
 30
0.0
  0
VERTEX
  5
234
100
AcDbEntity
  8
トラップ
  6
CONTINUOUS
 62
     6
100
AcDbVertex
100
AcDb2dVertex
 10
1194.018791
 20
938.219906
 30
0.0
  0
VERTEX
  5
235
100
AcDbEntity
  8
トラップ
  6
CONTINUOUS
 62
     6
100
AcDbVertex
100
AcDb2dVertex
 10
1193.903307
 20
938.390936
 30
0.0
  0
VERTEX
  5
236
100
AcDbEntity
  8
トラップ
  6
CONTINUOUS
 62
     6
100
AcDbVertex
100
AcDb2dVertex
 10
1193.779327
 20
938.558659
 30
0.0
  0
VERTEX
  5
237
100
AcDbEntity
  8
トラップ
  6
CONTINUOUS
 62
     6
100
AcDbVertex
100
AcDb2dVertex
 10
1193.646997
 20
938.722833
 30
0.0
  0
VERTEX
  5
238
100
AcDbEntity
  8
トラップ
  6
CONTINUOUS
 62
     6
100
AcDbVertex
100
AcDb2dVertex
 10
1193.506517
 20
938.883244
 30
0.0
  0
VERTEX
  5
239
100
AcDbEntity
  8
トラップ
  6
CONTINUOUS
 62
     6
100
AcDbVertex
100
AcDb2dVertex
 10
1193.358105
 20
939.039679
 30
0.0
  0
VERTEX
  5
23A
100
AcDbEntity
  8
トラップ
  6
CONTINUOUS
 62
     6
100
AcDbVertex
100
AcDb2dVertex
 10
1193.201976
 20
939.191932
 30
0.0
  0
VERTEX
  5
23B
100
AcDbEntity
  8
トラップ
  6
CONTINUOUS
 62
     6
100
AcDbVertex
100
AcDb2dVertex
 10
1193.038349
 20
939.339792
 30
0.0
  0
VERTEX
  5
23C
100
AcDbEntity
  8
トラップ
  6
CONTINUOUS
 62
     6
100
AcDbVertex
100
AcDb2dVertex
 10
1192.867439
 20
939.48305
 30
0.0
  0
VERTEX
  5
23D
100
AcDbEntity
  8
トラップ
  6
CONTINUOUS
 62
     6
100
AcDbVertex
100
AcDb2dVertex
 10
1192.689465
 20
939.621498
 30
0.0
  0
VERTEX
  5
23E
100
AcDbEntity
  8
トラップ
  6
CONTINUOUS
 62
     6
100
AcDbVertex
100
AcDb2dVertex
 10
1192.504651
 20
939.75493
 30
0.0
  0
VERTEX
  5
23F
100
AcDbEntity
  8
トラップ
  6
CONTINUOUS
 62
     6
100
AcDbVertex
100
AcDb2dVertex
 10
1192.313262
 20
939.883173
 30
0.0
  0
VERTEX
  5
240
100
AcDbEntity
  8
トラップ
  6
CONTINUOUS
 62
     6
100
AcDbVertex
100
AcDb2dVertex
 10
1192.115583
 20
940.006066
 30
0.0
  0
VERTEX
  5
241
100
AcDbEntity
  8
トラップ
  6
CONTINUOUS
 62
     6
100
AcDbVertex
100
AcDb2dVertex
 10
1191.911896
 20
940.123447
 30
0.0
  0
VERTEX
  5
242
100
AcDbEntity
  8
トラップ
  6
CONTINUOUS
 62
     6
100
AcDbVertex
100
AcDb2dVertex
 10
1191.702485
 20
940.235154
 30
0.0
  0
SEQEND
  5
243
100
AcDbEntity
  8
トラップ
  6
CONTINUOUS
 62
     6
  0
POLYLINE
  5
244
100
AcDbEntity
  8
トラップ
  6
CONTINUOUS
 62
     6
100
AcDb2dPolyline
 66
     1
 10
0.0
 20
0.0
 30
0.0
 70
   128
  0
VERTEX
  5
245
100
AcDbEntity
  8
トラップ
  6
CONTINUOUS
 62
     6
100
AcDbVertex
100
AcDb2dVertex
 10
1191.702488
 20
931.764664
 30
0.0
  0
VERTEX
  5
246
100
AcDbEntity
  8
トラップ
  6
CONTINUOUS
 62
     6
100
AcDbVertex
100
AcDb2dVertex
 10
1191.911899
 20
931.876371
 30
0.0
  0
VERTEX
  5
247
100
AcDbEntity
  8
トラップ
  6
CONTINUOUS
 62
     6
100
AcDbVertex
100
AcDb2dVertex
 10
1192.115585
 20
931.993752
 30
0.0
  0
VERTEX
  5
248
100
AcDbEntity
  8
トラップ
  6
CONTINUOUS
 62
     6
100
AcDbVertex
100
AcDb2dVertex
 10
1192.313264
 20
932.116645
 30
0.0
  0
VERTEX
  5
249
100
AcDbEntity
  8
トラップ
  6
CONTINUOUS
 62
     6
100
AcDbVertex
100
AcDb2dVertex
 10
1192.504653
 20
932.244888
 30
0.0
  0
VERTEX
  5
24A
100
AcDbEntity
  8
トラップ
  6
CONTINUOUS
 62
     6
100
AcDbVertex
100
AcDb2dVertex
 10
1192.689467
 20
932.378321
 30
0.0
  0
VERTEX
  5
24B
100
AcDbEntity
  8
トラップ
  6
CONTINUOUS
 62
     6
100
AcDbVertex
100
AcDb2dVertex
 10
1192.867441
 20
932.516768
 30
0.0
  0
VERTEX
  5
24C
100
AcDbEntity
  8
トラップ
  6
CONTINUOUS
 62
     6
100
AcDbVertex
100
AcDb2dVertex
 10
1193.03835
 20
932.660026
 30
0.0
  0
VERTEX
  5
24D
100
AcDbEntity
  8
トラップ
  6
CONTINUOUS
 62
     6
100
AcDbVertex
100
AcDb2dVertex
 10
1193.201978
 20
932.807886
 30
0.0
  0
VERTEX
  5
24E
100
AcDbEntity
  8
トラップ
  6
CONTINUOUS
 62
     6
100
AcDbVertex
100
AcDb2dVertex
 10
1193.358106
 20
932.960139
 30
0.0
  0
VERTEX
  5
24F
100
AcDbEntity
  8
トラップ
  6
CONTINUOUS
 62
     6
100
AcDbVertex
100
AcDb2dVertex
 10
1193.506519
 20
933.116575
 30
0.0
  0
VERTEX
  5
250
100
AcDbEntity
  8
トラップ
  6
CONTINUOUS
 62
     6
100
AcDbVertex
100
AcDb2dVertex
 10
1193.646998
 20
933.276985
 30
0.0
  0
VERTEX
  5
251
100
AcDbEntity
  8
トラップ
  6
CONTINUOUS
 62
     6
100
AcDbVertex
100
AcDb2dVertex
 10
1193.779327
 20
933.44116
 30
0.0
  0
VERTEX
  5
252
100
AcDbEntity
  8
トラップ
  6
CONTINUOUS
 62
     6
100
AcDbVertex
100
AcDb2dVertex
 10
1193.903307
 20
933.608882
 30
0.0
  0
VERTEX
  5
253
100
AcDbEntity
  8
トラップ
  6
CONTINUOUS
 62
     6
100
AcDbVertex
100
AcDb2dVertex
 10
1194.018791
 20
933.779912
 30
0.0
  0
VERTEX
  5
254
100
AcDbEntity
  8
トラップ
  6
CONTINUOUS
 62
     6
100
AcDbVertex
100
AcDb2dVertex
 10
1194.125643
 20
933.954002
 30
0.0
  0
VERTEX
  5
255
100
AcDbEntity
  8
トラップ
  6
CONTINUOUS
 62
     6
100
AcDbVertex
100
AcDb2dVertex
 10
1194.223726
 20
934.130909
 30
0.0
  0
VERTEX
  5
256
100
AcDbEntity
  8
トラップ
  6
CONTINUOUS
 62
     6
100
AcDbVertex
100
AcDb2dVertex
 10
1194.312904
 20
934.310387
 30
0.0
  0
VERTEX
  5
257
100
AcDbEntity
  8
トラップ
  6
CONTINUOUS
 62
     6
100
AcDbVertex
100
AcDb2dVertex
 10
1194.393041
 20
934.49219
 30
0.0
  0
VERTEX
  5
258
100
AcDbEntity
  8
トラップ
  6
CONTINUOUS
 62
     6
100
AcDbVertex
100
AcDb2dVertex
 10
1194.463999
 20
934.676073
 30
0.0
  0
VERTEX
  5
259
100
AcDbEntity
  8
トラップ
  6
CONTINUOUS
 62
     6
100
AcDbVertex
100
AcDb2dVertex
 10
1194.525661
 20
934.861787
 30
0.0
  0
VERTEX
  5
25A
100
AcDbEntity
  8
トラップ
  6
CONTINUOUS
 62
     6
100
AcDbVertex
100
AcDb2dVertex
 10
1194.577965
 20
935.049072
 30
0.0
  0
VERTEX
  5
25B
100
AcDbEntity
  8
トラップ
  6
CONTINUOUS
 62
     6
100
AcDbVertex
100
AcDb2dVertex
 10
1194.620864
 20
935.237668
 30
0.0
  0
VERTEX
  5
25C
100
AcDbEntity
  8
トラップ
  6
CONTINUOUS
 62
     6
100
AcDbVertex
100
AcDb2dVertex
 10
1194.654313
 20
935.427311
 30
0.0
  0
VERTEX
  5
25D
100
AcDbEntity
  8
トラップ
  6
CONTINUOUS
 62
     6
100
AcDbVertex
100
AcDb2dVertex
 10
1194.678263
 20
935.61774
 30
0.0
  0
VERTEX
  5
25E
100
AcDbEntity
  8
トラップ
  6
CONTINUOUS
 62
     6
100
AcDbVertex
100
AcDb2dVertex
 10
1194.692667
 20
935.808693
 30
0.0
  0
VERTEX
  5
25F
100
AcDbEntity
  8
トラップ
  6
CONTINUOUS
 62
     6
100
AcDbVertex
100
AcDb2dVertex
 10
1194.697479
 20
935.999908
 30
0.0
  0
SEQEND
  5
260
100
AcDbEntity
  8
トラップ
  6
CONTINUOUS
 62
     6
  0
LINE
  5
261
100
AcDbEntity
  8
トラップ
  6
CONTINUOUS
 62
     6
100
AcDbLine
 10
1195.502441
 20
930.0
 30
0.0
 11
1191.702484
 21
930.0
 31
0.0
  0
LINE
  5
262
100
AcDbEntity
  8
トラップ
  6
CONTINUOUS
 62
     6
100
AcDbLine
 10
1166.302551
 20
965.50003
 30
0.0
 11
1191.702332
 21
965.50003
 31
0.0
  0
ARC
  5
263
100
AcDbEntity
  8
トラップ
  6
CONTINUOUS
 62
     6
100
AcDbCircle
 10
1190.702423
 20
966.035919
 30
0.0
 40
2.0
100
AcDbArc
 50
330.001953
 51
0.0
  0
LINE
  5
264
100
AcDbEntity
  8
トラップ
  6
CONTINUOUS
 62
     6
100
AcDbLine
 10
1191.970429
 20
964.232178
 30
0.0
 11
1192.702393
 21
965.499878
 31
0.0
  0
ARC
  5
265
100
AcDbEntity
  8
トラップ
  6
CONTINUOUS
 62
     6
100
AcDbCircle
 10
1193.702454
 20
963.232269
 30
0.0
 40
2.0
100
AcDbArc
 50
150.001907
 51
180.0
  0
LINE
  5
266
100
AcDbEntity
  8
トラップ
  6
CONTINUOUS
 62
     6
100
AcDbLine
 10
1191.970429
 20
964.232178
 30
0.0
 11
1192.702393
 21
965.499878
 31
0.0
  0
LINE
  5
267
100
AcDbEntity
  8
トラップ
  6
CONTINUOUS
 62
     6
100
AcDbLine
 10
1191.970429
 20
964.232178
 30
0.0
 11
1192.702393
 21
965.499878
 31
0.0
  0
LINE
  5
268
100
AcDbEntity
  8
トラップ
  6
CONTINUOUS
 62
     6
100
AcDbLine
 10
1191.970429
 20
964.232178
 30
0.0
 11
1192.702393
 21
965.499878
 31
0.0
  0
LINE
  5
269
100
AcDbEntity
  8
トラップ
  6
CONTINUOUS
 62
     6
100
AcDbLine
 10
1191.970429
 20
964.232178
 30
0.0
 11
1192.702393
 21
965.499878
 31
0.0
  0
ARC
  5
26A
100
AcDbEntity
  8
トラップ
  6
CONTINUOUS
 62
     6
100
AcDbCircle
 10
1164.302429
 20
963.232269
 30
0.0
 40
2.0
100
AcDbArc
 50
0.0
 51
29.998093
  0
LINE
  5
26B
100
AcDbEntity
  8
トラップ
  6
CONTINUOUS
 62
     6
100
AcDbLine
 10
1166.034454
 20
964.232178
 30
0.0
 11
1165.30249
 21
965.499878
 31
0.0
  0
LINE
  5
26C
100
AcDbEntity
  8
トラップ
  6
CONTINUOUS
 62
     6
100
AcDbLine
 10
1166.034454
 20
964.232178
 30
0.0
 11
1165.30249
 21
965.499878
 31
0.0
  0
LINE
  5
26D
100
AcDbEntity
  8
トラップ
  6
CONTINUOUS
 62
     6
100
AcDbLine
 10
1166.034454
 20
964.232178
 30
0.0
 11
1165.30249
 21
965.499878
 31
0.0
  0
LINE
  5
26E
100
AcDbEntity
  8
トラップ
  6
CONTINUOUS
 62
     6
100
AcDbLine
 10
1166.034454
 20
964.232178
 30
0.0
 11
1165.30249
 21
965.499878
 31
0.0
  0
ARC
  5
26F
100
AcDbEntity
  8
トラップ
  6
CONTINUOUS
 62
     6
100
AcDbCircle
 10
1167.30246
 20
966.035919
 30
0.0
 40
2.0
100
AcDbArc
 50
180.0
 51
209.998047
  0
LINE
  5
270
100
AcDbEntity
  8
トラップ
  6
CONTINUOUS
 62
     6
100
AcDbLine
 10
1191.702484
 20
894.49997
 30
0.0
 11
1191.702484
 21
963.232269
 31
0.0
  0
LINE
  5
271
100
AcDbEntity
  8
トラップ
  6
CONTINUOUS
 62
     6
100
AcDbLine
 10
1166.302399
 20
894.49997
 30
0.0
 11
1166.302399
 21
963.232269
 31
0.0
  0
LINE
  5
272
100
AcDbEntity
  8
トラップ
  6
CONTINUOUS
 62
     6
100
AcDbLine
 10
1195.752625
 20
1016.500092
 30
0.0
 11
1162.252258
 21
1016.500092
 31
0.0
  0
ARC
  5
273
100
AcDbEntity
  8
トラップ
  6
CONTINUOUS
 62
     6
100
AcDbCircle
 10
1168.202423
 20
1010.500183
 30
0.0
 40
8.45
100
AcDbArc
 50
134.761505
 51
225.240753
  0
POLYLINE
  5
274
100
AcDbEntity
  8
トラップ
  6
CONTINUOUS
 62
     6
100
AcDb2dPolyline
 66
     1
 10
0.0
 20
0.0
 30
0.0
 70
   128
  0
VERTEX
  5
275
100
AcDbEntity
  8
トラップ
  6
CONTINUOUS
 62
     6
100
AcDbVertex
100
AcDb2dVertex
 10
1167.856812
 20
1010.500183
 30
0.0
  0
VERTEX
  5
276
100
AcDbEntity
  8
トラップ
  6
CONTINUOUS
 62
     6
100
AcDbVertex
100
AcDb2dVertex
 10
1167.740277
 20
1011.732414
 30
0.0
  0
VERTEX
  5
277
100
AcDbEntity
  8
トラップ
  6
CONTINUOUS
 62
     6
100
AcDbVertex
100
AcDb2dVertex
 10
1167.397518
 20
1012.893027
 30
0.0
  0
VERTEX
  5
278
100
AcDbEntity
  8
トラップ
  6
CONTINUOUS
 62
     6
100
AcDbVertex
100
AcDb2dVertex
 10
1166.848416
 20
1013.91458
 30
0.0
  0
VERTEX
  5
279
100
AcDbEntity
  8
トラップ
  6
CONTINUOUS
 62
     6
100
AcDbVertex
100
AcDb2dVertex
 10
1166.124866
 20
1014.737755
 30
0.0
  0
VERTEX
  5
27A
100
AcDbEntity
  8
トラップ
  6
CONTINUOUS
 62
     6
100
AcDbVertex
100
AcDb2dVertex
 10
1165.268921
 20
1015.314648
 30
0.0
  0
VERTEX
  5
27B
100
AcDbEntity
  8
トラップ
  6
CONTINUOUS
 62
     6
100
AcDbVertex
100
AcDb2dVertex
 10
1164.330388
 20
1015.611708
 30
0.0
  0
VERTEX
  5
27C
100
AcDbEntity
  8
トラップ
  6
CONTINUOUS
 62
     6
100
AcDbVertex
100
AcDb2dVertex
 10
1163.36375
 20
1015.611708
 30
0.0
  0
VERTEX
  5
27D
100
AcDbEntity
  8
トラップ
  6
CONTINUOUS
 62
     6
100
AcDbVertex
100
AcDb2dVertex
 10
1162.425146
 20
1015.314648
 30
0.0
  0
VERTEX
  5
27E
100
AcDbEntity
  8
トラップ
  6
CONTINUOUS
 62
     6
100
AcDbVertex
100
AcDb2dVertex
 10
1161.569195
 20
1014.737755
 30
0.0
  0
VERTEX
  5
27F
100
AcDbEntity
  8
トラップ
  6
CONTINUOUS
 62
     6
100
AcDbVertex
100
AcDb2dVertex
 10
1160.845646
 20
1013.91458
 30
0.0
  0
VERTEX
  5
280
100
AcDbEntity
  8
トラップ
  6
CONTINUOUS
 62
     6
100
AcDbVertex
100
AcDb2dVertex
 10
1160.296543
 20
1012.893027
 30
0.0
  0
VERTEX
  5
281
100
AcDbEntity
  8
トラップ
  6
CONTINUOUS
 62
     6
100
AcDbVertex
100
AcDb2dVertex
 10
1159.953784
 20
1011.732414
 30
0.0
  0
VERTEX
  5
282
100
AcDbEntity
  8
トラップ
  6
CONTINUOUS
 62
     6
100
AcDbVertex
100
AcDb2dVertex
 10
1159.83725
 20
1010.500183
 30
0.0
  0
VERTEX
  5
283
100
AcDbEntity
  8
トラップ
  6
CONTINUOUS
 62
     6
100
AcDbVertex
100
AcDb2dVertex
 10
1159.953784
 20
1009.267953
 30
0.0
  0
VERTEX
  5
284
100
AcDbEntity
  8
トラップ
  6
CONTINUOUS
 62
     6
100
AcDbVertex
100
AcDb2dVertex
 10
1160.296543
 20
1008.107339
 30
0.0
  0
VERTEX
  5
285
100
AcDbEntity
  8
トラップ
  6
CONTINUOUS
 62
     6
100
AcDbVertex
100
AcDb2dVertex
 10
1160.845646
 20
1007.085786
 30
0.0
  0
VERTEX
  5
286
100
AcDbEntity
  8
トラップ
  6
CONTINUOUS
 62
     6
100
AcDbVertex
100
AcDb2dVertex
 10
1161.569195
 20
1006.262611
 30
0.0
  0
VERTEX
  5
287
100
AcDbEntity
  8
トラップ
  6
CONTINUOUS
 62
     6
100
AcDbVertex
100
AcDb2dVertex
 10
1162.425146
 20
1005.685718
 30
0.0
  0
VERTEX
  5
288
100
AcDbEntity
  8
トラップ
  6
CONTINUOUS
 62
     6
100
AcDbVertex
100
AcDb2dVertex
 10
1163.36375
 20
1005.388658
 30
0.0
  0
VERTEX
  5
289
100
AcDbEntity
  8
トラップ
  6
CONTINUOUS
 62
     6
100
AcDbVertex
100
AcDb2dVertex
 10
1164.330388
 20
1005.388658
 30
0.0
  0
VERTEX
  5
28A
100
AcDbEntity
  8
トラップ
  6
CONTINUOUS
 62
     6
100
AcDbVertex
100
AcDb2dVertex
 10
1165.268921
 20
1005.685718
 30
0.0
  0
VERTEX
  5
28B
100
AcDbEntity
  8
トラップ
  6
CONTINUOUS
 62
     6
100
AcDbVertex
100
AcDb2dVertex
 10
1166.124866
 20
1006.262611
 30
0.0
  0
VERTEX
  5
28C
100
AcDbEntity
  8
トラップ
  6
CONTINUOUS
 62
     6
100
AcDbVertex
100
AcDb2dVertex
 10
1166.848416
 20
1007.085786
 30
0.0
  0
VERTEX
  5
28D
100
AcDbEntity
  8
トラップ
  6
CONTINUOUS
 62
     6
100
AcDbVertex
100
AcDb2dVertex
 10
1167.397518
 20
1008.107339
 30
0.0
  0
VERTEX
  5
28E
100
AcDbEntity
  8
トラップ
  6
CONTINUOUS
 62
     6
100
AcDbVertex
100
AcDb2dVertex
 10
1167.740277
 20
1009.267953
 30
0.0
  0
VERTEX
  5
28F
100
AcDbEntity
  8
トラップ
  6
CONTINUOUS
 62
     6
100
AcDbVertex
100
AcDb2dVertex
 10
1167.856812
 20
1010.500183
 30
0.0
  0
SEQEND
  5
290
100
AcDbEntity
  8
トラップ
  6
CONTINUOUS
 62
     6
  0
POLYLINE
  5
291
100
AcDbEntity
  8
トラップ
  6
CONTINUOUS
 62
     6
100
AcDb2dPolyline
 66
     1
 10
0.0
 20
0.0
 30
0.0
 70
   128
  0
VERTEX
  5
292
100
AcDbEntity
  8
トラップ
  6
CONTINUOUS
 62
     6
100
AcDbVertex
100
AcDb2dVertex
 10
1187.022003
 20
1010.500183
 30
0.0
  0
VERTEX
  5
293
100
AcDbEntity
  8
トラップ
  6
CONTINUOUS
 62
     6
100
AcDbVertex
100
AcDb2dVertex
 10
1186.788935
 20
1011.732414
 30
0.0
  0
VERTEX
  5
294
100
AcDbEntity
  8
トラップ
  6
CONTINUOUS
 62
     6
100
AcDbVertex
100
AcDb2dVertex
 10
1186.103402
 20
1012.893027
 30
0.0
  0
VERTEX
  5
295
100
AcDbEntity
  8
トラップ
  6
CONTINUOUS
 62
     6
100
AcDbVertex
100
AcDb2dVertex
 10
1185.005106
 20
1013.91458
 30
0.0
  0
VERTEX
  5
296
100
AcDbEntity
  8
トラップ
  6
CONTINUOUS
 62
     6
100
AcDbVertex
100
AcDb2dVertex
 10
1183.557969
 20
1014.737755
 30
0.0
  0
VERTEX
  5
297
100
AcDbEntity
  8
トラップ
  6
CONTINUOUS
 62
     6
100
AcDbVertex
100
AcDb2dVertex
 10
1181.846153
 20
1015.314648
 30
0.0
  0
VERTEX
  5
298
100
AcDbEntity
  8
トラップ
  6
CONTINUOUS
 62
     6
100
AcDbVertex
100
AcDb2dVertex
 10
1179.969076
 20
1015.611708
 30
0.0
  0
VERTEX
  5
299
100
AcDbEntity
  8
トラップ
  6
CONTINUOUS
 62
     6
100
AcDbVertex
100
AcDb2dVertex
 10
1178.035807
 20
1015.611708
 30
0.0
  0
VERTEX
  5
29A
100
AcDbEntity
  8
トラップ
  6
CONTINUOUS
 62
     6
100
AcDbVertex
100
AcDb2dVertex
 10
1176.15873
 20
1015.314648
 30
0.0
  0
VERTEX
  5
29B
100
AcDbEntity
  8
トラップ
  6
CONTINUOUS
 62
     6
100
AcDbVertex
100
AcDb2dVertex
 10
1174.446914
 20
1014.737755
 30
0.0
  0
VERTEX
  5
29C
100
AcDbEntity
  8
トラップ
  6
CONTINUOUS
 62
     6
100
AcDbVertex
100
AcDb2dVertex
 10
1172.999777
 20
1013.91458
 30
0.0
  0
VERTEX
  5
29D
100
AcDbEntity
  8
トラップ
  6
CONTINUOUS
 62
     6
100
AcDbVertex
100
AcDb2dVertex
 10
1171.901481
 20
1012.893027
 30
0.0
  0
VERTEX
  5
29E
100
AcDbEntity
  8
トラップ
  6
CONTINUOUS
 62
     6
100
AcDbVertex
100
AcDb2dVertex
 10
1171.215948
 20
1011.732414
 30
0.0
  0
VERTEX
  5
29F
100
AcDbEntity
  8
トラップ
  6
CONTINUOUS
 62
     6
100
AcDbVertex
100
AcDb2dVertex
 10
1170.98288
 20
1010.500183
 30
0.0
  0
VERTEX
  5
2A0
100
AcDbEntity
  8
トラップ
  6
CONTINUOUS
 62
     6
100
AcDbVertex
100
AcDb2dVertex
 10
1171.215948
 20
1009.267953
 30
0.0
  0
VERTEX
  5
2A1
100
AcDbEntity
  8
トラップ
  6
CONTINUOUS
 62
     6
100
AcDbVertex
100
AcDb2dVertex
 10
1171.901481
 20
1008.107339
 30
0.0
  0
VERTEX
  5
2A2
100
AcDbEntity
  8
トラップ
  6
CONTINUOUS
 62
     6
100
AcDbVertex
100
AcDb2dVertex
 10
1172.999777
 20
1007.085786
 30
0.0
  0
VERTEX
  5
2A3
100
AcDbEntity
  8
トラップ
  6
CONTINUOUS
 62
     6
100
AcDbVertex
100
AcDb2dVertex
 10
1174.446914
 20
1006.262611
 30
0.0
  0
VERTEX
  5
2A4
100
AcDbEntity
  8
トラップ
  6
CONTINUOUS
 62
     6
100
AcDbVertex
100
AcDb2dVertex
 10
1176.15873
 20
1005.685718
 30
0.0
  0
VERTEX
  5
2A5
100
AcDbEntity
  8
トラップ
  6
CONTINUOUS
 62
     6
100
AcDbVertex
100
AcDb2dVertex
 10
1178.035807
 20
1005.388658
 30
0.0
  0
VERTEX
  5
2A6
100
AcDbEntity
  8
トラップ
  6
CONTINUOUS
 62
     6
100
AcDbVertex
100
AcDb2dVertex
 10
1179.969076
 20
1005.388658
 30
0.0
  0
VERTEX
  5
2A7
100
AcDbEntity
  8
トラップ
  6
CONTINUOUS
 62
     6
100
AcDbVertex
100
AcDb2dVertex
 10
1181.846153
 20
1005.685718
 30
0.0
  0
VERTEX
  5
2A8
100
AcDbEntity
  8
トラップ
  6
CONTINUOUS
 62
     6
100
AcDbVertex
100
AcDb2dVertex
 10
1183.557969
 20
1006.262611
 30
0.0
  0
VERTEX
  5
2A9
100
AcDbEntity
  8
トラップ
  6
CONTINUOUS
 62
     6
100
AcDbVertex
100
AcDb2dVertex
 10
1185.005106
 20
1007.085786
 30
0.0
  0
VERTEX
  5
2AA
100
AcDbEntity
  8
トラップ
  6
CONTINUOUS
 62
     6
100
AcDbVertex
100
AcDb2dVertex
 10
1186.103402
 20
1008.107339
 30
0.0
  0
VERTEX
  5
2AB
100
AcDbEntity
  8
トラップ
  6
CONTINUOUS
 62
     6
100
AcDbVertex
100
AcDb2dVertex
 10
1186.788935
 20
1009.267953
 30
0.0
  0
VERTEX
  5
2AC
100
AcDbEntity
  8
トラップ
  6
CONTINUOUS
 62
     6
100
AcDbVertex
100
AcDb2dVertex
 10
1187.022003
 20
1010.500183
 30
0.0
  0
SEQEND
  5
2AD
100
AcDbEntity
  8
トラップ
  6
CONTINUOUS
 62
     6
  0
ARC
  5
2AE
100
AcDbEntity
  8
トラップ
  6
CONTINUOUS
 62
     6
100
AcDbCircle
 10
1189.80246
 20
1010.500183
 30
0.0
 40
8.45
100
AcDbArc
 50
314.759277
 51
45.238495
  0
POLYLINE
  5
2AF
100
AcDbEntity
  8
トラップ
  6
CONTINUOUS
 62
     6
100
AcDb2dPolyline
 66
     1
 10
0.0
 20
0.0
 30
0.0
 70
   128
  0
VERTEX
  5
2B0
100
AcDbEntity
  8
トラップ
  6
CONTINUOUS
 62
     6
100
AcDbVertex
100
AcDb2dVertex
 10
1198.252472
 20
1010.500183
 30
0.0
  0
VERTEX
  5
2B1
100
AcDbEntity
  8
トラップ
  6
CONTINUOUS
 62
     6
100
AcDbVertex
100
AcDb2dVertex
 10
1198.134728
 20
1011.732414
 30
0.0
  0
VERTEX
  5
2B2
100
AcDbEntity
  8
トラップ
  6
CONTINUOUS
 62
     6
100
AcDbVertex
100
AcDb2dVertex
 10
1197.788286
 20
1012.893027
 30
0.0
  0
VERTEX
  5
2B3
100
AcDbEntity
  8
トラップ
  6
CONTINUOUS
 62
     6
100
AcDbVertex
100
AcDb2dVertex
 10
1197.233393
 20
1013.91458
 30
0.0
  0
VERTEX
  5
2B4
100
AcDbEntity
  8
トラップ
  6
CONTINUOUS
 62
     6
100
AcDbVertex
100
AcDb2dVertex
 10
1196.502161
 20
1014.737755
 30
0.0
  0
VERTEX
  5
2B5
100
AcDbEntity
  8
トラップ
  6
CONTINUOUS
 62
     6
100
AcDbVertex
100
AcDb2dVertex
 10
1195.63718
 20
1015.314648
 30
0.0
  0
VERTEX
  5
2B6
100
AcDbEntity
  8
トラップ
  6
CONTINUOUS
 62
     6
100
AcDbVertex
100
AcDb2dVertex
 10
1194.688678
 20
1015.611708
 30
0.0
  0
VERTEX
  5
2B7
100
AcDbEntity
  8
トラップ
  6
CONTINUOUS
 62
     6
100
AcDbVertex
100
AcDb2dVertex
 10
1193.711789
 20
1015.611708
 30
0.0
  0
VERTEX
  5
2B8
100
AcDbEntity
  8
トラップ
  6
CONTINUOUS
 62
     6
100
AcDbVertex
100
AcDb2dVertex
 10
1192.763358
 20
1015.314648
 30
0.0
  0
VERTEX
  5
2B9
100
AcDbEntity
  8
トラップ
  6
CONTINUOUS
 62
     6
100
AcDbVertex
100
AcDb2dVertex
 10
1191.898382
 20
1014.737755
 30
0.0
  0
VERTEX
  5
2BA
100
AcDbEntity
  8
トラップ
  6
CONTINUOUS
 62
     6
100
AcDbVertex
100
AcDb2dVertex
 10
1191.167151
 20
1013.91458
 30
0.0
  0
VERTEX
  5
2BB
100
AcDbEntity
  8
トラップ
  6
CONTINUOUS
 62
     6
100
AcDbVertex
100
AcDb2dVertex
 10
1190.612257
 20
1012.893027
 30
0.0
  0
VERTEX
  5
2BC
100
AcDbEntity
  8
トラップ
  6
CONTINUOUS
 62
     6
100
AcDbVertex
100
AcDb2dVertex
 10
1190.265816
 20
1011.732414
 30
0.0
  0
VERTEX
  5
2BD
100
AcDbEntity
  8
トラップ
  6
CONTINUOUS
 62
     6
100
AcDbVertex
100
AcDb2dVertex
 10
1190.148071
 20
1010.500183
 30
0.0
  0
VERTEX
  5
2BE
100
AcDbEntity
  8
トラップ
  6
CONTINUOUS
 62
     6
100
AcDbVertex
100
AcDb2dVertex
 10
1190.265816
 20
1009.267953
 30
0.0
  0
VERTEX
  5
2BF
100
AcDbEntity
  8
トラップ
  6
CONTINUOUS
 62
     6
100
AcDbVertex
100
AcDb2dVertex
 10
1190.612257
 20
1008.107339
 30
0.0
  0
VERTEX
  5
2C0
100
AcDbEntity
  8
トラップ
  6
CONTINUOUS
 62
     6
100
AcDbVertex
100
AcDb2dVertex
 10
1191.167151
 20
1007.085786
 30
0.0
  0
VERTEX
  5
2C1
100
AcDbEntity
  8
トラップ
  6
CONTINUOUS
 62
     6
100
AcDbVertex
100
AcDb2dVertex
 10
1191.898382
 20
1006.262611
 30
0.0
  0
VERTEX
  5
2C2
100
AcDbEntity
  8
トラップ
  6
CONTINUOUS
 62
     6
100
AcDbVertex
100
AcDb2dVertex
 10
1192.763358
 20
1005.685718
 30
0.0
  0
VERTEX
  5
2C3
100
AcDbEntity
  8
トラップ
  6
CONTINUOUS
 62
     6
100
AcDbVertex
100
AcDb2dVertex
 10
1193.711789
 20
1005.388658
 30
0.0
  0
VERTEX
  5
2C4
100
AcDbEntity
  8
トラップ
  6
CONTINUOUS
 62
     6
100
AcDbVertex
100
AcDb2dVertex
 10
1194.688678
 20
1005.388658
 30
0.0
  0
VERTEX
  5
2C5
100
AcDbEntity
  8
トラップ
  6
CONTINUOUS
 62
     6
100
AcDbVertex
100
AcDb2dVertex
 10
1195.63718
 20
1005.685718
 30
0.0
  0
VERTEX
  5
2C6
100
AcDbEntity
  8
トラップ
  6
CONTINUOUS
 62
     6
100
AcDbVertex
100
AcDb2dVertex
 10
1196.502161
 20
1006.262611
 30
0.0
  0
VERTEX
  5
2C7
100
AcDbEntity
  8
トラップ
  6
CONTINUOUS
 62
     6
100
AcDbVertex
100
AcDb2dVertex
 10
1197.233393
 20
1007.085786
 30
0.0
  0
VERTEX
  5
2C8
100
AcDbEntity
  8
トラップ
  6
CONTINUOUS
 62
     6
100
AcDbVertex
100
AcDb2dVertex
 10
1197.788286
 20
1008.107339
 30
0.0
  0
VERTEX
  5
2C9
100
AcDbEntity
  8
トラップ
  6
CONTINUOUS
 62
     6
100
AcDbVertex
100
AcDb2dVertex
 10
1198.134728
 20
1009.267953
 30
0.0
  0
VERTEX
  5
2CA
100
AcDbEntity
  8
トラップ
  6
CONTINUOUS
 62
     6
100
AcDbVertex
100
AcDb2dVertex
 10
1198.252472
 20
1010.500183
 30
0.0
  0
SEQEND
  5
2CB
100
AcDbEntity
  8
トラップ
  6
CONTINUOUS
 62
     6
  0
POLYLINE
  5
2CC
100
AcDbEntity
  8
トラップ
  6
CONTINUOUS
 62
     6
100
AcDb2dPolyline
 66
     1
 10
0.0
 20
0.0
 30
0.0
 70
   128
  0
VERTEX
  5
2CD
100
AcDbEntity
  8
トラップ
  6
CONTINUOUS
 62
     6
100
AcDbVertex
100
AcDb2dVertex
 10
1198.252472
 20
1010.500183
 30
0.0
  0
VERTEX
  5
2CE
100
AcDbEntity
  8
トラップ
  6
CONTINUOUS
 62
     6
100
AcDbVertex
100
AcDb2dVertex
 10
1198.134728
 20
1011.732414
 30
0.0
  0
VERTEX
  5
2CF
100
AcDbEntity
  8
トラップ
  6
CONTINUOUS
 62
     6
100
AcDbVertex
100
AcDb2dVertex
 10
1197.788286
 20
1012.893027
 30
0.0
  0
VERTEX
  5
2D0
100
AcDbEntity
  8
トラップ
  6
CONTINUOUS
 62
     6
100
AcDbVertex
100
AcDb2dVertex
 10
1197.233393
 20
1013.91458
 30
0.0
  0
VERTEX
  5
2D1
100
AcDbEntity
  8
トラップ
  6
CONTINUOUS
 62
     6
100
AcDbVertex
100
AcDb2dVertex
 10
1196.502161
 20
1014.737755
 30
0.0
  0
VERTEX
  5
2D2
100
AcDbEntity
  8
トラップ
  6
CONTINUOUS
 62
     6
100
AcDbVertex
100
AcDb2dVertex
 10
1195.63718
 20
1015.314648
 30
0.0
  0
VERTEX
  5
2D3
100
AcDbEntity
  8
トラップ
  6
CONTINUOUS
 62
     6
100
AcDbVertex
100
AcDb2dVertex
 10
1194.688678
 20
1015.611708
 30
0.0
  0
VERTEX
  5
2D4
100
AcDbEntity
  8
トラップ
  6
CONTINUOUS
 62
     6
100
AcDbVertex
100
AcDb2dVertex
 10
1193.711789
 20
1015.611708
 30
0.0
  0
VERTEX
  5
2D5
100
AcDbEntity
  8
トラップ
  6
CONTINUOUS
 62
     6
100
AcDbVertex
100
AcDb2dVertex
 10
1192.763358
 20
1015.314648
 30
0.0
  0
VERTEX
  5
2D6
100
AcDbEntity
  8
トラップ
  6
CONTINUOUS
 62
     6
100
AcDbVertex
100
AcDb2dVertex
 10
1191.898382
 20
1014.737755
 30
0.0
  0
VERTEX
  5
2D7
100
AcDbEntity
  8
トラップ
  6
CONTINUOUS
 62
     6
100
AcDbVertex
100
AcDb2dVertex
 10
1191.167151
 20
1013.91458
 30
0.0
  0
VERTEX
  5
2D8
100
AcDbEntity
  8
トラップ
  6
CONTINUOUS
 62
     6
100
AcDbVertex
100
AcDb2dVertex
 10
1190.612257
 20
1012.893027
 30
0.0
  0
VERTEX
  5
2D9
100
AcDbEntity
  8
トラップ
  6
CONTINUOUS
 62
     6
100
AcDbVertex
100
AcDb2dVertex
 10
1190.265816
 20
1011.732414
 30
0.0
  0
VERTEX
  5
2DA
100
AcDbEntity
  8
トラップ
  6
CONTINUOUS
 62
     6
100
AcDbVertex
100
AcDb2dVertex
 10
1190.148071
 20
1010.500183
 30
0.0
  0
VERTEX
  5
2DB
100
AcDbEntity
  8
トラップ
  6
CONTINUOUS
 62
     6
100
AcDbVertex
100
AcDb2dVertex
 10
1190.265816
 20
1009.267953
 30
0.0
  0
VERTEX
  5
2DC
100
AcDbEntity
  8
トラップ
  6
CONTINUOUS
 62
     6
100
AcDbVertex
100
AcDb2dVertex
 10
1190.612257
 20
1008.107339
 30
0.0
  0
VERTEX
  5
2DD
100
AcDbEntity
  8
トラップ
  6
CONTINUOUS
 62
     6
100
AcDbVertex
100
AcDb2dVertex
 10
1191.167151
 20
1007.085786
 30
0.0
  0
VERTEX
  5
2DE
100
AcDbEntity
  8
トラップ
  6
CONTINUOUS
 62
     6
100
AcDbVertex
100
AcDb2dVertex
 10
1191.898382
 20
1006.262611
 30
0.0
  0
VERTEX
  5
2DF
100
AcDbEntity
  8
トラップ
  6
CONTINUOUS
 62
     6
100
AcDbVertex
100
AcDb2dVertex
 10
1192.763358
 20
1005.685718
 30
0.0
  0
VERTEX
  5
2E0
100
AcDbEntity
  8
トラップ
  6
CONTINUOUS
 62
     6
100
AcDbVertex
100
AcDb2dVertex
 10
1193.711789
 20
1005.388658
 30
0.0
  0
VERTEX
  5
2E1
100
AcDbEntity
  8
トラップ
  6
CONTINUOUS
 62
     6
100
AcDbVertex
100
AcDb2dVertex
 10
1194.688678
 20
1005.388658
 30
0.0
  0
VERTEX
  5
2E2
100
AcDbEntity
  8
トラップ
  6
CONTINUOUS
 62
     6
100
AcDbVertex
100
AcDb2dVertex
 10
1195.63718
 20
1005.685718
 30
0.0
  0
VERTEX
  5
2E3
100
AcDbEntity
  8
トラップ
  6
CONTINUOUS
 62
     6
100
AcDbVertex
100
AcDb2dVertex
 10
1196.502161
 20
1006.262611
 30
0.0
  0
VERTEX
  5
2E4
100
AcDbEntity
  8
トラップ
  6
CONTINUOUS
 62
     6
100
AcDbVertex
100
AcDb2dVertex
 10
1197.233393
 20
1007.085786
 30
0.0
  0
VERTEX
  5
2E5
100
AcDbEntity
  8
トラップ
  6
CONTINUOUS
 62
     6
100
AcDbVertex
100
AcDb2dVertex
 10
1197.788286
 20
1008.107339
 30
0.0
  0
VERTEX
  5
2E6
100
AcDbEntity
  8
トラップ
  6
CONTINUOUS
 62
     6
100
AcDbVertex
100
AcDb2dVertex
 10
1198.134728
 20
1009.267953
 30
0.0
  0
VERTEX
  5
2E7
100
AcDbEntity
  8
トラップ
  6
CONTINUOUS
 62
     6
100
AcDbVertex
100
AcDb2dVertex
 10
1198.252472
 20
1010.500183
 30
0.0
  0
SEQEND
  5
2E8
100
AcDbEntity
  8
トラップ
  6
CONTINUOUS
 62
     6
  0
LINE
  5
2E9
100
AcDbEntity
  8
トラップ
  6
CONTINUOUS
 62
     6
100
AcDbLine
 10
1195.752319
 20
1004.500122
 30
0.0
 11
1162.252564
 21
1004.500122
 31
0.0
  0
LINE
  5
2EA
100
AcDbEntity
  8
トラップ
  6
CONTINUOUS
 62
     6
100
AcDbLine
 10
1191.702484
 20
1016.500092
 30
0.0
 11
1191.702484
 21
1087.999878
 31
0.0
  0
LINE
  5
2EB
100
AcDbEntity
  8
トラップ
  6
CONTINUOUS
 62
     6
100
AcDbLine
 10
1166.302399
 20
1016.500092
 30
0.0
 11
1166.302399
 21
1087.999878
 31
0.0
  0
LINE
  5
2EC
100
AcDbEntity
  8
トラップ
  6
CONTINUOUS
 62
     6
100
AcDbLine
 10
1165.30249
 20
968.063355
 30
0.0
 11
1165.30249
 21
1001.699982
 31
0.0
  0
ARC
  5
2ED
100
AcDbEntity
  8
トラップ
  6
CONTINUOUS
 62
     6
100
AcDbCircle
 10
1164.002441
 20
1001.699982
 30
0.0
 40
1.3
100
AcDbArc
 50
0.0
 51
90.0
  0
ARC
  5
2EE
100
AcDbEntity
  8
トラップ
  6
CONTINUOUS
 62
     6
100
AcDbCircle
 10
1194.002441
 20
1001.699982
 30
0.0
 40
1.3
100
AcDbArc
 50
90.0
 51
180.0
  0
LINE
  5
2EF
100
AcDbEntity
  8
トラップ
  6
CONTINUOUS
 62
     6
100
AcDbLine
 10
1164.002441
 20
1003.000031
 30
0.0
 11
1194.002441
 21
1003.000031
 31
0.0
  0
LINE
  5
2F0
100
AcDbEntity
  8
トラップ
  6
CONTINUOUS
 62
     6
100
AcDbLine
 10
1194.002441
 20
1003.000031
 30
0.0
 11
1195.002503
 21
1004.000092
 31
0.0
  0
LINE
  5
2F1
100
AcDbEntity
  8
トラップ
  6
CONTINUOUS
 62
     6
100
AcDbLine
 10
1163.00238
 20
1004.000092
 30
0.0
 11
1164.002441
 21
1003.000031
 31
0.0
  0
LINE
  5
2F2
100
AcDbEntity
  8
トラップ
  6
CONTINUOUS
 62
     6
100
AcDbLine
 10
1165.30249
 20
966.035919
 30
0.0
 11
1165.30249
 21
1001.699982
 31
0.0
  0
LINE
  5
2F3
100
AcDbEntity
  8
トラップ
  6
CONTINUOUS
 62
     6
100
AcDbLine
 10
1192.702393
 20
966.035919
 30
0.0
 11
1192.702393
 21
1001.699982
 31
0.0
  0
LINE
  5
2F4
100
AcDbEntity
  8
トラップ
  6
CONTINUOUS
 62
     6
100
AcDbLine
 10
1194.002441
 20
1003.000031
 30
0.0
 11
1194.002441
 21
1004.500122
 31
0.0
  0
LINE
  5
2F5
100
AcDbEntity
  8
トラップ
  6
CONTINUOUS
 62
     6
100
AcDbLine
 10
1164.002441
 20
1003.000031
 30
0.0
 11
1164.002441
 21
1004.500122
 31
0.0
  0
ARC
  5
2F6
100
AcDbEntity
  8
トラップ
  6
CONTINUOUS
 62
     6
100
AcDbCircle
 10
1179.002441
 20
980.0
 30
0.0
 40
30.0
100
AcDbArc
 50
295.045166
 51
55.535034
  0
ARC
  5
2F7
100
AcDbEntity
  8
トラップ
  6
CONTINUOUS
 62
     6
100
AcDbCircle
 10
1179.002441
 20
980.0
 30
0.0
 40
30.0
100
AcDbArc
 50
124.464966
 51
244.954834
  0
LINE
  5
2F8
100
AcDbEntity
  8
トラップ
  6
CONTINUOUS
 62
     6
100
AcDbLine
 10
1191.199554
 20
2094.0
 30
0.0
 11
1165.799469
 21
2094.0
 31
0.0
  0
LINE
  5
2F9
100
AcDbEntity
  8
トラップ
  6
CONTINUOUS
 62
     6
100
AcDbLine
 10
1165.799469
 20
2064.0
 30
0.0
 11
1165.799469
 21
2094.0
 31
0.0
  0
LINE
  5
2FA
100
AcDbEntity
  8
トラップ
  6
CONTINUOUS
 62
     6
100
AcDbLine
 10
1191.199554
 20
2064.0
 30
0.0
 11
1191.199554
 21
2094.0
 31
0.0
  0
LINE
  5
2FB
100
AcDbEntity
  8
トラップ
  6
CONTINUOUS
 62
     6
100
AcDbLine
 10
1216.704002
 20
2130.467596
 30
0.0
 11
1294.8
 21
2130.467596
 31
0.0
  0
TEXT
  5
2FC
100
AcDbEntity
  8
トラップ
  6
CONTINUOUS
 62
     2
100
AcDbText
 10
1216.704002
 20
2133.967596
 30
0.0
 40
40.0
  1
２５
 41
0.861
  7
EXCADSTD
 72
     5
 11
1291.865202
 21
2133.967596
 31
0.0
100
AcDbText
  0
LINE
  5
2FD
100
AcDbEntity
  8
トラップ
  6
CONTINUOUS
 62
     6
100
AcDbLine
 10
1135.831416
 20
862.506621
 30
0.0
 11
907.0
 21
862.506621
 31
0.0
  0
TEXT
  5
2FE
100
AcDbEntity
  8
トラップ
  6
CONTINUOUS
 62
     2
100
AcDbText
 10
905.831416
 20
866.006621
 30
0.0
 40
40.0
  1
ＮＬ８１ＤＰ
 41
0.805
  7
EXCADSTD
 72
     5
 11
1135.831416
 21
866.006621
 31
0.0
100
AcDbText
  0
LINE
  5
2FF
100
AcDbEntity
  8
トラップ
  6
CONTINUOUS
 62
     6
100
AcDbLine
 10
1324.107944
 20
1449.211181
 30
0.0
 11
1455.0
 21
1449.211181
 31
0.0
  0
TEXT
  5
300
100
AcDbEntity
  8
トラップ
  6
CONTINUOUS
 62
     2
100
AcDbText
 10
1324.107944
 20
1452.711243
 30
0.0
 40
40.0
  1
ＰＪ
 41
0.861
  7
EXCADSTD
 72
     5
 11
1399.269144
 21
1452.711243
 31
0.0
100
AcDbText
  0
TEXT
  5
301
100
AcDbEntity
  8
トラップ
  6
CONTINUOUS
 62
     2
100
AcDbText
 10
1392.044406
 20
1466.822418
 30
0.0
 40
25.0
  1
１
 41
0.9912
  7
EXCADSTD
 72
     5
 11
1415.644406
 21
1466.822418
 31
0.0
100
AcDbText
  0
TEXT
  5
302
100
AcDbEntity
  8
トラップ
  6
CONTINUOUS
 62
     6
100
AcDbText
 10
1401.545444
 20
1452.711243
 30
0.0
 40
40.0
  1
／ 
 41
0.9912
  7
EXCADSTD
 72
     5
 11
1439.305442
 21
1452.711243
 31
0.0
100
AcDbText
  0
TEXT
  5
303
100
AcDbEntity
  8
トラップ
  6
CONTINUOUS
 62
     2
100
AcDbText
 10
1427.742801
 20
1454.923004
 30
0.0
 40
25.0
  1
２
 41
0.9912
  7
EXCADSTD
 72
     5
 11
1451.342801
 21
1454.923004
 31
0.0
100
AcDbText
  0
LINE
  5
304
100
AcDbEntity
  8
トラップ
  6
CONTINUOUS
 62
     6
100
AcDbLine
 10
1164.413947
 20
423.184953
 30
0.0
 11
1086.7
 21
423.184953
 31
0.0
  0
TEXT
  5
305
100
AcDbEntity
  8
トラップ
  6
CONTINUOUS
 62
     2
100
AcDbText
 10
1084.713948
 20
426.684953
 30
0.0
 40
40.0
  1
２５
 41
0.861
  7
EXCADSTD
 72
     5
 11
1159.875147
 21
426.684953
 31
0.0
100
AcDbText
  0
LINE
  5
306
100
AcDbEntity
  8
トラップ
  6
EXLTYPE4
 62
     6
100
AcDbLine
 10
1218.102393
 20
502.000027
 30
0.0
 11
1218.102393
 21
980.000043
 31
0.0
  0
LINE
  5
307
100
AcDbEntity
  8
トラップ
  6
EXLTYPE4
 62
     6
100
AcDbLine
 10
1192.702393
 20
502.000027
 30
0.0
 11
1192.702393
 21
965.499878
 31
0.0
  0
ARC
  5
308
100
AcDbEntity
  8
トラップ
  6
EXLTYPE2
 62
     6
100
AcDbCircle
 10
1205.402393
 20
980.000043
 30
0.0
 40
12.7
100
AcDbArc
 50
0.0
 51
180.0
  0
LINE
  5
309
100
AcDbEntity
  8
トラップ
  6
EXLTYPE2
 62
     6
100
AcDbLine
 10
1192.845925
 20
465.0
 30
0.0
 11
1218.245925
 21
465.0
 31
0.0
  0
ARC
  5
30A
100
AcDbEntity
  8
トラップ
  6
EXLTYPE2
 62
     6
100
AcDbCircle
 10
1221.545986
 20
488.00003
 30
0.0
 40
13.999996
100
AcDbArc
 50
0.0
 51
90.0
  0
ARC
  5
30B
100
AcDbEntity
  8
トラップ
  6
EXLTYPE2
 62
     6
100
AcDbCircle
 10
1189.545864
 20
488.00003
 30
0.0
 40
13.999996
100
AcDbArc
 50
90.0
 51
180.0
  0
LINE
  5
30C
100
AcDbEntity
  8
トラップ
  6
EXLTYPE2
 62
     6
100
AcDbLine
 10
1235.545925
 20
488.00003
 30
0.0
 11
1235.545925
 21
485.0
 31
0.0
  0
LINE
  5
30D
100
AcDbEntity
  8
トラップ
  6
EXLTYPE2
 62
     6
100
AcDbLine
 10
1175.545925
 20
488.00003
 30
0.0
 11
1175.545925
 21
485.0
 31
0.0
  0
LINE
  5
30E
100
AcDbEntity
  8
トラップ
  6
EXLTYPE2
 62
     6
100
AcDbLine
 10
1189.545864
 20
501.999969
 30
0.0
 11
1221.545986
 21
501.999969
 31
0.0
  0
LINE
  5
30F
100
AcDbEntity
  8
トラップ
  6
EXLTYPE2
 62
     6
100
AcDbLine
 10
1218.245925
 20
465.0
 30
0.0
 11
1218.245925
 21
485.0
 31
0.0
  0
LINE
  5
310
100
AcDbEntity
  8
トラップ
  6
EXLTYPE2
 62
     6
100
AcDbLine
 10
1192.845925
 20
465.0
 30
0.0
 11
1192.845925
 21
485.0
 31
0.0
  0
LINE
  5
311
100
AcDbEntity
  8
トラップ
  6
CONTINUOUS
 62
     6
100
AcDbLine
 10
1164.097435
 20
682.45476
 30
0.0
 11
934.399994
 21
682.45476
 31
0.0
  0
TEXT
  5
312
100
AcDbEntity
  8
トラップ
  6
CONTINUOUS
 62
     2
100
AcDbText
 10
934.097436
 20
685.95476
 30
0.0
 40
40.0
  1
ＮＬ８１ＤＳ
 41
0.805
  7
EXCADSTD
 72
     5
 11
1164.097435
 21
685.95476
 31
0.0
100
AcDbText
  0
TEXT
  5
313
100
AcDbEntity
  8
_2
  6
CONTINUOUS
 62
     2
100
AcDbText
 10
1434.194061
 20
875.5
 30
0.0
 40
40.0
  1
９１０
 50
90.0
 41
0.833
  7
EXCADSTD
 72
     5
 11
1434.194061
 21
994.5
 31
0.0
100
AcDbText
  0
LINE
  5
314
100
AcDbEntity
  8
_2
  6
CONTINUOUS
 62
     3
100
AcDbLine
 10
1437.694061
 20
1390.0
 30
0.0
 11
1437.694061
 21
480.0
 31
0.0
  0
LINE
  5
315
100
AcDbEntity
  8
_2
  6
CONTINUOUS
 62
     3
100
AcDbLine
 10
1443.527395
 20
1355.0
 30
0.0
 11
1437.694061
 21
1390.0
 31
0.0
  0
LINE
  5
316
100
AcDbEntity
  8
_2
  6
CONTINUOUS
 62
     3
100
AcDbLine
 10
1437.694061
 20
1390.0
 30
0.0
 11
1431.860728
 21
1355.0
 31
0.0
  0
LINE
  5
317
100
AcDbEntity
  8
_2
  6
CONTINUOUS
 62
     3
100
AcDbLine
 10
1431.860728
 20
515.0
 30
0.0
 11
1437.694061
 21
480.0
 31
0.0
  0
LINE
  5
318
100
AcDbEntity
  8
_2
  6
CONTINUOUS
 62
     3
100
AcDbLine
 10
1437.694061
 20
480.0
 30
0.0
 11
1443.527395
 21
515.0
 31
0.0
  0
TEXT
  5
319
100
AcDbEntity
  8
_2
  6
CONTINUOUS
 62
     2
100
AcDbText
 10
835.194061
 20
800.5
 30
0.0
 40
40.0
  1
７６０
 50
90.0
 41
0.833
  7
EXCADSTD
 72
     5
 11
835.194061
 21
919.5
 31
0.0
100
AcDbText
  0
LINE
  5
31A
100
AcDbEntity
  8
_2
  6
CONTINUOUS
 62
     3
100
AcDbLine
 10
838.694061
 20
1240.0
 30
0.0
 11
838.694061
 21
480.0
 31
0.0
  0
LINE
  5
31B
100
AcDbEntity
  8
_2
  6
CONTINUOUS
 62
     3
100
AcDbLine
 10
844.527395
 20
1205.0
 30
0.0
 11
838.694061
 21
1240.0
 31
0.0
  0
LINE
  5
31C
100
AcDbEntity
  8
_2
  6
CONTINUOUS
 62
     3
100
AcDbLine
 10
838.694061
 20
1240.0
 30
0.0
 11
832.860728
 21
1205.0
 31
0.0
  0
LINE
  5
31D
100
AcDbEntity
  8
_2
  6
CONTINUOUS
 62
     3
100
AcDbLine
 10
832.860728
 20
515.0
 30
0.0
 11
838.694061
 21
480.0
 31
0.0
  0
LINE
  5
31E
100
AcDbEntity
  8
_2
  6
CONTINUOUS
 62
     3
100
AcDbLine
 10
838.694061
 20
480.0
 30
0.0
 11
844.527395
 21
515.0
 31
0.0
  0
TEXT
  5
31F
100
AcDbEntity
  8
_2
  6
CONTINUOUS
 62
     2
100
AcDbText
 10
895.194061
 20
1050.5
 30
0.0
 40
40.0
  1
２６０
 50
90.0
 41
0.833
  7
EXCADSTD
 72
     5
 11
895.194061
 21
1169.5
 31
0.0
100
AcDbText
  0
LINE
  5
320
100
AcDbEntity
  8
_2
  6
CONTINUOUS
 62
     3
100
AcDbLine
 10
898.694061
 20
1240.0
 30
0.0
 11
898.694061
 21
980.0
 31
0.0
  0
LINE
  5
321
100
AcDbEntity
  8
_2
  6
CONTINUOUS
 62
     3
100
AcDbLine
 10
904.527395
 20
1205.0
 30
0.0
 11
898.694061
 21
1240.0
 31
0.0
  0
LINE
  5
322
100
AcDbEntity
  8
_2
  6
CONTINUOUS
 62
     3
100
AcDbLine
 10
898.694061
 20
1240.0
 30
0.0
 11
892.860728
 21
1205.0
 31
0.0
  0
LINE
  5
323
100
AcDbEntity
  8
_2
  6
CONTINUOUS
 62
     3
100
AcDbLine
 10
892.860728
 20
1015.0
 30
0.0
 11
898.694061
 21
980.0
 31
0.0
  0
LINE
  5
324
100
AcDbEntity
  8
_2
  6
CONTINUOUS
 62
     3
100
AcDbLine
 10
898.694061
 20
980.0
 30
0.0
 11
904.527395
 21
1015.0
 31
0.0
  0
TEXT
  5
325
100
AcDbEntity
  8
_2
  6
CONTINUOUS
 62
     2
100
AcDbText
 10
895.194061
 20
670.5
 30
0.0
 40
40.0
  1
５００
 50
90.0
 41
0.833
  7
EXCADSTD
 72
     5
 11
895.194061
 21
789.5
 31
0.0
100
AcDbText
  0
LINE
  5
326
100
AcDbEntity
  8
_2
  6
CONTINUOUS
 62
     3
100
AcDbLine
 10
898.694061
 20
480.0
 30
0.0
 11
898.694061
 21
980.0
 31
0.0
  0
LINE
  5
327
100
AcDbEntity
  8
_2
  6
CONTINUOUS
 62
     3
100
AcDbLine
 10
892.860728
 20
515.0
 30
0.0
 11
898.694061
 21
480.0
 31
0.0
  0
LINE
  5
328
100
AcDbEntity
  8
_2
  6
CONTINUOUS
 62
     3
100
AcDbLine
 10
898.694061
 20
480.0
 30
0.0
 11
904.527395
 21
515.0
 31
0.0
  0
LINE
  5
329
100
AcDbEntity
  8
_2
  6
CONTINUOUS
 62
     3
100
AcDbLine
 10
904.527395
 20
945.0
 30
0.0
 11
898.694061
 21
980.0
 31
0.0
  0
LINE
  5
32A
100
AcDbEntity
  8
_2
  6
CONTINUOUS
 62
     3
100
AcDbLine
 10
898.694061
 20
980.0
 30
0.0
 11
892.860728
 21
945.0
 31
0.0
  0
TEXT
  5
32B
100
AcDbEntity
  8
_2
  6
CONTINUOUS
 62
     2
100
AcDbText
 10
1316.501221
 20
803.5
 30
0.0
 40
40.0
  1
１１０
 41
0.833
  7
EXCADSTD
 72
     5
 11
1435.501221
 21
803.5
 31
0.0
100
AcDbText
  0
LINE
  5
32C
100
AcDbEntity
  8
_2
  6
CONTINUOUS
 62
     3
100
AcDbLine
 10
1134.002441
 20
800.0
 30
0.0
 11
1427.999996
 21
800.0
 31
0.0
  0
LINE
  5
32D
100
AcDbEntity
  8
_2
  6
CONTINUOUS
 62
     3
100
AcDbLine
 10
1144.002441
 20
794.166667
 30
0.0
 11
1179.002441
 21
800.0
 31
0.0
  0
LINE
  5
32E
100
AcDbEntity
  8
_2
  6
CONTINUOUS
 62
     3
100
AcDbLine
 10
1179.002441
 20
800.0
 30
0.0
 11
1144.002441
 21
805.833333
 31
0.0
  0
LINE
  5
32F
100
AcDbEntity
  8
_2
  6
CONTINUOUS
 62
     3
100
AcDbLine
 10
1324.0
 20
805.833333
 30
0.0
 11
1289.0
 21
800.0
 31
0.0
  0
LINE
  5
330
100
AcDbEntity
  8
_2
  6
CONTINUOUS
 62
     3
100
AcDbLine
 10
1289.0
 20
800.0
 30
0.0
 11
1324.0
 21
794.166667
 31
0.0
  0
LINE
  5
331
100
AcDbEntity
  8
_2
  6
CONTINUOUS
 62
     3
100
AcDbLine
 10
1299.0
 20
2064.0
 30
0.0
 11
1397.191132
 21
2064.0
 31
0.0
  0
LINE
  5
332
100
AcDbEntity
  8
_2
  6
CONTINUOUS
 62
     7
100
AcDbLine
 10
717.0
 20
480.0
 30
0.0
 11
1289.002441
 21
480.0
 31
0.0
  0
LINE
  5
333
100
AcDbEntity
  8
_2
  6
CONTINUOUS
 62
     3
100
AcDbLine
 10
1209.7
 20
1390.0
 30
0.0
 11
1230.6
 21
1390.0
 31
0.0
  0
LINE
  5
334
100
AcDbEntity
  8
_2
  6
CONTINUOUS
 62
     3
100
AcDbLine
 10
1242.6
 20
1390.0
 30
0.0
 11
1250.6
 21
1390.0
 31
0.0
  0
LINE
  5
335
100
AcDbEntity
  8
_2
  6
CONTINUOUS
 62
     3
100
AcDbLine
 10
1262.6
 20
1390.0
 30
0.0
 11
1457.694061
 21
1390.0
 31
0.0
  0
LINE
  5
336
100
AcDbEntity
  8
_2
  6
CONTINUOUS
 62
     3
100
AcDbLine
 10
1299.002441
 20
480.0
 30
0.0
 11
1457.694061
 21
480.0
 31
0.0
  0
LINE
  5
337
100
AcDbEntity
  8
_2
  6
CONTINUOUS
 62
     3
100
AcDbLine
 10
878.694061
 20
980.0
 30
0.0
 11
1169.002441
 21
980.0
 31
0.0
  0
LINE
  5
338
100
AcDbEntity
  8
_2
  6
CONTINUOUS
 62
     3
100
AcDbLine
 10
1176.002441
 20
980.0
 30
0.0
 11
1182.002441
 21
980.0
 31
0.0
  0
LINE
  5
339
100
AcDbEntity
  8
_2
  6
CONTINUOUS
 62
     3
100
AcDbLine
 10
1189.002441
 20
980.0
 30
0.0
 11
1229.002441
 21
980.0
 31
0.0
  0
TEXT
  5
33A
100
AcDbEntity
  8
器具明細表
  6
CONTINUOUS
 62
     2
100
AcDbText
 10
759.0
 20
2805.999695
 30
0.0
 40
60.0
  1
器具明細
 41
1.54
  7
EXCADSTD
 72
     5
 11
1199.0
 21
2805.999695
 31
0.0
100
AcDbText
  0
TEXT
  5
33B
100
AcDbEntity
  8
器具明細表
  6
CONTINUOUS
 62
     2
100
AcDbText
 10
804.0
 20
2735.999695
 30
0.0
 40
55.0
  1
品番
 41
1.527273
  7
EXCADSTD
 72
     5
 11
987.32
 21
2735.999695
 31
0.0
100
AcDbText
  0
TEXT
  5
33C
100
AcDbEntity
  8
器具明細表
  6
CONTINUOUS
 62
     2
100
AcDbText
 10
1119.0
 20
2735.999695
 30
0.0
 40
55.0
  1
品名
 41
1.374545
  7
EXCADSTD
 72
     5
 11
1283.988
 21
2735.999695
 31
0.0
100
AcDbText
  0
TEXT
  5
33D
100
AcDbEntity
  8
器具明細表
  6
CONTINUOUS
 62
     2
100
AcDbText
 10
1350.5
 20
2735.999695
 30
0.0
 40
55.0
  1
個数
 41
0.664364
  7
EXCADSTD
 72
     5
 11
1430.2442
 21
2735.999695
 31
0.0
100
AcDbText
  0
TEXT
  5
33E
100
AcDbEntity
  8
器具明細表
  6
CONTINUOUS
 62
     2
100
AcDbText
 10
743.0
 20
2673.499695
 30
0.0
 40
50.0
  1
Ｌ９１Ｄ
 41
0.6552
  7
EXCADSTD
 72
     5
 11
899.0
 21
2673.499695
 31
0.0
100
AcDbText
  0
TEXT
  5
33F
100
AcDbEntity
  8
器具明細表
  6
CONTINUOUS
 62
     2
100
AcDbText
 10
743.0
 20
2543.499695
 30
0.0
 40
50.0
  1
ＮＬ８１ＤＰ
 41
0.644
  7
EXCADSTD
 72
     5
 11
972.999999
 21
2543.499695
 31
0.0
100
AcDbText
  0
TEXT
  5
340
100
AcDbEntity
  8
器具明細表
  6
CONTINUOUS
 62
     2
100
AcDbText
 10
1073.0
 20
2673.499695
 30
0.0
 40
50.0
  1
手洗器
 41
0.6664
  7
EXCADSTD
 72
     5
 11
1192.0
 21
2673.499695
 31
0.0
100
AcDbText
  0
TEXT
  5
341
100
AcDbEntity
  8
器具明細表
  6
CONTINUOUS
 62
     2
100
AcDbText
 10
1073.0
 20
2608.499695
 30
0.0
 40
50.0
  1
衛生水栓
 41
0.6552
  7
EXCADSTD
 72
     5
 11
1229.0
 21
2608.499695
 31
0.0
100
AcDbText
  0
TEXT
  5
342
100
AcDbEntity
  8
器具明細表
  6
CONTINUOUS
 62
     2
100
AcDbText
 10
1073.0
 20
2543.499695
 30
0.0
 40
50.0
  1
Ｐトラップ
 41
0.64848
  7
EXCADSTD
 72
     5
 11
1266.0
 21
2543.499695
 31
0.0
100
AcDbText
  0
TEXT
  5
343
100
AcDbEntity
  8
器具明細表
  6
CONTINUOUS
 62
     2
100
AcDbText
 10
1073.0
 20
2478.499695
 30
0.0
 40
50.0
  1
化粧頭付木ねじ
 41
0.6408
  7
EXCADSTD
 72
     5
 11
1339.999999
 21
2478.499695
 31
0.0
100
AcDbText
  0
TEXT
  5
344
100
AcDbEntity
  8
器具明細表
  6
CONTINUOUS
 62
     2
100
AcDbText
 10
1371.5
 20
2675.999695
 30
0.0
 40
45.0
  1
１
 41
0.84
  7
EXCADSTD
 72
     5
 11
1407.5
 21
2675.999695
 31
0.0
100
AcDbText
  0
TEXT
  5
345
100
AcDbEntity
  8
器具明細表
  6
CONTINUOUS
 62
     2
100
AcDbText
 10
1371.5
 20
2610.999695
 30
0.0
 40
45.0
  1
１
 41
0.84
  7
EXCADSTD
 72
     5
 11
1407.5
 21
2610.999695
 31
0.0
100
AcDbText
  0
TEXT
  5
346
100
AcDbEntity
  8
器具明細表
  6
CONTINUOUS
 62
     2
100
AcDbText
 10
1371.5
 20
2545.999695
 30
0.0
 40
45.0
  1
１
 41
0.84
  7
EXCADSTD
 72
     5
 11
1407.5
 21
2545.999695
 31
0.0
100
AcDbText
  0
LINE
  5
347
100
AcDbEntity
  8
器具明細表
  6
CONTINUOUS
 62
     6
100
AcDbLine
 10
739.0
 20
2795.999695
 30
0.0
 11
1439.0
 21
2795.999695
 31
0.0
  0
LINE
  5
348
100
AcDbEntity
  8
器具明細表
  6
CONTINUOUS
 62
     6
100
AcDbLine
 10
1439.0
 20
2730.999695
 30
0.0
 11
739.0
 21
2730.999695
 31
0.0
  0
LINE
  5
349
100
AcDbEntity
  8
器具明細表
  6
CONTINUOUS
 62
     6
100
AcDbLine
 10
739.0
 20
2665.999695
 30
0.0
 11
1439.0
 21
2665.999695
 31
0.0
  0
LINE
  5
34A
100
AcDbEntity
  8
器具明細表
  6
CONTINUOUS
 62
     6
100
AcDbLine
 10
1439.0
 20
2600.999695
 30
0.0
 11
739.0
 21
2600.999695
 31
0.0
  0
LINE
  5
34B
100
AcDbEntity
  8
器具明細表
  6
CONTINUOUS
 62
     6
100
AcDbLine
 10
739.0
 20
2535.999695
 30
0.0
 11
1439.0
 21
2535.999695
 31
0.0
  0
LINE
  5
34C
100
AcDbEntity
  8
器具明細表
  6
CONTINUOUS
 62
     6
100
AcDbLine
 10
1439.0
 20
2470.999695
 30
0.0
 11
739.0
 21
2470.999695
 31
0.0
  0
LINE
  5
34D
100
AcDbEntity
  8
器具明細表
  6
CONTINUOUS
 62
     6
100
AcDbLine
 10
739.0
 20
2470.999695
 30
0.0
 11
739.0
 21
2795.999695
 31
0.0
  0
LINE
  5
34E
100
AcDbEntity
  8
器具明細表
  6
CONTINUOUS
 62
     6
100
AcDbLine
 10
1069.0
 20
2795.999695
 30
0.0
 11
1069.0
 21
2470.999695
 31
0.0
  0
LINE
  5
34F
100
AcDbEntity
  8
器具明細表
  6
CONTINUOUS
 62
     6
100
AcDbLine
 10
1349.0
 20
2470.999695
 30
0.0
 11
1349.0
 21
2795.999695
 31
0.0
  0
LINE
  5
350
100
AcDbEntity
  8
器具明細表
  6
CONTINUOUS
 62
     6
100
AcDbLine
 10
1439.0
 20
2795.999695
 30
0.0
 11
1439.0
 21
2470.999695
 31
0.0
  0
LINE
  5
351
100
AcDbEntity
  8
器具明細表
  6
CONTINUOUS
 62
     6
100
AcDbLine
 10
739.0
 20
2341.0
 30
0.0
 11
1439.0
 21
2341.0
 31
0.0
  0
LINE
  5
352
100
AcDbEntity
  8
器具明細表
  6
CONTINUOUS
 62
     6
100
AcDbLine
 10
739.0
 20
2405.999695
 30
0.0
 11
1439.0
 21
2405.999695
 31
0.0
  0
TEXT
  5
353
100
AcDbEntity
  8
器具明細表
  6
CONTINUOUS
 62
     2
100
AcDbText
 10
1374.0
 20
2348.46582
 30
0.0
 40
47.5
  1
１
 41
0.834695
  7
EXCADSTD
 72
     5
 11
1411.759998
 21
2348.46582
 31
0.0
100
AcDbText
  0
LINE
  5
354
100
AcDbEntity
  8
器具明細表
  6
CONTINUOUS
 62
     6
100
AcDbLine
 10
739.0
 20
2405.999695
 30
0.0
 11
739.0
 21
2341.0
 31
0.0
  0
LINE
  5
355
100
AcDbEntity
  8
器具明細表
  6
CONTINUOUS
 62
     6
100
AcDbLine
 10
1069.0
 20
2405.999695
 30
0.0
 11
1069.0
 21
2341.0
 31
0.0
  0
LINE
  5
356
100
AcDbEntity
  8
器具明細表
  6
CONTINUOUS
 62
     6
100
AcDbLine
 10
1349.0
 20
2405.999695
 30
0.0
 11
1349.0
 21
2341.0
 31
0.0
  0
LINE
  5
357
100
AcDbEntity
  8
器具明細表
  6
CONTINUOUS
 62
     6
100
AcDbLine
 10
1439.0
 20
2405.999695
 30
0.0
 11
1439.0
 21
2341.0
 31
0.0
  0
TEXT
  5
358
100
AcDbEntity
  8
器具明細表
  6
CONTINUOUS
 62
     2
100
AcDbText
 10
1072.918457
 20
2346.778503
 30
0.0
 40
50.0
  1
Ｓトラップ
 41
0.64848
  7
EXCADSTD
 72
     5
 11
1265.918457
 21
2346.778503
 31
0.0
100
AcDbText
  0
TEXT
  5
359
100
AcDbEntity
  8
器具明細表
  6
CONTINUOUS
 62
     2
100
AcDbText
 10
741.983856
 20
2348.479248
 30
0.0
 40
50.0
  1
ＮＬ８１ＤＳ
 41
0.7
  7
EXCADSTD
 72
     5
 11
991.983856
 21
2348.479248
 31
0.0
100
AcDbText
  0
TEXT
  5
35A
100
AcDbEntity
  8
器具明細表
  6
CONTINUOUS
 62
     2
100
AcDbText
 10
741.983856
 20
2413.479858
 30
0.0
 40
50.0
  1
Ｓトラップの場合
 41
0.693
  7
EXCADSTD
 72
     5
 11
1071.983856
 21
2413.479858
 31
0.0
100
AcDbText
  0
TEXT
  5
35B
100
AcDbEntity
  8
器具明細表
  6
CONTINUOUS
 62
     2
100
AcDbText
 10
743.0
 20
2608.499695
 30
0.0
 40
50.0
  1
ＮＬ１５
 41
0.6552
  7
EXCADSTD
 72
     5
 11
899.0
 21
2608.499695
 31
0.0
100
AcDbText
  0
TEXT
  5
35C
100
AcDbEntity
  8
器具明細表
  6
CONTINUOUS
 62
     2
100
AcDbText
 10
1371.5
 20
2480.999695
 30
0.0
 40
45.0
  1
１
 41
0.84
  7
EXCADSTD
 72
     5
 11
1407.5
 21
2480.999695
 31
0.0
100
AcDbText
  0
TEXT
  5
35D
100
AcDbEntity
  8
器具明細表
  6
CONTINUOUS
 62
     2
100
AcDbText
 10
743.0
 20
2478.499695
 30
0.0
 40
50.0
  1
ＮＴ７Ａ（２）
 41
0.6408
  7
EXCADSTD
 72
     5
 11
1009.999999
 21
2478.499695
 31
0.0
100
AcDbText
  0
ENDSEC
  0
SECTION
  2
OBJECTS
  0
DICTIONARY
  5
19
100
AcDbDictionary
  3
ACAD_GROUP
350
1A
  3
ACAD_MLINESTYLE
350
1B
  0
DICTIONARY
  5
1A
102
{ACAD_REACTORS
330
19
102
}
100
AcDbDictionary
  0
DICTIONARY
  5
1B
102
{ACAD_REACTORS
330
19
102
}
100
AcDbDictionary
  3
STANDARD
350
1C
  0
MLINESTYLE
  5
1C
102
{ACAD_REACTORS
330
1B
102
}
100
AcDbMlineStyle
  2
Standard
 70
     0
  3

 62
     0
 51
90.0
 52
90.0
 71
     2
 49
0.5
 62
   256
  6
ByLayer
 49
-0.5
 62
   256
  6
ByLayer
  0
ENDSEC
  0
EOF
