  0
SECTION
  2
HEADER
  9
$ACADVER
  1
AC1014
  9
$ACADMAINTVER
 70
     0
  9
$DWGCODEPAGE
  3
ANSI_932
  9
$INSBASE
 10
0.0
 20
0.0
 30
0.0
  9
$EXTMIN
 10
-2.1
 20
10.1
 30
0.0
  9
$EXTMAX
 10
330.9
 20
291.5
 30
0.0
  9
$LIMMIN
 10
0.0
 20
0.0
  9
$LIMMAX
 10
210.0
 20
297.0
  9
$ORTHOMODE
 70
     0
  9
$REGENMODE
 70
     1
  9
$FILLMODE
 70
     1
  9
$QTEXTMODE
 70
     0
  9
$MIRRTEXT
 70
     1
  9
$DRAGMODE
 70
     2
  9
$LTSCALE
 40
1.0
  9
$OSMODE
 70
     0
  9
$ATTMODE
 70
     1
  9
$TEXTSIZE
 40
0.2
  9
$TRACEWID
 40
0.05
  9
$TEXTSTYLE
  7
STANDARD
  9
$CLAYER
  8
洗面器
  9
$CELTYPE
  6
CONTINUOUS
  9
$CECOLOR
 62
   256
  9
$CELTSCALE
 40
1.0
  9
$DELOBJ
 70
     1
  9
$DISPSILH
 70
     0
  9
$DIMSCALE
 40
1.0
  9
$DIMASZ
 40
0.18
  9
$DIMEXO
 40
0.0625
  9
$DIMDLI
 40
0.38
  9
$DIMRND
 40
0.0
  9
$DIMDLE
 40
0.0
  9
$DIMEXE
 40
0.18
  9
$DIMTP
 40
0.0
  9
$DIMTM
 40
0.0
  9
$DIMTXT
 40
0.18
  9
$DIMCEN
 40
0.09
  9
$DIMTSZ
 40
0.0
  9
$DIMTOL
 70
     0
  9
$DIMLIM
 70
     0
  9
$DIMTIH
 70
     1
  9
$DIMTOH
 70
     1
  9
$DIMSE1
 70
     0
  9
$DIMSE2
 70
     0
  9
$DIMTAD
 70
     0
  9
$DIMZIN
 70
     0
  9
$DIMBLK
  1

  9
$DIMASO
 70
     1
  9
$DIMSHO
 70
     1
  9
$DIMPOST
  1

  9
$DIMAPOST
  1

  9
$DIMALT
 70
     0
  9
$DIMALTD
 70
     2
  9
$DIMALTF
 40
25.4
  9
$DIMLFAC
 40
1.0
  9
$DIMTOFL
 70
     0
  9
$DIMTVP
 40
0.0
  9
$DIMTIX
 70
     0
  9
$DIMSOXD
 70
     0
  9
$DIMSAH
 70
     0
  9
$DIMBLK1
  1

  9
$DIMBLK2
  1

  9
$DIMSTYLE
  2
STANDARD
  9
$DIMCLRD
 70
     0
  9
$DIMCLRE
 70
     0
  9
$DIMCLRT
 70
     0
  9
$DIMTFAC
 40
1.0
  9
$DIMGAP
 40
0.09
  9
$DIMJUST
 70
     0
  9
$DIMSD1
 70
     0
  9
$DIMSD2
 70
     0
  9
$DIMTOLJ
 70
     1
  9
$DIMTZIN
 70
     0
  9
$DIMALTZ
 70
     0
  9
$DIMALTTZ
 70
     0
  9
$DIMFIT
 70
     3
  9
$DIMUPT
 70
     0
  9
$DIMUNIT
 70
     2
  9
$DIMDEC
 70
     4
  9
$DIMTDEC
 70
     4
  9
$DIMALTU
 70
     2
  9
$DIMALTTD
 70
     2
  9
$DIMTXSTY
  7
STANDARD
  9
$DIMAUNIT
 70
     0
  9
$LUNITS
 70
     2
  9
$LUPREC
 70
     4
  9
$SKETCHINC
 40
0.1
  9
$FILLETRAD
 40
0.0
  9
$AUNITS
 70
     0
  9
$AUPREC
 70
     0
  9
$MENU
  1
acad
  9
$ELEVATION
 40
0.0
  9
$PELEVATION
 40
0.0
  9
$THICKNESS
 40
0.0
  9
$LIMCHECK
 70
     0
  9
$BLIPMODE
 70
     1
  9
$CHAMFERA
 40
0.0
  9
$CHAMFERB
 40
0.0
  9
$CHAMFERC
 40
0.0
  9
$CHAMFERD
 40
0.0
  9
$SKPOLY
 70
     0
  9
$TDCREATE
 40
2456675.716946030
  9
$TDUPDATE
 40
2456675.716946030
  9
$TDINDWG
 40
0.0000000000
  9
$TDUSRTIMER
 40
0.0000000000
  9
$USRTIMER
 70
     1
  9
$ANGBASE
 50
0.0
  9
$ANGDIR
 70
     0
  9
$PDMODE
 70
     0
  9
$PDSIZE
 40
0.0
  9
$PLINEWID
 40
0.0
  9
$COORDS
 70
     1
  9
$SPLFRAME
 70
     0
  9
$SPLINETYPE
 70
     6
  9
$SPLINESEGS
 70
     8
  9
$ATTDIA
 70
     0
  9
$ATTREQ
 70
     1
  9
$HANDLING
 70
     1
  9
$HANDSEED
  5
62C
  9
$SURFTAB1
 70
     6
  9
$SURFTAB2
 70
     6
  9
$SURFTYPE
 70
     6
  9
$SURFU
 70
     6
  9
$SURFV
 70
     6
  9
$UCSNAME
  2

  9
$UCSORG
 10
0.0
 20
0.0
 30
0.0
  9
$UCSXDIR
 10
1.0
 20
0.0
 30
0.0
  9
$UCSYDIR
 10
0.0
 20
1.0
 30
0.0
  9
$PUCSNAME
  2

  9
$PUCSORG
 10
0.0
 20
0.0
 30
0.0
  9
$PUCSXDIR
 10
1.0
 20
0.0
 30
0.0
  9
$PUCSYDIR
 10
0.0
 20
1.0
 30
0.0
  9
$USERI1
 70
     0
  9
$USERI2
 70
     0
  9
$USERI3
 70
     0
  9
$USERI4
 70
     0
  9
$USERI5
 70
     0
  9
$USERR1
 40
0.0
  9
$USERR2
 40
0.0
  9
$USERR3
 40
0.0
  9
$USERR4
 40
0.0
  9
$USERR5
 40
0.0
  9
$WORLDVIEW
 70
     1
  9
$SHADEDGE
 70
     3
  9
$SHADEDIF
 70
    70
  9
$TILEMODE
 70
     1
  9
$MAXACTVP
 70
    16
  9
$PINSBASE
 10
0.0
 20
0.0
 30
0.0
  9
$PLIMCHECK
 70
     0
  9
$PEXTMIN
 10
1.000000E+20
 20
1.000000E+20
 30
1.000000E+20
  9
$PEXTMAX
 10
-1.000000E+20
 20
-1.000000E+20
 30
-1.000000E+20
  9
$PLIMMIN
 10
0.0
 20
0.0
  9
$PLIMMAX
 10
12.0
 20
9.0
  9
$UNITMODE
 70
     0
  9
$VISRETAIN
 70
     0
  9
$PLINEGEN
 70
     1
  9
$PSLTSCALE
 70
     0
  9
$TREEDEPTH
 70
  3020
  9
$PICKSTYLE
 70
     1
  9
$CMLSTYLE
  2
Standard
  9
$CMLJUST
 70
     0
  9
$CMLSCALE
 40
1.0
  9
$PROXYGRAPHICS
 70
     0
  9
$MEASUREMENT
 70
     0
  0
ENDSEC
  0
SECTION
  2
CLASSES
  0
CLASS
  1
LWPOLYLINE
  2
AcDbPolyline
  3
"AutoCAD"
 90
        0
280
     0
281
     1
  0
CLASS
  1
IMAGE
  2
AcDbRasterImage
  3
ISM
 90
      127
280
     0
281
     1
  0
CLASS
  1
OLE2FRAME
  2
AcDbOle2Frame
  3
""
 90
        0
280
     0
281
     1
  0
CLASS
  1
HATCH
  2
AcDbHatch
  3
"ACAD_SEDONA"
 90
        0
280
     0
281
     1
  0
CLASS
  1
DICTIONARYVAR
  2
AcDbDictionaryVar
  3
"AutoCAD"
 90
        0
280
     0
281
     0
  0
CLASS
  1
RASTERVARIABLES
  2
AcDbRasterVariables
  3
ISM
 90
        0
280
     0
281
     0
  0
CLASS
  1
IMAGEDEF
  2
AcDbRasterImageDef
  3
ISM
 90
        0
280
     0
281
     0
  0
CLASS
  1
IMAGEDEF_REACTOR
  2
AcDbRasterImageDefReactor
  3
ISM
 90
        1
280
     0
281
     0
  0
CLASS
  1
IDBUFFER
  2
AcDbIdBuffer
  3
"Acad"
 90
        0
280
     0
281
     0
  0
CLASS
  1
SPATIAL_FILTER
  2
AcDbSpatialFilter
  3
"Acad"
 90
        0
280
     0
281
     0
  0
CLASS
  1
XRECORD
  2
AcDbXrecord
  3
"<Built In>"
 90
        0
280
     0
281
     0
  0
CLASS
  1
SORTENTSTABLE
  2
AcDbSortentsTable
  3
"AutoCAD"
 90
        0
280
     0
281
     0
  0
CLASS
  1
LAYER_INDEX
  2
AcDbLayerIndex
  3
"Acad"
 90
        0
280
     0
281
     0
  0
CLASS
  1
SPATIAL_INDEX
  2
AcDbSpatialIndex
  3
"Acad"
 90
        0
280
     0
281
     0
  0
CLASS
  1
OBJECT_PTR
  2
CAseDLPNTableRecord
  3
"ASE-LPNTableRecord"
 90
        1
280
     0
281
     0
  0
CLASS
  1
LAYOUT
  2
AcDbLayout
  3
"AutoCAD 2000"
 90
        1
280
     0
281
     0
  0
CLASS
  1
PLOTSETTINGS
  2
AcDbPlotSettings
  3
"AutoCAD 2000"
 90
        1
280
     0
281
     0
  0
CLASS
  1
ACDBDICTIONARYWDFLT
  2
AcDbDictionaryWithDefault
  3
"AutoCAD 2000"
 90
        1
280
     0
281
     0
  0
CLASS
  1
ACDBPLACEHOLDER
  2
AcDbPlaceHolder
  3
"AutoCAD 2000"
 90
        1
280
     0
281
     0
  0
CLASS
  1
VBA_PROJECT
  2
AcDbVbaProject
  3
"acadvba"
 90
        1
280
     0
281
     0
  0
CLASS
  1
WIPEOUT
  2
AcDbWipeout
  3
WipeOut|AutoCAD Express Tool|expresstools@autodesk.com
 90
      127
280
     0
281
     1
  0
CLASS
  1
WIPEOUTVARIABLES
  2
AcDbWipeoutVariables
  3
WipeOut|AutoCAD Express Tool|expresstools@autodesk.com
 90
        0
280
     0
281
     0
  0
CLASS
  1
RTEXT
  2
RText
  3
RText|AutoCAD Express Tool|expresstools@autodesk.com
 90
        0
280
     0
281
     1
  0
CLASS
  1
ARCALIGNEDTEXT
  2
AcDbArcAlignedText
  3
ATEXT|AutoCAD Express Tool|expresstools@autodesk.com
 90
        0
280
     0
281
     1
  0
ENDSEC
  0
SECTION
  2
TABLES
  0
TABLE
  2
VPORT
  5
7
100
AcDbSymbolTable
 70
     1
  0
VPORT
  5
15
100
AcDbSymbolTableRecord
100
AcDbViewportTableRecord
  2
*ACTIVE
 70
     0
 10
0.0
 20
0.0
 11
1.0
 21
1.0
 12
1644.0
 22
1508.0
 13
0.0
 23
0.0
 14
1.0
 24
1.0
 15
0.0
 25
0.0
 16
0.0
 26
0.0
 36
1.0
 17
0.0
 27
0.0
 37
0.0
 40
2814.0
 41
1.722533
 42
50.0
 43
0.0
 44
0.0
 50
0.0
 51
0.0
 71
     0
 72
   100
 73
     1
 74
     1
 75
     0
 76
     0
 77
     0
 78
     0
  0
ENDTAB
  0
TABLE
  2
LTYPE
  5
4
100
AcDbSymbolTable
 70
     9
  0
LTYPE
  5
11
100
AcDbSymbolTableRecord
100
AcDbLinetypeTableRecord
  2
BYBLOCK
 70
    64
  3

 72
    65
 73
     0
 40
0.0
  0
LTYPE
  5
12
100
AcDbSymbolTableRecord
100
AcDbLinetypeTableRecord
  2
BYLAYER
 70
    64
  3

 72
    65
 73
     0
 40
0.0
  0
LTYPE
  5
13
100
AcDbSymbolTableRecord
100
AcDbLinetypeTableRecord
  2
CONTINUOUS
 70
    64
  3
実線
 72
    65
 73
     0
 40
0.0
  0
LTYPE
  5
1D
100
AcDbSymbolTableRecord
100
AcDbLinetypeTableRecord
  2
EXLTYPE1
 70
    64
  3
破線
 72
    65
 73
     2
 40
3.0
 49
2.0
 74
     0
 49
-1.0
 74
     0
  0
LTYPE
  5
1E
100
AcDbSymbolTableRecord
100
AcDbLinetypeTableRecord
  2
EXLTYPE2
 70
    64
  3
点線
 72
    65
 73
     2
 40
2.0
 49
1.0
 74
     0
 49
-1.0
 74
     0
  0
LTYPE
  5
1F
100
AcDbSymbolTableRecord
100
AcDbLinetypeTableRecord
  2
EXLTYPE3
 70
    64
  3
一点鎖線
 72
    65
 73
     4
 40
10.0
 49
7.0
 74
     0
 49
-1.0
 74
     0
 49
1.0
 74
     0
 49
-1.0
 74
     0
  0
LTYPE
  5
20
100
AcDbSymbolTableRecord
100
AcDbLinetypeTableRecord
  2
EXLTYPE4
 70
    64
  3
二点鎖線
 72
    65
 73
     6
 40
12.0
 49
7.0
 74
     0
 49
-1.0
 74
     0
 49
1.0
 74
     0
 49
-1.0
 74
     0
 49
1.0
 74
     0
 49
-1.0
 74
     0
  0
LTYPE
  5
21
100
AcDbSymbolTableRecord
100
AcDbLinetypeTableRecord
  2
EXLTYPE5
 70
    64
  3
三点鎖線
 72
    65
 73
     8
 40
37.0
 49
30.0
 74
     0
 49
-1.0
 74
     0
 49
1.0
 74
     0
 49
-1.0
 74
     0
 49
1.0
 74
     0
 49
-1.0
 74
     0
 49
1.0
 74
     0
 49
-1.0
 74
     0
  0
LTYPE
  5
22
100
AcDbSymbolTableRecord
100
AcDbLinetypeTableRecord
  2
EXLTYPE6
 70
    64
  3
四点鎖線
 72
    65
 73
    10
 40
39.0
 49
30.0
 74
     0
 49
-1.0
 74
     0
 49
1.0
 74
     0
 49
-1.0
 74
     0
 49
1.0
 74
     0
 49
-1.0
 74
     0
 49
1.0
 74
     0
 49
-1.0
 74
     0
 49
1.0
 74
     0
 49
-1.0
 74
     0
  0
ENDTAB
  0
TABLE
  2
LAYER
  5
2
100
AcDbSymbolTable
 70
     8
  0
LAYER
  5
14
100
AcDbSymbolTableRecord
100
AcDbLayerTableRecord
  2
0
 70
     0
 62
     7
  6
CONTINUOUS
  0
LAYER
  5
25
100
AcDbSymbolTableRecord
100
AcDbLayerTableRecord
  2
枠_
 70
    64
 62
     7
  6
CONTINUOUS
  0
LAYER
  5
26
100
AcDbSymbolTableRecord
100
AcDbLayerTableRecord
  2
洗面器
 70
    64
 62
     7
  6
CONTINUOUS
  0
LAYER
  5
27
100
AcDbSymbolTableRecord
100
AcDbLayerTableRecord
  2
水栓
 70
    64
 62
     7
  6
CONTINUOUS
  0
LAYER
  5
28
100
AcDbSymbolTableRecord
100
AcDbLayerTableRecord
  2
止水栓
 70
    64
 62
     7
  6
CONTINUOUS
  0
LAYER
  5
29
100
AcDbSymbolTableRecord
100
AcDbLayerTableRecord
  2
トラップ
 70
    64
 62
     7
  6
CONTINUOUS
  0
LAYER
  5
2A
100
AcDbSymbolTableRecord
100
AcDbLayerTableRecord
  2
寸法
 70
    64
 62
     7
  6
CONTINUOUS
  0
LAYER
  5
2B
100
AcDbSymbolTableRecord
100
AcDbLayerTableRecord
  2
器具明細表
 70
    64
 62
     7
  6
CONTINUOUS
  0
ENDTAB
  0
TABLE
  2
STYLE
  5
3
100
AcDbSymbolTable
 70
     4
  0
STYLE
  5
17
100
AcDbSymbolTableRecord
100
AcDbTextStyleTableRecord
  2
STANDARD
 70
     0
 40
0.0
 41
1.0
 50
0.0
 71
     0
 42
0.0
  3
monotxt
  4
extfont
  0
STYLE
  5
23
100
AcDbSymbolTableRecord
100
AcDbTextStyleTableRecord
  2
EXCADSTD
 70
    64
 40
0.0
 41
1.0
 50
0.0
 71
     0
 42
0.2
  3
monotxt
  4
extfont
  0
STYLE
  5
24
100
AcDbSymbolTableRecord
100
AcDbTextStyleTableRecord
  2
EXCADVERT
 70
    68
 40
0.0
 41
1.0
 50
0.0
 71
     0
 42
0.286885
  3
monotxt
  4
extfont
  0
STYLE
  5
B3
100
AcDbSymbolTableRecord
100
AcDbTextStyleTableRecord
  2
EXCADTTF1
 70
    64
 40
0.0
 41
1.0
 50
0.0
 71
     0
 42
0.2
  3
MS Gothic.ttf
  4

1001
ACAD
1000
MS Gothic
1071
    32817
  0
ENDTAB
  0
TABLE
  2
VIEW
  5
5
100
AcDbSymbolTable
 70
     0
  0
ENDTAB
  0
TABLE
  2
UCS
  5
6
100
AcDbSymbolTable
 70
     0
  0
ENDTAB
  0
TABLE
  2
APPID
  5
8
100
AcDbSymbolTable
 70
     1
  0
APPID
  5
16
100
AcDbSymbolTableRecord
100
AcDbRegAppTableRecord
  2
ACAD
 70
     0
  0
ENDTAB
  0
TABLE
  2
DIMSTYLE
  5
9
100
AcDbSymbolTable
 70
     1
  0
DIMSTYLE
105
18
100
AcDbSymbolTableRecord
100
AcDbDimStyleTableRecord
  2
STANDARD
 70
     0
  3

  4

  5

  6

  7

 40
1.0
 41
0.18
 42
0.0625
 43
0.38
 44
0.18
 45
0.0
 46
0.0
 47
0.0
 48
0.0
 71
     0
 72
     0
 73
     1
 74
     1
 75
     0
 76
     0
 77
     0
 78
     0
140
0.18
141
0.09
142
0.0
143
25.4
144
1.0
145
0.0
146
1.0
147
0.09
170
     0
171
     2
172
     1
173
     0
174
     0
175
     0
176
     0
177
     0
178
     0
270
     2
271
     4
272
     4
273
     2
274
     2
275
     0
280
     0
281
     0
282
     0
283
     1
284
     0
285
     0
286
     0
287
     0
288
     0
340
17
  0
ENDTAB
  0
TABLE
  2
BLOCK_RECORD
  5
1
100
AcDbSymbolTable
 70
    15
  0
BLOCK_RECORD
  5
A
100
AcDbSymbolTableRecord
100
AcDbBlockTableRecord
  2
*MODEL_SPACE
  0
BLOCK_RECORD
  5
B
100
AcDbSymbolTableRecord
100
AcDbBlockTableRecord
  2
*PAPER_SPACE
  0
BLOCK_RECORD
  5
2C
100
AcDbSymbolTableRecord
100
AcDbBlockTableRecord
  2
_EX_NORM
  0
BLOCK_RECORD
  5
2D
100
AcDbSymbolTableRecord
100
AcDbBlockTableRecord
  2
_EX_BNORM
  0
BLOCK_RECORD
  5
2E
100
AcDbSymbolTableRecord
100
AcDbBlockTableRecord
  2
_EX_BCIR
  0
BLOCK_RECORD
  5
2F
100
AcDbSymbolTableRecord
100
AcDbBlockTableRecord
  2
_EX_RCIVIL
  0
BLOCK_RECORD
  5
30
100
AcDbSymbolTableRecord
100
AcDbBlockTableRecord
  2
_EX_SLANT
  0
BLOCK_RECORD
  5
31
100
AcDbSymbolTableRecord
100
AcDbBlockTableRecord
  2
_EX_NONE
  0
BLOCK_RECORD
  5
32
100
AcDbSymbolTableRecord
100
AcDbBlockTableRecord
  2
_EX_CIVIL
  0
BLOCK_RECORD
  5
33
100
AcDbSymbolTableRecord
100
AcDbBlockTableRecord
  2
_EX_WCIR
  0
BLOCK_RECORD
  5
34
100
AcDbSymbolTableRecord
100
AcDbBlockTableRecord
  2
_EX_WCIR2
  0
BLOCK_RECORD
  5
35
100
AcDbSymbolTableRecord
100
AcDbBlockTableRecord
  2
_EX_WNORM
  0
BLOCK_RECORD
  5
36
100
AcDbSymbolTableRecord
100
AcDbBlockTableRecord
  2
_EX_NNORM
  0
BLOCK_RECORD
  5
37
100
AcDbSymbolTableRecord
100
AcDbBlockTableRecord
  2
_EX_BBOX
  0
BLOCK_RECORD
  5
38
100
AcDbSymbolTableRecord
100
AcDbBlockTableRecord
  2
_EX_WBOX
  0
BLOCK_RECORD
  5
39
100
AcDbSymbolTableRecord
100
AcDbBlockTableRecord
  2
_EX_INTEGRAL
  0
BLOCK_RECORD
  5
3A
100
AcDbSymbolTableRecord
100
AcDbBlockTableRecord
  2
NC510LSK
  0
ENDTAB
  0
ENDSEC
  0
SECTION
  2
BLOCKS
  0
BLOCK
  5
D
100
AcDbEntity
  8
0
100
AcDbBlockBegin
  2
*MODEL_SPACE
 70
     0
 10
0.0
 20
0.0
 30
0.0
  3
*MODEL_SPACE
  1

  0
ENDBLK
  5
E
100
AcDbEntity
  8
0
100
AcDbBlockEnd
  0
BLOCK
  5
F
100
AcDbEntity
 67
     1
  8
0
100
AcDbBlockBegin
  2
*PAPER_SPACE
 70
     0
 10
0.0
 20
0.0
 30
0.0
  3
*PAPER_SPACE
  1

  0
ENDBLK
  5
10
100
AcDbEntity
 67
     1
  8
0
100
AcDbBlockEnd
  0
BLOCK
  5
3B
100
AcDbEntity
  8
0
100
AcDbBlockBegin
  2
_EX_NORM
 70
     0
 10
0.0
 20
0.0
 30
0.0
  3
_EX_NORM
  1

  0
LINE
  5
3C
100
AcDbEntity
  8
0
  6
CONTINUOUS
 62
     0
100
AcDbLine
 10
0.0
 20
0.0
 30
0.0
 11
-1.0
 21
0.0
 31
0.0
  0
LINE
  5
3D
100
AcDbEntity
  8
0
  6
CONTINUOUS
 62
     0
100
AcDbLine
 10
0.0
 20
0.0
 30
0.0
 11
-1.0
 21
0.166667
 31
0.0
  0
LINE
  5
3E
100
AcDbEntity
  8
0
  6
CONTINUOUS
 62
     0
100
AcDbLine
 10
0.0
 20
0.0
 30
0.0
 11
-1.0
 21
-0.166667
 31
0.0
  0
ENDBLK
  5
3F
100
AcDbEntity
  8
0
100
AcDbBlockEnd
  0
BLOCK
  5
40
100
AcDbEntity
  8
0
100
AcDbBlockBegin
  2
_EX_BNORM
 70
     0
 10
0.0
 20
0.0
 30
0.0
  3
_EX_BNORM
  1

  0
LINE
  5
41
100
AcDbEntity
  8
0
  6
CONTINUOUS
 62
     0
100
AcDbLine
 10
0.0
 20
0.0
 30
0.0
 11
-1.0
 21
0.0
 31
0.0
  0
LINE
  5
42
100
AcDbEntity
  8
0
  6
CONTINUOUS
 62
     0
100
AcDbLine
 10
0.0
 20
0.0
 30
0.0
 11
-1.0
 21
0.166667
 31
0.0
  0
LINE
  5
43
100
AcDbEntity
  8
0
  6
CONTINUOUS
 62
     0
100
AcDbLine
 10
0.0
 20
0.0
 30
0.0
 11
-1.0
 21
-0.166667
 31
0.0
  0
LINE
  5
44
100
AcDbEntity
  8
0
  6
CONTINUOUS
 62
     0
100
AcDbLine
 10
0.0
 20
0.0
 30
0.0
 11
-1.0
 21
0.083333
 31
0.0
  0
LINE
  5
45
100
AcDbEntity
  8
0
  6
CONTINUOUS
 62
     0
100
AcDbLine
 10
0.0
 20
0.0
 30
0.0
 11
-1.0
 21
-0.083333
 31
0.0
  0
LINE
  5
46
100
AcDbEntity
  8
0
  6
CONTINUOUS
 62
     0
100
AcDbLine
 10
-1.0
 20
0.166667
 30
0.0
 11
-1.0
 21
-0.166667
 31
0.0
  0
ENDBLK
  5
47
100
AcDbEntity
  8
0
100
AcDbBlockEnd
  0
BLOCK
  5
48
100
AcDbEntity
  8
0
100
AcDbBlockBegin
  2
_EX_BCIR
 70
     0
 10
0.0
 20
0.0
 30
0.0
  3
_EX_BCIR
  1

  0
LINE
  5
49
100
AcDbEntity
  8
0
  6
CONTINUOUS
 62
     0
100
AcDbLine
 10
0.0
 20
0.0
 30
0.0
 11
-1.0
 21
0.0
 31
0.0
  0
CIRCLE
  5
4A
100
AcDbEntity
  8
0
  6
CONTINUOUS
 62
     0
100
AcDbCircle
 10
0.0
 20
0.0
 30
0.0
 40
0.5
  0
CIRCLE
  5
4B
100
AcDbEntity
  8
0
  6
CONTINUOUS
 62
     0
100
AcDbCircle
 10
0.0
 20
0.0
 30
0.0
 40
0.25
  0
ENDBLK
  5
4C
100
AcDbEntity
  8
0
100
AcDbBlockEnd
  0
BLOCK
  5
4D
100
AcDbEntity
  8
0
100
AcDbBlockBegin
  2
_EX_RCIVIL
 70
     0
 10
0.0
 20
0.0
 30
0.0
  3
_EX_RCIVIL
  1

  0
LINE
  5
4E
100
AcDbEntity
  8
0
  6
CONTINUOUS
 62
     0
100
AcDbLine
 10
0.0
 20
0.0
 30
0.0
 11
-1.0
 21
0.0
 31
0.0
  0
LINE
  5
4F
100
AcDbEntity
  8
0
  6
CONTINUOUS
 62
     0
100
AcDbLine
 10
-1.0
 20
-0.25
 30
0.0
 11
0.0
 21
-0.25
 31
0.0
  0
LINE
  5
50
100
AcDbEntity
  8
0
  6
CONTINUOUS
 62
     0
100
AcDbLine
 10
-1.0
 20
-0.125
 30
0.0
 11
0.0
 21
-0.125
 31
0.0
  0
ENDBLK
  5
51
100
AcDbEntity
  8
0
100
AcDbBlockEnd
  0
BLOCK
  5
52
100
AcDbEntity
  8
0
100
AcDbBlockBegin
  2
_EX_SLANT
 70
     0
 10
0.0
 20
0.0
 30
0.0
  3
_EX_SLANT
  1

  0
LINE
  5
53
100
AcDbEntity
  8
0
  6
CONTINUOUS
 62
     0
100
AcDbLine
 10
0.0
 20
0.0
 30
0.0
 11
-1.0
 21
0.0
 31
0.0
  0
LINE
  5
54
100
AcDbEntity
  8
0
  6
CONTINUOUS
 62
     0
100
AcDbLine
 10
0.707107
 20
0.707107
 30
0.0
 11
-0.707107
 21
-0.707107
 31
0.0
  0
ENDBLK
  5
55
100
AcDbEntity
  8
0
100
AcDbBlockEnd
  0
BLOCK
  5
56
100
AcDbEntity
  8
0
100
AcDbBlockBegin
  2
_EX_NONE
 70
     0
 10
0.0
 20
0.0
 30
0.0
  3
_EX_NONE
  1

  0
LINE
  5
57
100
AcDbEntity
  8
0
  6
CONTINUOUS
 62
     0
100
AcDbLine
 10
0.0
 20
0.0
 30
0.0
 11
-1.0
 21
0.0
 31
0.0
  0
ENDBLK
  5
58
100
AcDbEntity
  8
0
100
AcDbBlockEnd
  0
BLOCK
  5
59
100
AcDbEntity
  8
0
100
AcDbBlockBegin
  2
_EX_CIVIL
 70
     0
 10
0.0
 20
0.0
 30
0.0
  3
_EX_CIVIL
  1

  0
LINE
  5
5A
100
AcDbEntity
  8
0
  6
CONTINUOUS
 62
     0
100
AcDbLine
 10
0.0
 20
0.0
 30
0.0
 11
-1.0
 21
0.0
 31
0.0
  0
LINE
  5
5B
100
AcDbEntity
  8
0
  6
CONTINUOUS
 62
     0
100
AcDbLine
 10
-1.0
 20
0.25
 30
0.0
 11
0.0
 21
0.25
 31
0.0
  0
LINE
  5
5C
100
AcDbEntity
  8
0
  6
CONTINUOUS
 62
     0
100
AcDbLine
 10
-1.0
 20
0.125
 30
0.0
 11
0.0
 21
0.125
 31
0.0
  0
ENDBLK
  5
5D
100
AcDbEntity
  8
0
100
AcDbBlockEnd
  0
BLOCK
  5
5E
100
AcDbEntity
  8
0
100
AcDbBlockBegin
  2
_EX_WCIR
 70
     0
 10
0.0
 20
0.0
 30
0.0
  3
_EX_WCIR
  1

  0
LINE
  5
5F
100
AcDbEntity
  8
0
  6
CONTINUOUS
 62
     0
100
AcDbLine
 10
0.0
 20
0.0
 30
0.0
 11
-1.0
 21
0.0
 31
0.0
  0
CIRCLE
  5
60
100
AcDbEntity
  8
0
  6
CONTINUOUS
 62
     0
100
AcDbCircle
 10
0.0
 20
0.0
 30
0.0
 40
0.5
  0
ENDBLK
  5
61
100
AcDbEntity
  8
0
100
AcDbBlockEnd
  0
BLOCK
  5
62
100
AcDbEntity
  8
0
100
AcDbBlockBegin
  2
_EX_WCIR2
 70
     0
 10
0.0
 20
0.0
 30
0.0
  3
_EX_WCIR2
  1

  0
LINE
  5
63
100
AcDbEntity
  8
0
  6
CONTINUOUS
 62
     0
100
AcDbLine
 10
-0.5
 20
0.0
 30
0.0
 11
-1.0
 21
0.0
 31
0.0
  0
CIRCLE
  5
64
100
AcDbEntity
  8
0
  6
CONTINUOUS
 62
     0
100
AcDbCircle
 10
0.0
 20
0.0
 30
0.0
 40
0.5
  0
ENDBLK
  5
65
100
AcDbEntity
  8
0
100
AcDbBlockEnd
  0
BLOCK
  5
66
100
AcDbEntity
  8
0
100
AcDbBlockBegin
  2
_EX_WNORM
 70
     0
 10
0.0
 20
0.0
 30
0.0
  3
_EX_WNORM
  1

  0
LINE
  5
67
100
AcDbEntity
  8
0
  6
CONTINUOUS
 62
     0
100
AcDbLine
 10
-1.0
 20
0.0
 30
0.0
 11
-1.0
 21
0.0
 31
0.0
  0
LINE
  5
68
100
AcDbEntity
  8
0
  6
CONTINUOUS
 62
     0
100
AcDbLine
 10
0.0
 20
0.0
 30
0.0
 11
-1.0
 21
0.166667
 31
0.0
  0
LINE
  5
69
100
AcDbEntity
  8
0
  6
CONTINUOUS
 62
     0
100
AcDbLine
 10
0.0
 20
0.0
 30
0.0
 11
-1.0
 21
-0.166667
 31
0.0
  0
LINE
  5
6A
100
AcDbEntity
  8
0
  6
CONTINUOUS
 62
     0
100
AcDbLine
 10
-1.0
 20
0.166667
 30
0.0
 11
-1.0
 21
-0.166667
 31
0.0
  0
ENDBLK
  5
6B
100
AcDbEntity
  8
0
100
AcDbBlockEnd
  0
BLOCK
  5
6C
100
AcDbEntity
  8
0
100
AcDbBlockBegin
  2
_EX_NNORM
 70
     0
 10
0.0
 20
0.0
 30
0.0
  3
_EX_NNORM
  1

  0
LINE
  5
6D
100
AcDbEntity
  8
0
  6
CONTINUOUS
 62
     0
100
AcDbLine
 10
0.0
 20
0.0
 30
0.0
 11
-1.0
 21
0.0
 31
0.0
  0
LINE
  5
6E
100
AcDbEntity
  8
0
  6
CONTINUOUS
 62
     0
100
AcDbLine
 10
0.0
 20
0.0
 30
0.0
 11
-1.0
 21
0.166667
 31
0.0
  0
LINE
  5
6F
100
AcDbEntity
  8
0
  6
CONTINUOUS
 62
     0
100
AcDbLine
 10
0.0
 20
0.0
 30
0.0
 11
-1.0
 21
-0.166667
 31
0.0
  0
LINE
  5
70
100
AcDbEntity
  8
0
  6
CONTINUOUS
 62
     0
100
AcDbLine
 10
-1.0
 20
0.166667
 30
0.0
 11
-1.0
 21
-0.166667
 31
0.0
  0
ENDBLK
  5
71
100
AcDbEntity
  8
0
100
AcDbBlockEnd
  0
BLOCK
  5
72
100
AcDbEntity
  8
0
100
AcDbBlockBegin
  2
_EX_BBOX
 70
     0
 10
0.0
 20
0.0
 30
0.0
  3
_EX_BBOX
  1

  0
LINE
  5
73
100
AcDbEntity
  8
0
  6
CONTINUOUS
 62
     0
100
AcDbLine
 10
0.0
 20
0.0
 30
0.0
 11
-1.0
 21
0.0
 31
0.0
  0
LINE
  5
74
100
AcDbEntity
  8
0
  6
CONTINUOUS
 62
     0
100
AcDbLine
 10
-0.5
 20
0.5
 30
0.0
 11
0.5
 21
0.5
 31
0.0
  0
LINE
  5
75
100
AcDbEntity
  8
0
  6
CONTINUOUS
 62
     0
100
AcDbLine
 10
0.5
 20
0.5
 30
0.0
 11
0.5
 21
-0.5
 31
0.0
  0
LINE
  5
76
100
AcDbEntity
  8
0
  6
CONTINUOUS
 62
     0
100
AcDbLine
 10
0.5
 20
-0.5
 30
0.0
 11
-0.5
 21
-0.5
 31
0.0
  0
LINE
  5
77
100
AcDbEntity
  8
0
  6
CONTINUOUS
 62
     0
100
AcDbLine
 10
-0.5
 20
-0.5
 30
0.0
 11
-0.5
 21
0.5
 31
0.0
  0
LINE
  5
78
100
AcDbEntity
  8
0
  6
CONTINUOUS
 62
     0
100
AcDbLine
 10
-0.25
 20
0.25
 30
0.0
 11
0.25
 21
0.25
 31
0.0
  0
LINE
  5
79
100
AcDbEntity
  8
0
  6
CONTINUOUS
 62
     0
100
AcDbLine
 10
0.25
 20
0.25
 30
0.0
 11
0.25
 21
-0.25
 31
0.0
  0
LINE
  5
7A
100
AcDbEntity
  8
0
  6
CONTINUOUS
 62
     0
100
AcDbLine
 10
0.25
 20
-0.25
 30
0.0
 11
-0.25
 21
-0.25
 31
0.0
  0
LINE
  5
7B
100
AcDbEntity
  8
0
  6
CONTINUOUS
 62
     0
100
AcDbLine
 10
-0.25
 20
-0.25
 30
0.0
 11
-0.25
 21
0.25
 31
0.0
  0
ENDBLK
  5
7C
100
AcDbEntity
  8
0
100
AcDbBlockEnd
  0
BLOCK
  5
7D
100
AcDbEntity
  8
0
100
AcDbBlockBegin
  2
_EX_WBOX
 70
     0
 10
0.0
 20
0.0
 30
0.0
  3
_EX_WBOX
  1

  0
LINE
  5
7E
100
AcDbEntity
  8
0
  6
CONTINUOUS
 62
     0
100
AcDbLine
 10
-0.5
 20
0.0
 30
0.0
 11
-1.0
 21
0.0
 31
0.0
  0
LINE
  5
7F
100
AcDbEntity
  8
0
  6
CONTINUOUS
 62
     0
100
AcDbLine
 10
-0.5
 20
0.5
 30
0.0
 11
0.5
 21
0.5
 31
0.0
  0
LINE
  5
80
100
AcDbEntity
  8
0
  6
CONTINUOUS
 62
     0
100
AcDbLine
 10
0.5
 20
0.5
 30
0.0
 11
0.5
 21
-0.5
 31
0.0
  0
LINE
  5
81
100
AcDbEntity
  8
0
  6
CONTINUOUS
 62
     0
100
AcDbLine
 10
0.5
 20
-0.5
 30
0.0
 11
-0.5
 21
-0.5
 31
0.0
  0
LINE
  5
82
100
AcDbEntity
  8
0
  6
CONTINUOUS
 62
     0
100
AcDbLine
 10
-0.5
 20
-0.5
 30
0.0
 11
-0.5
 21
0.5
 31
0.0
  0
ENDBLK
  5
83
100
AcDbEntity
  8
0
100
AcDbBlockEnd
  0
BLOCK
  5
84
100
AcDbEntity
  8
0
100
AcDbBlockBegin
  2
_EX_INTEGRAL
 70
     0
 10
0.0
 20
0.0
 30
0.0
  3
_EX_INTEGRAL
  1

  0
LINE
  5
85
100
AcDbEntity
  8
0
  6
CONTINUOUS
 62
     0
100
AcDbLine
 10
0.0
 20
0.0
 30
0.0
 11
-1.0
 21
0.0
 31
0.0
  0
ARC
  5
86
100
AcDbEntity
  8
0
  6
CONTINUOUS
 62
     0
100
AcDbCircle
 10
0.542115
 20
0.164992
 30
0.0
 40
0.56667
100
AcDbArc
 50
73.07249
 51
196.927513
  0
ARC
  5
87
100
AcDbEntity
  8
0
  6
CONTINUOUS
 62
     0
100
AcDbCircle
 10
-0.542115
 20
-0.164992
 30
0.0
 40
0.56667
100
AcDbArc
 50
253.072487
 51
16.927513
  0
ENDBLK
  5
88
100
AcDbEntity
  8
0
100
AcDbBlockEnd
  0
BLOCK
  5
89
100
AcDbEntity
  8
0
100
AcDbBlockBegin
  2
NC510LSK
 70
     0
 10
0.0
 20
0.0
 30
0.0
  3
NC510LSK
  1

  0
POINT
  5
8A
100
AcDbEntity
  8
0
  6
CONTINUOUS
 62
     7
100
AcDbPoint
 10
0.0
 20
0.0
 30
0.0
  0
ENDBLK
  5
8B
100
AcDbEntity
  8
0
100
AcDbBlockEnd
  0
ENDSEC
  0
SECTION
  2
ENTITIES
  0
TEXT
  5
8C
100
AcDbEntity
  8
枠_
  6
CONTINUOUS
 62
     2
100
AcDbText
 10
857.75
 20
243.75
 30
0.0
 40
62.5
  1
隅付大形手洗器
 41
0.9072
  7
EXCADSTD
 72
     5
 11
1330.25
 21
243.75
 31
0.0
100
AcDbText
  0
TEXT
  5
8D
100
AcDbEntity
  8
枠_
  6
CONTINUOUS
 62
     2
100
AcDbText
 10
1458.0
 20
243.75
 30
0.0
 40
62.5
  1
Ｌ８１０
 41
0.82656
  7
EXCADSTD
 72
     5
 11
1704.0
 21
243.75
 31
0.0
100
AcDbText
  0
LINE
  5
8E
100
AcDbEntity
  8
枠_
  6
CONTINUOUS
 62
     7
100
AcDbLine
 10
179.0
 20
115.0
 30
0.0
 11
1999.0
 21
115.0
 31
0.0
  0
LINE
  5
8F
100
AcDbEntity
  8
枠_
  6
CONTINUOUS
 62
     7
100
AcDbLine
 10
1999.0
 20
115.0
 30
0.0
 11
1999.0
 21
2915.0
 31
0.0
  0
LINE
  5
90
100
AcDbEntity
  8
枠_
  6
CONTINUOUS
 62
     7
100
AcDbLine
 10
179.0
 20
115.0
 30
0.0
 11
179.0
 21
2915.0
 31
0.0
  0
LINE
  5
91
100
AcDbEntity
  8
枠_
  6
CONTINUOUS
 62
     7
100
AcDbLine
 10
179.0
 20
2915.0
 30
0.0
 11
1999.0
 21
2915.0
 31
0.0
  0
LINE
  5
92
100
AcDbEntity
  8
枠_
  6
CONTINUOUS
 62
     7
100
AcDbLine
 10
179.0
 20
335.0
 30
0.0
 11
1999.0
 21
335.0
 31
0.0
  0
LINE
  5
93
100
AcDbEntity
  8
枠_
  6
CONTINUOUS
 62
     6
100
AcDbLine
 10
1999.0
 20
215.0
 30
0.0
 11
749.0
 21
215.0
 31
0.0
  0
LINE
  5
94
100
AcDbEntity
  8
枠_
  6
CONTINUOUS
 62
     6
100
AcDbLine
 10
1859.0
 20
335.0
 30
0.0
 11
1859.0
 21
215.0
 31
0.0
  0
LINE
  5
95
100
AcDbEntity
  8
枠_
  6
CONTINUOUS
 62
     6
100
AcDbLine
 10
1809.0
 20
335.0
 30
0.0
 11
1809.0
 21
215.0
 31
0.0
  0
LINE
  5
96
100
AcDbEntity
  8
枠_
  6
CONTINUOUS
 62
     6
100
AcDbLine
 10
1439.0
 20
335.0
 30
0.0
 11
1439.0
 21
115.0
 31
0.0
  0
LINE
  5
97
100
AcDbEntity
  8
枠_
  6
CONTINUOUS
 62
     6
100
AcDbLine
 10
1389.0
 20
335.0
 30
0.0
 11
1389.0
 21
115.0
 31
0.0
  0
LINE
  5
98
100
AcDbEntity
  8
枠_
  6
CONTINUOUS
 62
     6
100
AcDbLine
 10
799.0
 20
335.0
 30
0.0
 11
799.0
 21
215.0
 31
0.0
  0
LINE
  5
99
100
AcDbEntity
  8
枠_
  6
CONTINUOUS
 62
     6
100
AcDbLine
 10
749.0
 20
335.0
 30
0.0
 11
749.0
 21
115.0
 31
0.0
  0
LINE
  5
9A
100
AcDbEntity
  8
枠_
  6
CONTINUOUS
 62
     6
100
AcDbLine
 10
619.0
 20
335.0
 30
0.0
 11
619.0
 21
115.0
 31
0.0
  0
LINE
  5
9B
100
AcDbEntity
  8
枠_
  6
CONTINUOUS
 62
     6
100
AcDbLine
 10
489.0
 20
335.0
 30
0.0
 11
489.0
 21
115.0
 31
0.0
  0
LINE
  5
9C
100
AcDbEntity
  8
枠_
  6
CONTINUOUS
 62
     6
100
AcDbLine
 10
334.0
 20
335.0
 30
0.0
 11
334.0
 21
115.0
 31
0.0
  0
LINE
  5
9D
100
AcDbEntity
  8
枠_
  6
CONTINUOUS
 62
     6
100
AcDbLine
 10
179.0
 20
285.0
 30
0.0
 11
749.0
 21
285.0
 31
0.0
  0
LINE
  5
9E
100
AcDbEntity
  8
枠_
  6
CONTINUOUS
 62
     6
100
AcDbLine
 10
1891.653809
 20
238.00293
 30
0.0
 11
1968.993897
 21
316.699829
 31
0.0
  0
LINE
  5
9F
100
AcDbEntity
  8
枠_
  6
EXLTYPE2
 62
     6
100
AcDbLine
 10
179.0
 20
165.0
 30
0.0
 11
489.0
 21
165.0
 31
0.0
  0
CIRCLE
  5
A0
100
AcDbEntity
  8
枠_
  6
CONTINUOUS
 62
     6
100
AcDbCircle
 10
229.0
 20
140.0
 30
0.0
 40
1.0
  0
CIRCLE
  5
A1
100
AcDbEntity
  8
枠_
  6
CONTINUOUS
 62
     6
100
AcDbCircle
 10
279.0
 20
140.0
 30
0.0
 40
1.0
  0
CIRCLE
  5
A2
100
AcDbEntity
  8
枠_
  6
CONTINUOUS
 62
     6
100
AcDbCircle
 10
384.0
 20
140.0
 30
0.0
 40
1.0
  0
CIRCLE
  5
A3
100
AcDbEntity
  8
枠_
  6
CONTINUOUS
 62
     6
100
AcDbCircle
 10
434.0
 20
140.0
 30
0.0
 40
1.0
  0
TEXT
  5
A4
100
AcDbEntity
  8
枠_
  6
CONTINUOUS
 62
     2
100
AcDbText
 10
1889.537109
 20
282.722778
 30
0.0
 40
30.0
  1
１
 41
0.826
  7
EXCADSTD
 72
     5
 11
1913.13711
 21
282.722778
 31
0.0
100
AcDbText
  0
TEXT
  5
A5
100
AcDbEntity
  8
枠_
  6
CONTINUOUS
 62
     2
100
AcDbText
 10
1930.279297
 20
238.348846
 30
0.0
 40
30.0
  1
１０
 41
0.791
  7
EXCADSTD
 72
     5
 11
1982.067198
 21
238.348846
 31
0.0
100
AcDbText
  0
TEXT
  5
A6
100
AcDbEntity
  8
枠_
  6
CONTINUOUS
 62
     2
100
AcDbText
 10
201.5
 20
288.75
 30
0.0
 40
42.5
  1
製図
 41
1.087059
  7
EXCADSTD
 72
     5
 11
302.326
 21
288.75
 31
0.0
100
AcDbText
  0
TEXT
  5
A7
100
AcDbEntity
  8
枠_
  6
CONTINUOUS
 62
     2
100
AcDbText
 10
356.5
 20
288.75
 30
0.0
 40
42.5
  1
写図
 41
1.087059
  7
EXCADSTD
 72
     5
 11
457.326
 21
288.75
 31
0.0
100
AcDbText
  0
TEXT
  5
A8
100
AcDbEntity
  8
枠_
  6
CONTINUOUS
 62
     2
100
AcDbText
 10
506.5
 20
288.75
 30
0.0
 40
42.5
  1
検図
 41
0.938824
  7
EXCADSTD
 72
     5
 11
593.577
 21
288.75
 31
0.0
100
AcDbText
  0
TEXT
  5
A9
100
AcDbEntity
  8
枠_
  6
CONTINUOUS
 62
     2
100
AcDbText
 10
636.5
 20
288.75
 30
0.0
 40
42.5
  1
承認
 41
0.938824
  7
EXCADSTD
 72
     5
 11
723.577
 21
288.75
 31
0.0
100
AcDbText
  0
TEXT
  5
AA
100
AcDbEntity
  8
枠_
  6
CONTINUOUS
 62
     2
100
AcDbText
 10
752.75
 20
278.75
 30
0.0
 40
42.5
  1
品
 41
0.84
  7
EXCADSTD
 72
     5
 11
786.75
 21
278.75
 31
0.0
100
AcDbText
  0
TEXT
  5
AB
100
AcDbEntity
  8
枠_
  6
CONTINUOUS
 62
     2
100
AcDbText
 10
752.75
 20
228.75
 30
0.0
 40
42.5
  1
名
 41
0.84
  7
EXCADSTD
 72
     5
 11
786.75
 21
228.75
 31
0.0
100
AcDbText
  0
TEXT
  5
AC
100
AcDbEntity
  8
枠_
  6
CONTINUOUS
 62
     2
100
AcDbText
 10
1392.75
 20
278.75
 30
0.0
 40
42.5
  1
品
 41
0.84
  7
EXCADSTD
 72
     5
 11
1426.75
 21
278.75
 31
0.0
100
AcDbText
  0
TEXT
  5
AD
100
AcDbEntity
  8
枠_
  6
CONTINUOUS
 62
     2
100
AcDbText
 10
1392.75
 20
228.75
 30
0.0
 40
42.5
  1
番
 41
0.84
  7
EXCADSTD
 72
     5
 11
1426.75
 21
228.75
 31
0.0
100
AcDbText
  0
TEXT
  5
AE
100
AcDbEntity
  8
枠_
  6
CONTINUOUS
 62
     2
100
AcDbText
 10
1812.75
 20
278.75
 30
0.0
 40
42.5
  1
尺
 41
0.84
  7
EXCADSTD
 72
     5
 11
1846.75
 21
278.75
 31
0.0
100
AcDbText
  0
TEXT
  5
AF
100
AcDbEntity
  8
枠_
  6
CONTINUOUS
 62
     2
100
AcDbText
 10
1812.75
 20
228.75
 30
0.0
 40
42.5
  1
度
 41
0.84
  7
EXCADSTD
 72
     5
 11
1846.75
 21
228.75
 31
0.0
100
AcDbText
  0
TEXT
  5
B0
100
AcDbEntity
  8
枠_
  6
CONTINUOUS
 62
     2
100
AcDbText
 10
1392.75
 20
165.75
 30
0.0
 40
42.5
  1
図
 41
0.84
  7
EXCADSTD
 72
     5
 11
1426.75
 21
165.75
 31
0.0
100
AcDbText
  0
TEXT
  5
B1
100
AcDbEntity
  8
枠_
  6
CONTINUOUS
 62
     2
100
AcDbText
 10
1392.75
 20
122.75
 30
0.0
 40
42.5
  1
番
 41
0.84
  7
EXCADSTD
 72
     5
 11
1426.75
 21
122.75
 31
0.0
100
AcDbText
  0
TEXT
  5
B2
100
AcDbEntity
  8
枠_
  6
CONTINUOUS
 62
     6
100
AcDbText
 10
635.0
 20
200.0
 30
0.0
 40
50.0
  1
古林
 41
0.8568
  7
EXCADSTD
 72
     5
 11
728.4932
 21
200.0
 31
0.0
100
AcDbText
  0
TEXT
  5
B4
100
AcDbEntity
  8
枠_
  6
CONTINUOUS
 62
     2
100
AcDbText
 10
769.0
 20
135.0
 30
0.0
 40
45.0
  1
ジャニス工業株式会社
  7
EXCADTTF1
 72
     5
 11
1369.0
 21
135.0
 31
0.0
100
AcDbText
  0
TEXT
  5
B5
100
AcDbEntity
  8
枠_
  6
CONTINUOUS
 62
     6
100
AcDbText
 10
205.5
 20
200.0
 30
0.0
 40
50.0
  1
間瀬
 41
0.8568
  7
EXCADSTD
 72
     5
 11
298.9932
 21
200.0
 31
0.0
100
AcDbText
  0
TEXT
  5
B6
100
AcDbEntity
  8
枠_
  6
CONTINUOUS
 62
     7
100
AcDbText
 10
1453.25
 20
130.75
 30
0.0
 40
70.0
  1
Ｌ０８１００１２
 41
0.795
  7
EXCADSTD
 72
     5
 11
1983.25
 21
130.75
 31
0.0
100
AcDbText
  0
LINE
  5
B7
100
AcDbEntity
  8
枠_
  6
EXLTYPE2
 62
     6
100
AcDbLine
 10
179.0
 20
1515.0
 30
0.0
 11
-21.0
 21
1515.0
 31
0.0
  0
TEXT
  5
B8
100
AcDbEntity
  8
枠_
  6
CONTINUOUS
 62
     6
100
AcDbText
 10
181.044116
 20
126.950073
 30
0.0
 40
25.0
  1
２２
 41
0.75768
  7
EXCADSTD
 72
     5
 11
222.382775
 21
126.950073
 31
0.0
100
AcDbText
  0
TEXT
  5
B9
100
AcDbEntity
  8
枠_
  6
CONTINUOUS
 62
     6
100
AcDbText
 10
242.744116
 20
126.950073
 30
0.0
 40
25.0
  1
５
 41
0.89208
  7
EXCADSTD
 72
     5
 11
263.984116
 21
126.950073
 31
0.0
100
AcDbText
  0
TEXT
  5
BA
100
AcDbEntity
  8
枠_
  6
CONTINUOUS
 62
     6
100
AcDbText
 10
288.044116
 20
126.950073
 30
0.0
 40
25.0
  1
２５
 41
0.75768
  7
EXCADSTD
 72
     5
 11
329.382775
 21
126.950073
 31
0.0
100
AcDbText
  0
LINE
  5
BB
100
AcDbEntity
  8
枠_
  6
CONTINUOUS
 62
     7
100
AcDbLine
 10
781.0
 20
460.796631
 30
0.0
 11
1380.613617
 21
460.796631
 31
0.0
  0
TEXT
  5
BC
100
AcDbEntity
  8
枠_
  6
CONTINUOUS
 62
     2
100
AcDbText
 10
937.846924
 20
465.796631
 30
0.0
 40
40.0
  1
Ｆ．Ｌ
 41
0.833
  7
EXCADSTD
 72
     5
 11
1056.846924
 21
465.796631
 31
0.0
100
AcDbText
  0
TEXT
  5
BD
100
AcDbEntity
  8
枠_
  6
CONTINUOUS
 62
     2
100
AcDbText
 10
1375.794891
 20
1331.049774
 30
0.0
 40
40.0
  1
Ｗ．Ｌ
 50
90.0
 41
0.833
  7
EXCADSTD
 72
     5
 11
1375.794891
 21
1450.049774
 31
0.0
100
AcDbText
  0
LINE
  5
BE
100
AcDbEntity
  8
枠_
  6
CONTINUOUS
 62
     7
100
AcDbLine
 10
1380.613617
 20
460.796631
 30
0.0
 11
1380.613617
 21
1460.0
 31
0.0
  0
LEADER
  5
BF
100
AcDbEntity
  8
洗面器
  6
CONTINUOUS
 62
     6
100
AcDbLeader
  3
STANDARD
 73
     3
 74
     1
 75
     0
 40
0.0
 76
     2
 10
1133.489071
 20
1244.94746
 30
0.0
 10
1042.509674
 20
1335.750092
 30
0.0
 77
     6
1001
ACAD
1000
DSTYLE
1002
{
1070
    41
1040
35.0
1070
     5
1000
_EX_NORM
1070
     6
1000
_EX_NORM
1070
     7
1000
_EX_NORM
1070
   341
1005
2C
1002
}
  0
CIRCLE
  5
C0
100
AcDbEntity
  8
洗面器
  6
CONTINUOUS
 62
     6
100
AcDbCircle
 10
1215.613922
 20
1837.796173
 30
0.0
 40
17.5
  0
CIRCLE
  5
C1
100
AcDbEntity
  8
洗面器
  6
CONTINUOUS
 62
     6
100
AcDbCircle
 10
1215.613922
 20
1837.796173
 30
0.0
 40
26.999998
  0
LINE
  5
C2
100
AcDbEntity
  8
洗面器
  6
CONTINUOUS
 62
     6
100
AcDbLine
 10
1226.927704
 20
1826.482391
 30
0.0
 11
1247.413849
 21
1805.996246
 31
0.0
  0
LINE
  5
C3
100
AcDbEntity
  8
洗面器
  6
CONTINUOUS
 62
     6
100
AcDbLine
 10
1185.506805
 20
1867.90329
 30
0.0
 11
1204.30014
 21
1849.109955
 31
0.0
  0
POLYLINE
  5
C4
100
AcDbEntity
  8
洗面器
  6
CONTINUOUS
 62
     3
100
AcDb2dPolyline
 66
     1
 10
0.0
 20
0.0
 30
0.0
 70
   128
  0
VERTEX
  5
C5
100
AcDbEntity
  8
洗面器
  6
CONTINUOUS
 62
     3
100
AcDbVertex
100
AcDb2dVertex
 10
1209.29892
 20
1698.662872
 30
0.0
  0
VERTEX
  5
C6
100
AcDbEntity
  8
洗面器
  6
CONTINUOUS
 62
     3
100
AcDbVertex
100
AcDb2dVertex
 10
1191.79892
 20
1668.351898
 30
0.0
  0
VERTEX
  5
C7
100
AcDbEntity
  8
洗面器
  6
CONTINUOUS
 62
     3
100
AcDbVertex
100
AcDb2dVertex
 10
1222.109741
 20
1685.851898
 30
0.0
  0
SEQEND
  5
C8
100
AcDbEntity
  8
洗面器
  6
CONTINUOUS
 62
     3
  0
POLYLINE
  5
C9
100
AcDbEntity
  8
洗面器
  6
CONTINUOUS
 62
     3
100
AcDb2dPolyline
 66
     1
 10
0.0
 20
0.0
 30
0.0
 70
   128
  0
VERTEX
  5
CA
100
AcDbEntity
  8
洗面器
  6
CONTINUOUS
 62
     3
100
AcDbVertex
100
AcDb2dVertex
 10
1329.862427
 20
1793.604736
 30
0.0
  0
VERTEX
  5
CB
100
AcDbEntity
  8
洗面器
  6
CONTINUOUS
 62
     3
100
AcDbVertex
100
AcDb2dVertex
 10
1347.362427
 20
1823.915558
 30
0.0
  0
VERTEX
  5
CC
100
AcDbEntity
  8
洗面器
  6
CONTINUOUS
 62
     3
100
AcDbVertex
100
AcDb2dVertex
 10
1317.051453
 20
1806.415558
 30
0.0
  0
SEQEND
  5
CD
100
AcDbEntity
  8
洗面器
  6
CONTINUOUS
 62
     3
  0
LINE
  5
CE
100
AcDbEntity
  8
洗面器
  6
CONTINUOUS
 62
     3
100
AcDbLine
 10
1191.79892
 20
1668.351898
 30
0.0
 11
1347.362427
 21
1823.915558
 31
0.0
  0
POLYLINE
  5
CF
100
AcDbEntity
  8
洗面器
  6
CONTINUOUS
 62
     3
100
AcDb2dPolyline
 66
     1
 10
0.0
 20
0.0
 30
0.0
 70
   128
  0
VERTEX
  5
D0
100
AcDbEntity
  8
洗面器
  6
CONTINUOUS
 62
     3
100
AcDbVertex
100
AcDb2dVertex
 10
1516.47406
 20
1968.989105
 30
0.0
  0
VERTEX
  5
D1
100
AcDbEntity
  8
洗面器
  6
CONTINUOUS
 62
     3
100
AcDbVertex
100
AcDb2dVertex
 10
1507.415375
 20
2002.796478
 30
0.0
  0
VERTEX
  5
D2
100
AcDbEntity
  8
洗面器
  6
CONTINUOUS
 62
     3
100
AcDbVertex
100
AcDb2dVertex
 10
1498.35669
 20
1968.989105
 30
0.0
  0
SEQEND
  5
D3
100
AcDbEntity
  8
洗面器
  6
CONTINUOUS
 62
     3
  0
POLYLINE
  5
D4
100
AcDbEntity
  8
洗面器
  6
CONTINUOUS
 62
     3
100
AcDb2dPolyline
 66
     1
 10
0.0
 20
0.0
 30
0.0
 70
   128
  0
VERTEX
  5
D5
100
AcDbEntity
  8
洗面器
  6
CONTINUOUS
 62
     3
100
AcDbVertex
100
AcDb2dVertex
 10
1498.35669
 20
1661.604156
 30
0.0
  0
VERTEX
  5
D6
100
AcDbEntity
  8
洗面器
  6
CONTINUOUS
 62
     3
100
AcDbVertex
100
AcDb2dVertex
 10
1507.415375
 20
1627.796783
 30
0.0
  0
VERTEX
  5
D7
100
AcDbEntity
  8
洗面器
  6
CONTINUOUS
 62
     3
100
AcDbVertex
100
AcDb2dVertex
 10
1516.47406
 20
1661.604156
 30
0.0
  0
SEQEND
  5
D8
100
AcDbEntity
  8
洗面器
  6
CONTINUOUS
 62
     3
  0
LINE
  5
D9
100
AcDbEntity
  8
洗面器
  6
CONTINUOUS
 62
     3
100
AcDbLine
 10
1507.415375
 20
2002.796478
 30
0.0
 11
1507.415375
 21
1627.796783
 31
0.0
  0
LINE
  5
DA
100
AcDbEntity
  8
洗面器
  6
CONTINUOUS
 62
     3
100
AcDbLine
 10
1527.415375
 20
2002.796478
 30
0.0
 11
1391.613525
 21
2002.796478
 31
0.0
  0
POLYLINE
  5
DB
100
AcDbEntity
  8
洗面器
  6
CONTINUOUS
 62
     3
100
AcDb2dPolyline
 66
     1
 10
0.0
 20
0.0
 30
0.0
 70
   128
  0
VERTEX
  5
DC
100
AcDbEntity
  8
洗面器
  6
CONTINUOUS
 62
     3
100
AcDbVertex
100
AcDb2dVertex
 10
1456.47406
 20
1852.989044
 30
0.0
  0
VERTEX
  5
DD
100
AcDbEntity
  8
洗面器
  6
CONTINUOUS
 62
     3
100
AcDbVertex
100
AcDb2dVertex
 10
1447.415375
 20
1886.796417
 30
0.0
  0
VERTEX
  5
DE
100
AcDbEntity
  8
洗面器
  6
CONTINUOUS
 62
     3
100
AcDbVertex
100
AcDb2dVertex
 10
1438.35669
 20
1852.989044
 30
0.0
  0
SEQEND
  5
DF
100
AcDbEntity
  8
洗面器
  6
CONTINUOUS
 62
     3
  0
POLYLINE
  5
E0
100
AcDbEntity
  8
洗面器
  6
CONTINUOUS
 62
     3
100
AcDb2dPolyline
 66
     1
 10
0.0
 20
0.0
 30
0.0
 70
   128
  0
VERTEX
  5
E1
100
AcDbEntity
  8
洗面器
  6
CONTINUOUS
 62
     3
100
AcDbVertex
100
AcDb2dVertex
 10
940.179962
 20
1758.504181
 30
0.0
  0
VERTEX
  5
E2
100
AcDbEntity
  8
洗面器
  6
CONTINUOUS
 62
     3
100
AcDbVertex
100
AcDb2dVertex
 10
909.869141
 20
1776.004181
 30
0.0
  0
VERTEX
  5
E3
100
AcDbEntity
  8
洗面器
  6
CONTINUOUS
 62
     3
100
AcDbVertex
100
AcDb2dVertex
 10
927.369141
 20
1745.693359
 30
0.0
  0
SEQEND
  5
E4
100
AcDbEntity
  8
洗面器
  6
CONTINUOUS
 62
     3
  0
POLYLINE
  5
E5
100
AcDbEntity
  8
洗面器
  6
CONTINUOUS
 62
     3
100
AcDb2dPolyline
 66
     1
 10
0.0
 20
0.0
 30
0.0
 70
   128
  0
VERTEX
  5
E6
100
AcDbEntity
  8
洗面器
  6
CONTINUOUS
 62
     3
100
AcDbVertex
100
AcDb2dVertex
 10
1123.509888
 20
1549.55246
 30
0.0
  0
VERTEX
  5
E7
100
AcDbEntity
  8
洗面器
  6
CONTINUOUS
 62
     3
100
AcDbVertex
100
AcDb2dVertex
 10
1153.820862
 20
1532.05246
 30
0.0
  0
VERTEX
  5
E8
100
AcDbEntity
  8
洗面器
  6
CONTINUOUS
 62
     3
100
AcDbVertex
100
AcDb2dVertex
 10
1136.320862
 20
1562.363281
 30
0.0
  0
SEQEND
  5
E9
100
AcDbEntity
  8
洗面器
  6
CONTINUOUS
 62
     3
  0
LINE
  5
EA
100
AcDbEntity
  8
洗面器
  6
CONTINUOUS
 62
     3
100
AcDbLine
 10
909.869141
 20
1776.004181
 30
0.0
 11
1153.820862
 21
1532.05246
 31
0.0
  0
POLYLINE
  5
EB
100
AcDbEntity
  8
洗面器
  6
CONTINUOUS
 62
     3
100
AcDb2dPolyline
 66
     1
 10
0.0
 20
0.0
 30
0.0
 70
   128
  0
VERTEX
  5
EC
100
AcDbEntity
  8
洗面器
  6
CONTINUOUS
 62
     3
100
AcDbVertex
100
AcDb2dVertex
 10
864.166016
 20
1749.66507
 30
0.0
  0
VERTEX
  5
ED
100
AcDbEntity
  8
洗面器
  6
CONTINUOUS
 62
     3
100
AcDbVertex
100
AcDb2dVertex
 10
833.855194
 20
1767.16507
 30
0.0
  0
VERTEX
  5
EE
100
AcDbEntity
  8
洗面器
  6
CONTINUOUS
 62
     3
100
AcDbVertex
100
AcDb2dVertex
 10
851.355194
 20
1736.854248
 30
0.0
  0
SEQEND
  5
EF
100
AcDbEntity
  8
洗面器
  6
CONTINUOUS
 62
     3
  0
LINE
  5
F0
100
AcDbEntity
  8
洗面器
  6
CONTINUOUS
 62
     3
100
AcDbLine
 10
1144.981903
 20
1456.038513
 30
0.0
 11
833.855194
 21
1767.16507
 31
0.0
  0
POLYLINE
  5
F1
100
AcDbEntity
  8
洗面器
  6
CONTINUOUS
 62
     3
100
AcDb2dPolyline
 66
     1
 10
0.0
 20
0.0
 30
0.0
 70
   128
  0
VERTEX
  5
F2
100
AcDbEntity
  8
洗面器
  6
CONTINUOUS
 62
     3
100
AcDbVertex
100
AcDb2dVertex
 10
1438.35669
 20
1795.60379
 30
0.0
  0
VERTEX
  5
F3
100
AcDbEntity
  8
洗面器
  6
CONTINUOUS
 62
     3
100
AcDbVertex
100
AcDb2dVertex
 10
1447.415375
 20
1761.796417
 30
0.0
  0
VERTEX
  5
F4
100
AcDbEntity
  8
洗面器
  6
CONTINUOUS
 62
     3
100
AcDbVertex
100
AcDb2dVertex
 10
1456.47406
 20
1795.60379
 30
0.0
  0
SEQEND
  5
F5
100
AcDbEntity
  8
洗面器
  6
CONTINUOUS
 62
     3
  0
LINE
  5
F6
100
AcDbEntity
  8
洗面器
  6
CONTINUOUS
 62
     3
100
AcDbLine
 10
1417.113403
 20
1886.796417
 30
0.0
 11
1466.613525
 21
1886.796417
 31
0.0
  0
LINE
  5
F7
100
AcDbEntity
  8
洗面器
  6
CONTINUOUS
 62
     3
100
AcDbLine
 10
1417.113403
 20
1761.796417
 30
0.0
 11
1466.613525
 21
1761.796417
 31
0.0
  0
LINE
  5
F8
100
AcDbEntity
  8
洗面器
  6
CONTINUOUS
 62
     3
100
AcDbLine
 10
1290.31897
 20
1627.796783
 30
0.0
 11
1527.415375
 21
1627.796783
 31
0.0
  0
LINE
  5
F9
100
AcDbEntity
  8
洗面器
  6
CONTINUOUS
 62
     3
100
AcDbLine
 10
1288.419548
 20
1882.858437
 30
0.0
 11
1361.504578
 21
1809.773407
 31
0.0
  0
LINE
  5
FA
100
AcDbEntity
  8
洗面器
  6
CONTINUOUS
 62
     3
100
AcDbLine
 10
1129.590813
 20
1730.560005
 30
0.0
 11
1205.941071
 21
1654.209747
 31
0.0
  0
LINE
  5
FB
100
AcDbEntity
  8
洗面器
  6
CONTINUOUS
 62
     3
100
AcDbLine
 10
1139.678558
 20
1517.910156
 30
0.0
 11
1304.158543
 21
1682.389995
 31
0.0
  0
LINE
  5
FC
100
AcDbEntity
  8
洗面器
  6
CONTINUOUS
 62
     3
100
AcDbLine
 10
895.726685
 20
1761.861725
 30
0.0
 11
1060.206822
 21
1926.341716
 31
0.0
  0
LINE
  5
FD
100
AcDbEntity
  8
洗面器
  6
CONTINUOUS
 62
     3
100
AcDbLine
 10
819.712738
 20
1753.022613
 30
0.0
 11
1024.296333
 21
1957.606209
 31
0.0
  0
LINE
  5
FE
100
AcDbEntity
  8
洗面器
  6
CONTINUOUS
 62
     3
100
AcDbLine
 10
1130.8396
 20
1441.89621
 30
0.0
 11
1335.423042
 21
1646.479652
 31
0.0
  0
TEXT
  5
FF
100
AcDbEntity
  8
洗面器
  6
CONTINUOUS
 62
     2
100
AcDbText
 10
1443.915466
 20
1886.796112
 30
0.0
 40
40.0
  1
１１６
 50
90.0
 41
0.805
  7
EXCADSTD
 72
     5
 11
1443.915466
 21
2001.796112
 31
0.0
100
AcDbText
  0
TEXT
  5
100
100
AcDbEntity
  8
洗面器
  6
CONTINUOUS
 62
     2
100
AcDbText
 10
1503.915466
 20
1757.2966
 30
0.0
 40
40.0
  1
３７５
 50
90.0
 41
0.833
  7
EXCADSTD
 72
     5
 11
1503.915466
 21
1876.2966
 31
0.0
100
AcDbText
  0
TEXT
  5
101
100
AcDbEntity
  8
洗面器
  6
CONTINUOUS
 62
     2
100
AcDbText
 10
1224.918121
 20
1706.420593
 30
0.0
 40
40.0
  1
２２０
 50
45.000031
 41
0.833
  7
EXCADSTD
 72
     5
 11
1309.063783
 21
1790.566345
 31
0.0
100
AcDbText
  0
TEXT
  5
102
100
AcDbEntity
  8
洗面器
  6
CONTINUOUS
 62
     2
100
AcDbText
 10
993.944305
 20
1696.878662
 30
0.0
 40
40.0
  1
３４５
 50
315.0
 41
0.833
  7
EXCADSTD
 72
     5
 11
1078.090012
 21
1612.732955
 31
0.0
100
AcDbText
  0
TEXT
  5
103
100
AcDbEntity
  8
洗面器
  6
CONTINUOUS
 62
     2
100
AcDbText
 10
951.517853
 20
1654.451904
 30
0.0
 40
40.0
  1
４４０
 50
315.000031
 41
0.833
  7
EXCADSTD
 72
     5
 11
1035.663604
 21
1570.306242
 31
0.0
100
AcDbText
  0
ARC
  5
104
100
AcDbEntity
  8
洗面器
  6
CONTINUOUS
 62
     7
100
AcDbCircle
 10
1300.613464
 20
1724.806976
 30
0.0
 40
80.000095
100
AcDbArc
 50
315.0
 51
0.0
  0
ARC
  5
105
100
AcDbEntity
  8
洗面器
  6
CONTINUOUS
 62
     7
100
AcDbCircle
 10
1349.870972
 20
1976.87912
 30
0.0
 40
360.0
100
AcDbArc
 50
227.172333
 51
253.337143
  0
ARC
  5
106
100
AcDbEntity
  8
洗面器
  6
CONTINUOUS
 62
     7
100
AcDbCircle
 10
1275.31897
 20
1727.796783
 30
0.0
 40
100.000048
100
AcDbArc
 50
253.337143
 51
314.999939
  0
ARC
  5
107
100
AcDbEntity
  8
洗面器
  6
CONTINUOUS
 62
     7
100
AcDbCircle
 10
1315.613464
 20
1937.796478
 30
0.0
 40
50.0
100
AcDbArc
 50
0.0
 51
89.999969
  0
ARC
  5
108
100
AcDbEntity
  8
洗面器
  6
CONTINUOUS
 62
     2
100
AcDbCircle
 10
1315.613464
 20
1937.796478
 30
0.0
 40
43.000031
100
AcDbArc
 50
0.0
 51
89.999969
  0
LINE
  5
109
100
AcDbEntity
  8
洗面器
  6
CONTINUOUS
 62
     7
100
AcDbLine
 10
1097.523102
 20
1987.796478
 30
0.0
 11
1315.613464
 21
1987.796478
 31
0.0
  0
ARC
  5
10A
100
AcDbEntity
  8
洗面器
  6
CONTINUOUS
 62
     2
100
AcDbCircle
 10
1090.523132
 20
1900.796661
 30
0.0
 40
80.0
100
AcDbArc
 50
89.999969
 51
131.452774
  0
ARC
  5
10B
100
AcDbEntity
  8
洗面器
  6
CONTINUOUS
 62
     2
100
AcDbCircle
 10
1278.613342
 20
1712.706451
 30
0.0
 40
80.000038
100
AcDbArc
 50
318.547241
 51
0.0
  0
ARC
  5
10C
100
AcDbEntity
  8
洗面器
  6
CONTINUOUS
 62
     7
100
AcDbCircle
 10
1285.613312
 20
1719.706268
 30
0.0
 40
79.999933
100
AcDbArc
 50
311.452667
 51
0.0
  0
ARC
  5
10D
100
AcDbEntity
  8
洗面器
  6
CONTINUOUS
 62
     7
100
AcDbCircle
 10
1376.613525
 20
1998.796539
 30
0.0
 40
3.999939
100
AcDbArc
 50
0.0
 51
89.999969
  0
LINE
  5
10E
100
AcDbEntity
  8
洗面器
  6
CONTINUOUS
 62
     7
100
AcDbLine
 10
1346.029877
 20
1657.085876
 30
0.0
 11
1357.182068
 21
1668.23822
 31
0.0
  0
LINE
  5
10F
100
AcDbEntity
  8
洗面器
  6
CONTINUOUS
 62
     7
100
AcDbLine
 10
1046.055054
 20
1979.365082
 30
0.0
 11
1034.90271
 21
1968.212738
 31
0.0
  0
LINE
  5
110
100
AcDbEntity
  8
洗面器
  6
CONTINUOUS
 62
     7
100
AcDbLine
 10
1380.613617
 20
1724.806976
 30
0.0
 11
1380.613464
 21
1998.796539
 31
0.0
  0
LINE
  5
111
100
AcDbEntity
  8
洗面器
  6
CONTINUOUS
 62
     7
100
AcDbLine
 10
1102.623657
 20
2002.796631
 30
0.0
 11
1376.613525
 21
2002.796478
 31
0.0
  0
ARC
  5
112
100
AcDbEntity
  8
洗面器
  6
CONTINUOUS
 62
     7
100
AcDbCircle
 10
1288.689636
 20
1910.87265
 30
0.0
 40
270.0
100
AcDbArc
 50
222.827621
 51
227.172607
  0
ARC
  5
113
100
AcDbEntity
  8
洗面器
  6
CONTINUOUS
 62
     7
100
AcDbCircle
 10
1265.267395
 20
1742.494049
 30
0.0
 40
70.0
100
AcDbArc
 50
262.08078
 51
350.619263
  0
ARC
  5
114
100
AcDbEntity
  8
洗面器
  6
CONTINUOUS
 62
     7
100
AcDbCircle
 10
1097.523102
 20
1907.796478
 30
0.0
 40
80.0
100
AcDbArc
 50
89.999969
 51
138.547272
  0
ARC
  5
115
100
AcDbEntity
  8
洗面器
  6
CONTINUOUS
 62
     7
100
AcDbCircle
 10
1288.689636
 20
1910.87265
 30
0.0
 40
240.0
100
AcDbArc
 50
187.919189
 51
262.08078
  0
ARC
  5
116
100
AcDbEntity
  8
洗面器
  6
CONTINUOUS
 62
     7
100
AcDbCircle
 10
1185.332092
 20
1769.501495
 30
0.0
 40
150.0
100
AcDbArc
 50
17.613586
 51
32.055878
  0
ARC
  5
117
100
AcDbEntity
  8
洗面器
  6
CONTINUOUS
 62
     7
100
AcDbCircle
 10
1156.738648
 20
1760.423584
 30
0.0
 40
180.0
100
AcDbArc
 50
350.619207
 51
17.613647
  0
ARC
  5
118
100
AcDbEntity
  8
洗面器
  6
CONTINUOUS
 62
     7
100
AcDbCircle
 10
1105.613464
 20
1897.502136
 30
0.0
 40
99.999895
100
AcDbArc
 50
135.0
 51
196.662842
  0
ARC
  5
119
100
AcDbEntity
  8
洗面器
  6
CONTINUOUS
 62
     7
100
AcDbCircle
 10
1102.623657
 20
1922.796631
 30
0.0
 40
80.0
100
AcDbArc
 50
89.999969
 51
135.0
  0
ARC
  5
11A
100
AcDbEntity
  8
洗面器
  6
CONTINUOUS
 62
     7
100
AcDbCircle
 10
1120.31073
 20
1887.450714
 30
0.0
 40
69.999991
100
AcDbArc
 50
99.380783
 51
187.919113
  0
ARC
  5
11B
100
AcDbEntity
  8
洗面器
  6
CONTINUOUS
 62
     7
100
AcDbCircle
 10
1354.695801
 20
1972.054291
 30
0.0
 40
360.0
100
AcDbArc
 50
196.662872
 51
222.827621
  0
ARC
  5
11C
100
AcDbEntity
  8
洗面器
  6
CONTINUOUS
 62
     7
100
AcDbCircle
 10
1147.318176
 20
1807.515411
 30
0.0
 40
150.000057
100
AcDbArc
 50
57.944092
 51
72.386398
  0
ARC
  5
11D
100
AcDbEntity
  8
洗面器
  6
CONTINUOUS
 62
     7
100
AcDbCircle
 10
1138.240417
 20
1778.921814
 30
0.0
 40
180.0
100
AcDbArc
 50
72.386337
 51
99.380829
  0
ARC
  5
11E
100
AcDbEntity
  8
洗面器
  6
CONTINUOUS
 62
     7
100
AcDbCircle
 10
1083.628601
 20
1705.811615
 30
0.0
 40
270.0
100
AcDbArc
 50
32.056061
 51
42.695786
  0
ARC
  5
11F
100
AcDbEntity
  8
洗面器
  6
CONTINUOUS
 62
     7
100
AcDbCircle
 10
1083.628601
 20
1705.811615
 30
0.0
 40
270.0
100
AcDbArc
 50
57.456314
 51
57.944046
  0
LINE
  5
120
100
AcDbEntity
  8
洗面器
  6
CONTINUOUS
 62
     7
100
AcDbLine
 10
1365.613464
 20
1719.706421
 30
0.0
 11
1365.613464
 21
1937.796478
 31
0.0
  0
LINE
  5
121
100
AcDbEntity
  8
洗面器
  6
CONTINUOUS
 62
     2
100
AcDbLine
 10
1090.523132
 20
1980.796661
 30
0.0
 11
1131.593842
 21
1980.796661
 31
0.0
  0
LINE
  5
122
100
AcDbEntity
  8
洗面器
  6
CONTINUOUS
 62
     2
100
AcDbLine
 10
1147.632965
 20
1980.796661
 30
0.0
 11
1256.593842
 21
1980.796509
 31
0.0
  0
LINE
  5
123
100
AcDbEntity
  8
洗面器
  6
CONTINUOUS
 62
     2
100
AcDbLine
 10
1272.632965
 20
1980.796509
 30
0.0
 11
1315.613464
 21
1980.796509
 31
0.0
  0
LINE
  5
124
100
AcDbEntity
  8
洗面器
  6
CONTINUOUS
 62
     2
100
AcDbLine
 10
1358.613648
 20
1712.706451
 30
0.0
 11
1358.613648
 21
1753.776855
 31
0.0
  0
LINE
  5
125
100
AcDbEntity
  8
洗面器
  6
CONTINUOUS
 62
     2
100
AcDbLine
 10
1358.613495
 20
1769.815979
 30
0.0
 11
1358.613342
 21
1878.776855
 31
0.0
  0
LINE
  5
126
100
AcDbEntity
  8
洗面器
  6
CONTINUOUS
 62
     2
100
AcDbLine
 10
1358.613342
 20
1894.815979
 30
0.0
 11
1358.613342
 21
1937.796478
 31
0.0
  0
ARC
  5
127
100
AcDbEntity
  8
洗面器
  6
CONTINUOUS
 62
     6
100
AcDbCircle
 10
1139.613403
 20
1984.296417
 30
0.0
 40
7.5
100
AcDbArc
 50
180.0
 51
0.0
  0
ARC
  5
128
100
AcDbEntity
  8
洗面器
  6
CONTINUOUS
 62
     6
100
AcDbCircle
 10
1264.613403
 20
1984.296417
 30
0.0
 40
7.5
100
AcDbArc
 50
180.0
 51
0.0
  0
LINE
  5
129
100
AcDbEntity
  8
洗面器
  6
CONTINUOUS
 62
     6
100
AcDbLine
 10
1132.113403
 20
1984.296417
 30
0.0
 11
1147.113403
 21
1984.296417
 31
0.0
  0
LINE
  5
12A
100
AcDbEntity
  8
洗面器
  6
CONTINUOUS
 62
     6
100
AcDbLine
 10
1257.113403
 20
1984.296417
 30
0.0
 11
1272.113403
 21
1984.296417
 31
0.0
  0
ARC
  5
12B
100
AcDbEntity
  8
洗面器
  6
CONTINUOUS
 62
     6
100
AcDbCircle
 10
1362.113403
 20
1886.796417
 30
0.0
 40
7.5
100
AcDbArc
 50
90.0
 51
270.0
  0
ARC
  5
12C
100
AcDbEntity
  8
洗面器
  6
CONTINUOUS
 62
     6
100
AcDbCircle
 10
1362.113403
 20
1761.796417
 30
0.0
 40
7.5
100
AcDbArc
 50
90.0
 51
270.0
  0
LINE
  5
12D
100
AcDbEntity
  8
洗面器
  6
CONTINUOUS
 62
     6
100
AcDbLine
 10
1362.113403
 20
1754.296417
 30
0.0
 11
1362.113403
 21
1769.296417
 31
0.0
  0
LINE
  5
12E
100
AcDbEntity
  8
洗面器
  6
CONTINUOUS
 62
     6
100
AcDbLine
 10
1362.113403
 20
1879.296417
 30
0.0
 11
1362.113403
 21
1894.296417
 31
0.0
  0
CIRCLE
  5
12F
100
AcDbEntity
  8
洗面器
  6
CONTINUOUS
 62
     6
100
AcDbCircle
 10
1330.613464
 20
1895.796661
 30
0.0
 40
7.0
  0
CIRCLE
  5
130
100
AcDbEntity
  8
洗面器
  6
CONTINUOUS
 62
     6
100
AcDbCircle
 10
1330.613464
 20
1895.796661
 30
0.0
 40
5.0
  0
CIRCLE
  5
131
100
AcDbEntity
  8
洗面器
  6
CONTINUOUS
 62
     6
100
AcDbCircle
 10
1215.613922
 20
1837.796173
 30
0.0
 40
3.0
  0
LINE
  5
132
100
AcDbEntity
  8
洗面器
  6
CONTINUOUS
 62
     6
100
AcDbLine
 10
1211.371216
 20
1842.038879
 30
0.0
 11
1219.856628
 21
1833.553467
 31
0.0
  0
ARC
  5
133
100
AcDbEntity
  8
洗面器
  6
CONTINUOUS
 62
     6
100
AcDbCircle
 10
1325.522522
 20
1890.705719
 30
0.0
 40
7.2
100
AcDbArc
 50
85.635376
 51
4.36462
  0
ARC
  5
134
100
AcDbEntity
  8
洗面器
  6
CONTINUOUS
 62
     6
100
AcDbCircle
 10
1325.522522
 20
1890.705719
 30
0.0
 40
8.4
100
AcDbArc
 50
81.368423
 51
8.631582
  0
ARC
  5
135
100
AcDbEntity
  8
洗面器
  6
CONTINUOUS
 62
     6
100
AcDbCircle
 10
1220.705017
 20
1842.887421
 30
0.0
 40
7.2
100
AcDbArc
 50
249.05072
 51
200.951996
  0
ARC
  5
136
100
AcDbEntity
  8
洗面器
  6
CONTINUOUS
 62
     6
100
AcDbCircle
 10
1220.705017
 20
1842.887421
 30
0.0
 40
8.4
100
AcDbArc
 50
245.365082
 51
204.636292
  0
CIRCLE
  5
137
100
AcDbEntity
  8
洗面器
  6
CONTINUOUS
 62
     6
100
AcDbCircle
 10
1228.217224
 20
1850.399475
 30
0.0
 40
1.75
  0
CIRCLE
  5
138
100
AcDbEntity
  8
洗面器
  6
CONTINUOUS
 62
     6
100
AcDbCircle
 10
1231.389526
 20
1853.57193
 30
0.0
 40
1.75
  0
CIRCLE
  5
139
100
AcDbEntity
  8
洗面器
  6
CONTINUOUS
 62
     6
100
AcDbCircle
 10
1234.915222
 20
1856.676331
 30
0.0
 40
1.75
  0
CIRCLE
  5
13A
100
AcDbEntity
  8
洗面器
  6
CONTINUOUS
 62
     6
100
AcDbCircle
 10
1234.048828
 20
1861.698761
 30
0.0
 40
1.75
  0
CIRCLE
  5
13B
100
AcDbEntity
  8
洗面器
  6
CONTINUOUS
 62
     6
100
AcDbCircle
 10
1230.241913
 20
1864.599304
 30
0.0
 40
1.75
  0
CIRCLE
  5
13C
100
AcDbEntity
  8
洗面器
  6
CONTINUOUS
 62
     6
100
AcDbCircle
 10
1226.888336
 20
1867.953033
 30
0.0
 40
1.75
  0
CIRCLE
  5
13D
100
AcDbEntity
  8
洗面器
  6
CONTINUOUS
 62
     6
100
AcDbCircle
 10
1225.800537
 20
1872.212982
 30
0.0
 40
1.75
  0
CIRCLE
  5
13E
100
AcDbEntity
  8
洗面器
  6
CONTINUOUS
 62
     6
100
AcDbCircle
 10
1228.882355
 20
1876.019897
 30
0.0
 40
1.75
  0
CIRCLE
  5
13F
100
AcDbEntity
  8
洗面器
  6
CONTINUOUS
 62
     6
100
AcDbCircle
 10
1232.326721
 20
1872.847595
 30
0.0
 40
1.75
  0
CIRCLE
  5
140
100
AcDbEntity
  8
洗面器
  6
CONTINUOUS
 62
     6
100
AcDbCircle
 10
1234.9552
 20
1869.312592
 30
0.0
 40
1.75
  0
CIRCLE
  5
141
100
AcDbEntity
  8
洗面器
  6
CONTINUOUS
 62
     6
100
AcDbCircle
 10
1238.037018
 20
1865.777588
 30
0.0
 40
1.75
  0
CIRCLE
  5
142
100
AcDbEntity
  8
洗面器
  6
CONTINUOUS
 62
     6
100
AcDbCircle
 10
1240.665497
 20
1862.242584
 30
0.0
 40
1.75
  0
CIRCLE
  5
143
100
AcDbEntity
  8
洗面器
  6
CONTINUOUS
 62
     6
100
AcDbCircle
 10
1242.387756
 20
1857.891998
 30
0.0
 40
1.75
  0
CIRCLE
  5
144
100
AcDbEntity
  8
洗面器
  6
CONTINUOUS
 62
     6
100
AcDbCircle
 10
1243.747314
 20
1853.450623
 30
0.0
 40
1.75
  0
CIRCLE
  5
145
100
AcDbEntity
  8
洗面器
  6
CONTINUOUS
 62
     6
100
AcDbCircle
 10
1245.288147
 20
1848.827972
 30
0.0
 40
1.75
  0
CIRCLE
  5
146
100
AcDbEntity
  8
洗面器
  6
CONTINUOUS
 62
     6
100
AcDbCircle
 10
1248.369965
 20
1845.746155
 30
0.0
 40
1.75
  0
CIRCLE
  5
147
100
AcDbEntity
  8
洗面器
  6
CONTINUOUS
 62
     6
100
AcDbCircle
 10
1252.630066
 20
1843.661499
 30
0.0
 40
1.75
  0
CIRCLE
  5
148
100
AcDbEntity
  8
洗面器
  6
CONTINUOUS
 62
     6
100
AcDbCircle
 10
1257.343353
 20
1841.848602
 30
0.0
 40
1.75
  0
CIRCLE
  5
149
100
AcDbEntity
  8
洗面器
  6
CONTINUOUS
 62
     6
100
AcDbCircle
 10
1261.603455
 20
1839.945221
 30
0.0
 40
1.75
  0
CIRCLE
  5
14A
100
AcDbEntity
  8
洗面器
  6
CONTINUOUS
 62
     6
100
AcDbCircle
 10
1266.135315
 20
1838.766937
 30
0.0
 40
1.75
  0
CIRCLE
  5
14B
100
AcDbEntity
  8
洗面器
  6
CONTINUOUS
 62
     6
100
AcDbCircle
 10
1270.667328
 20
1839.220123
 30
0.0
 40
1.75
  0
CIRCLE
  5
14C
100
AcDbEntity
  8
洗面器
  6
CONTINUOUS
 62
     6
100
AcDbCircle
 10
1275.289978
 20
1840.851593
 30
0.0
 40
1.75
  0
CIRCLE
  5
14D
100
AcDbEntity
  8
洗面器
  6
CONTINUOUS
 62
     6
100
AcDbCircle
 10
1278.832916
 20
1844.016113
 30
0.0
 40
1.75
  0
CIRCLE
  5
14E
100
AcDbEntity
  8
洗面器
  6
CONTINUOUS
 62
     6
100
AcDbCircle
 10
1282.050537
 20
1847.233887
 30
0.0
 40
1.75
  0
CIRCLE
  5
14F
100
AcDbEntity
  8
洗面器
  6
CONTINUOUS
 62
     6
100
AcDbCircle
 10
1285.177673
 20
1850.36087
 30
0.0
 40
1.75
  0
CIRCLE
  5
150
100
AcDbEntity
  8
洗面器
  6
CONTINUOUS
 62
     6
100
AcDbCircle
 10
1288.440765
 20
1853.623962
 30
0.0
 40
1.75
  0
CIRCLE
  5
151
100
AcDbEntity
  8
洗面器
  6
CONTINUOUS
 62
     6
100
AcDbCircle
 10
1291.703705
 20
1856.887054
 30
0.0
 40
1.75
  0
CIRCLE
  5
152
100
AcDbEntity
  8
洗面器
  6
CONTINUOUS
 62
     6
100
AcDbCircle
 10
1294.785523
 20
1859.968719
 30
0.0
 40
1.75
  0
CIRCLE
  5
153
100
AcDbEntity
  8
洗面器
  6
CONTINUOUS
 62
     6
100
AcDbCircle
 10
1297.776703
 20
1862.9599
 30
0.0
 40
1.75
  0
CIRCLE
  5
154
100
AcDbEntity
  8
洗面器
  6
CONTINUOUS
 62
     6
100
AcDbCircle
 10
1300.971588
 20
1866.005249
 30
0.0
 40
1.75
  0
CIRCLE
  5
155
100
AcDbEntity
  8
洗面器
  6
CONTINUOUS
 62
     6
100
AcDbCircle
 10
1304.302734
 20
1869.485931
 30
0.0
 40
1.75
  0
CIRCLE
  5
156
100
AcDbEntity
  8
洗面器
  6
CONTINUOUS
 62
     6
100
AcDbCircle
 10
1307.656464
 20
1872.839661
 30
0.0
 40
1.75
  0
CIRCLE
  5
157
100
AcDbEntity
  8
洗面器
  6
CONTINUOUS
 62
     6
100
AcDbCircle
 10
1310.828766
 20
1876.011963
 30
0.0
 40
1.75
  0
CIRCLE
  5
158
100
AcDbEntity
  8
洗面器
  6
CONTINUOUS
 62
     6
100
AcDbCircle
 10
1313.955902
 20
1879.139099
 30
0.0
 40
1.75
  0
CIRCLE
  5
159
100
AcDbEntity
  8
洗面器
  6
CONTINUOUS
 62
     6
100
AcDbCircle
 10
1317.037567
 20
1882.220917
 30
0.0
 40
1.75
  0
CIRCLE
  5
15A
100
AcDbEntity
  8
洗面器
  6
CONTINUOUS
 62
     6
100
AcDbCircle
 10
1319.802155
 20
1884.985352
 30
0.0
 40
1.75
  0
ARC
  5
15B
100
AcDbEntity
  8
洗面器
  6
CONTINUOUS
 62
     7
100
AcDbCircle
 10
1083.629517
 20
1705.810699
 30
0.0
 40
270.0
100
AcDbArc
 50
47.304214
 51
57.943939
  0
LINE
  5
15C
100
AcDbEntity
  8
洗面器
  6
CONTINUOUS
 62
     6
100
AcDbLine
 10
1307.613434
 20
1990.7
 30
0.0
 11
1307.613434
 21
2028.796539
 31
0.0
  0
LINE
  5
15D
100
AcDbEntity
  8
洗面器
  6
CONTINUOUS
 62
     6
100
AcDbLine
 10
1307.613434
 20
1900.03952
 30
0.0
 11
1307.613434
 21
1958.7
 31
0.0
  0
LINE
  5
15E
100
AcDbEntity
  8
洗面器
  6
CONTINUOUS
 62
     6
100
AcDbLine
 10
1307.613434
 20
1970.7
 30
0.0
 11
1307.613434
 21
1978.7
 31
0.0
  0
POLYLINE
  5
15F
100
AcDbEntity
  8
洗面器
  6
CONTINUOUS
 62
     3
100
AcDb2dPolyline
 66
     1
 10
0.0
 20
0.0
 30
0.0
 70
   128
  0
VERTEX
  5
160
100
AcDbEntity
  8
洗面器
  6
CONTINUOUS
 62
     3
100
AcDbVertex
100
AcDb2dVertex
 10
1438.35669
 20
1968.989105
 30
0.0
  0
VERTEX
  5
161
100
AcDbEntity
  8
洗面器
  6
CONTINUOUS
 62
     3
100
AcDbVertex
100
AcDb2dVertex
 10
1447.415375
 20
2002.796478
 30
0.0
  0
VERTEX
  5
162
100
AcDbEntity
  8
洗面器
  6
CONTINUOUS
 62
     3
100
AcDbVertex
100
AcDb2dVertex
 10
1456.47406
 20
1968.989105
 30
0.0
  0
SEQEND
  5
163
100
AcDbEntity
  8
洗面器
  6
CONTINUOUS
 62
     3
  0
POLYLINE
  5
164
100
AcDbEntity
  8
洗面器
  6
CONTINUOUS
 62
     3
100
AcDb2dPolyline
 66
     1
 10
0.0
 20
0.0
 30
0.0
 70
   128
  0
VERTEX
  5
165
100
AcDbEntity
  8
洗面器
  6
CONTINUOUS
 62
     3
100
AcDbVertex
100
AcDb2dVertex
 10
1456.47406
 20
1920.60379
 30
0.0
  0
VERTEX
  5
166
100
AcDbEntity
  8
洗面器
  6
CONTINUOUS
 62
     3
100
AcDbVertex
100
AcDb2dVertex
 10
1447.415375
 20
1886.796417
 30
0.0
  0
VERTEX
  5
167
100
AcDbEntity
  8
洗面器
  6
CONTINUOUS
 62
     3
100
AcDbVertex
100
AcDb2dVertex
 10
1438.35669
 20
1920.60379
 30
0.0
  0
SEQEND
  5
168
100
AcDbEntity
  8
洗面器
  6
CONTINUOUS
 62
     3
  0
LINE
  5
169
100
AcDbEntity
  8
洗面器
  6
CONTINUOUS
 62
     3
100
AcDbLine
 10
1447.415375
 20
1761.796417
 30
0.0
 11
1447.415375
 21
2002.796478
 31
0.0
  0
TEXT
  5
16A
100
AcDbEntity
  8
洗面器
  6
CONTINUOUS
 62
     2
100
AcDbText
 10
1443.915466
 20
1768.973053
 30
0.0
 40
40.0
  1
１２５
 50
90.0
 41
0.805
  7
EXCADSTD
 72
     5
 11
1443.915466
 21
1883.973053
 31
0.0
100
AcDbText
  0
ARC
  5
16B
100
AcDbEntity
  8
洗面器
  6
CONTINUOUS
 62
     6
100
AcDbCircle
 10
1166.539158
 20
2021.067646
 30
0.0
 40
30.0
100
AcDbArc
 50
153.834961
 51
173.821533
  0
ARC
  5
16C
100
AcDbEntity
  8
洗面器
  6
CONTINUOUS
 62
     6
100
AcDbCircle
 10
1112.687534
 20
2021.067646
 30
0.0
 40
30.0
100
AcDbArc
 50
6.178467
 51
26.165039
  0
LINE
  5
16D
100
AcDbEntity
  8
洗面器
  6
CONTINUOUS
 62
     6
100
AcDbLine
 10
1142.513279
 20
2002.796559
 30
0.0
 11
1142.513279
 21
2024.296406
 31
0.0
  0
LINE
  5
16E
100
AcDbEntity
  8
洗面器
  6
CONTINUOUS
 62
     6
100
AcDbLine
 10
1136.713413
 20
2002.796563
 30
0.0
 11
1136.713413
 21
2024.296406
 31
0.0
  0
ARC
  5
16F
100
AcDbEntity
  8
洗面器
  6
CONTINUOUS
 62
     6
100
AcDbCircle
 10
1291.539158
 20
2021.067646
 30
0.0
 40
30.0
100
AcDbArc
 50
153.834961
 51
173.821533
  0
ARC
  5
170
100
AcDbEntity
  8
洗面器
  6
CONTINUOUS
 62
     6
100
AcDbCircle
 10
1237.687534
 20
2021.067646
 30
0.0
 40
30.0
100
AcDbArc
 50
6.178467
 51
26.165039
  0
LINE
  5
171
100
AcDbEntity
  8
洗面器
  6
CONTINUOUS
 62
     6
100
AcDbLine
 10
1267.513279
 20
2002.79649
 30
0.0
 11
1267.513279
 21
2024.296406
 31
0.0
  0
LINE
  5
172
100
AcDbEntity
  8
洗面器
  6
CONTINUOUS
 62
     6
100
AcDbLine
 10
1261.713413
 20
2002.796493
 30
0.0
 11
1261.713413
 21
2024.296406
 31
0.0
  0
ARC
  5
173
100
AcDbEntity
  8
洗面器
  6
CONTINUOUS
 62
     6
100
AcDbCircle
 10
1398.885548
 20
1788.721256
 30
0.0
 40
30.0
100
AcDbArc
 50
276.178467
 51
296.165039
  0
ARC
  5
174
100
AcDbEntity
  8
洗面器
  6
CONTINUOUS
 62
     6
100
AcDbCircle
 10
1398.885548
 20
1734.869633
 30
0.0
 40
30.0
100
AcDbArc
 50
63.834961
 51
83.821533
  0
ARC
  5
175
100
AcDbEntity
  8
洗面器
  6
CONTINUOUS
 62
     6
100
AcDbCircle
 10
1398.885548
 20
1913.721256
 30
0.0
 40
30.0
100
AcDbArc
 50
276.178467
 51
296.165039
  0
ARC
  5
176
100
AcDbEntity
  8
洗面器
  6
CONTINUOUS
 62
     6
100
AcDbCircle
 10
1398.885548
 20
1859.869633
 30
0.0
 40
30.0
100
AcDbArc
 50
63.834961
 51
83.821533
  0
LINE
  5
177
100
AcDbEntity
  8
洗面器
  6
CONTINUOUS
 62
     6
100
AcDbLine
 10
1380.614391
 20
1889.695377
 30
0.0
 11
1402.114307
 21
1889.695377
 31
0.0
  0
LINE
  5
178
100
AcDbEntity
  8
洗面器
  6
CONTINUOUS
 62
     6
100
AcDbLine
 10
1380.614395
 20
1883.895511
 30
0.0
 11
1402.114307
 21
1883.895511
 31
0.0
  0
LINE
  5
179
100
AcDbEntity
  8
洗面器
  6
CONTINUOUS
 62
     6
100
AcDbLine
 10
1380.614461
 20
1764.695377
 30
0.0
 11
1402.114307
 21
1764.695377
 31
0.0
  0
LINE
  5
17A
100
AcDbEntity
  8
洗面器
  6
CONTINUOUS
 62
     6
100
AcDbLine
 10
1380.614464
 20
1758.895511
 30
0.0
 11
1402.114307
 21
1758.895511
 31
0.0
  0
LINE
  5
17B
100
AcDbEntity
  8
洗面器
  6
EXLTYPE3
 62
     6
100
AcDbLine
 10
1086.908951
 20
1709.091049
 30
0.0
 11
1390.417542
 21
2012.59964
 31
0.0
  0
CIRCLE
  5
17C
100
AcDbEntity
  8
洗面器
  6
CONTINUOUS
 62
     2
100
AcDbCircle
 10
1180.613557
 20
1832.633073
 30
0.0
 40
12.592202
  0
POLYLINE
  5
17D
100
AcDbEntity
  8
洗面器
  6
CONTINUOUS
 62
     3
100
AcDb2dPolyline
 66
     1
 10
0.0
 20
0.0
 30
0.0
 70
   128
  0
VERTEX
  5
17E
100
AcDbEntity
  8
洗面器
  6
CONTINUOUS
 62
     3
100
AcDbVertex
100
AcDb2dVertex
 10
1114.670929
 20
1465.538513
 30
0.0
  0
VERTEX
  5
17F
100
AcDbEntity
  8
洗面器
  6
CONTINUOUS
 62
     3
100
AcDbVertex
100
AcDb2dVertex
 10
1144.981903
 20
1448.038513
 30
0.0
  0
VERTEX
  5
180
100
AcDbEntity
  8
洗面器
  6
CONTINUOUS
 62
     3
100
AcDbVertex
100
AcDb2dVertex
 10
1127.481903
 20
1478.349335
 30
0.0
  0
SEQEND
  5
181
100
AcDbEntity
  8
洗面器
  6
CONTINUOUS
 62
     3
  0
CIRCLE
  5
182
100
AcDbEntity
  8
洗面器
  6
CONTINUOUS
 62
     6
100
AcDbCircle
 10
1139.613556
 20
1240.618408
 30
0.0
 40
7.5
  0
ARC
  5
183
100
AcDbEntity
  8
洗面器
  6
CONTINUOUS
 62
     6
100
AcDbCircle
 10
1264.613556
 20
1240.618408
 30
0.0
 40
7.5
100
AcDbArc
 50
114.339852
 51
25.071362
  0
LINE
  5
184
100
AcDbEntity
  8
洗面器
  6
CONTINUOUS
 62
     6
100
AcDbLine
 10
1139.613556
 20
1258.118408
 30
0.0
 11
1139.613556
 21
1223.618591
 31
0.0
  0
LINE
  5
185
100
AcDbEntity
  8
洗面器
  6
CONTINUOUS
 62
     6
100
AcDbLine
 10
1247.113556
 20
1240.618408
 30
0.0
 11
1275.391144
 21
1240.618408
 31
0.0
  0
LINE
  5
186
100
AcDbEntity
  8
洗面器
  6
CONTINUOUS
 62
     6
100
AcDbLine
 10
1264.613556
 20
1244.845132
 30
0.0
 11
1264.613556
 21
1223.618591
 31
0.0
  0
LINE
  5
187
100
AcDbEntity
  8
洗面器
  6
CONTINUOUS
 62
     3
100
AcDbLine
 10
1417.113556
 20
1240.618408
 30
0.0
 11
1467.415375
 21
1240.618408
 31
0.0
  0
LINE
  5
188
100
AcDbEntity
  8
洗面器
  6
CONTINUOUS
 62
     6
100
AcDbLine
 10
1122.113556
 20
1240.618408
 30
0.0
 11
1157.113556
 21
1240.618408
 31
0.0
  0
LINE
  5
189
100
AcDbEntity
  8
洗面器
  6
CONTINUOUS
 62
     3
100
AcDbLine
 10
921.100372
 20
1270.589417
 30
0.0
 11
1160.268921
 21
1270.589417
 31
0.0
  0
LINE
  5
18A
100
AcDbEntity
  8
洗面器
  6
CONTINUOUS
 62
     3
100
AcDbLine
 10
801.100372
 20
1220.796478
 30
0.0
 11
1004.650787
 21
1220.796478
 31
0.0
  0
POLYLINE
  5
18B
100
AcDbEntity
  8
洗面器
  6
CONTINUOUS
 62
     3
100
AcDb2dPolyline
 66
     1
 10
0.0
 20
0.0
 30
0.0
 70
   128
  0
VERTEX
  5
18C
100
AcDbEntity
  8
洗面器
  6
CONTINUOUS
 62
     3
100
AcDbVertex
100
AcDb2dVertex
 10
1249.42099
 20
854.058685
 30
0.0
  0
VERTEX
  5
18D
100
AcDbEntity
  8
洗面器
  6
CONTINUOUS
 62
     3
100
AcDbVertex
100
AcDb2dVertex
 10
1215.613617
 20
845.0
 30
0.0
  0
VERTEX
  5
18E
100
AcDbEntity
  8
洗面器
  6
CONTINUOUS
 62
     3
100
AcDbVertex
100
AcDb2dVertex
 10
1249.42099
 20
835.941315
 30
0.0
  0
SEQEND
  5
18F
100
AcDbEntity
  8
洗面器
  6
CONTINUOUS
 62
     3
  0
POLYLINE
  5
190
100
AcDbEntity
  8
洗面器
  6
CONTINUOUS
 62
     3
100
AcDb2dPolyline
 66
     1
 10
0.0
 20
0.0
 30
0.0
 70
   128
  0
VERTEX
  5
191
100
AcDbEntity
  8
洗面器
  6
CONTINUOUS
 62
     3
100
AcDbVertex
100
AcDb2dVertex
 10
1346.806244
 20
835.941315
 30
0.0
  0
VERTEX
  5
192
100
AcDbEntity
  8
洗面器
  6
CONTINUOUS
 62
     3
100
AcDbVertex
100
AcDb2dVertex
 10
1380.613617
 20
845.0
 30
0.0
  0
VERTEX
  5
193
100
AcDbEntity
  8
洗面器
  6
CONTINUOUS
 62
     3
100
AcDbVertex
100
AcDb2dVertex
 10
1346.806244
 20
854.058685
 30
0.0
  0
SEQEND
  5
194
100
AcDbEntity
  8
洗面器
  6
CONTINUOUS
 62
     3
  0
LINE
  5
195
100
AcDbEntity
  8
洗面器
  6
CONTINUOUS
 62
     3
100
AcDbLine
 10
1215.613617
 20
845.0
 30
0.0
 11
1380.613617
 21
845.0
 31
0.0
  0
POLYLINE
  5
196
100
AcDbEntity
  8
洗面器
  6
CONTINUOUS
 62
     3
100
AcDb2dPolyline
 66
     1
 10
0.0
 20
0.0
 30
0.0
 70
   128
  0
VERTEX
  5
197
100
AcDbEntity
  8
洗面器
  6
CONTINUOUS
 62
     3
100
AcDbVertex
100
AcDb2dVertex
 10
1438.35669
 20
1304.425781
 30
0.0
  0
VERTEX
  5
198
100
AcDbEntity
  8
洗面器
  6
CONTINUOUS
 62
     3
100
AcDbVertex
100
AcDb2dVertex
 10
1447.415375
 20
1270.618408
 30
0.0
  0
VERTEX
  5
199
100
AcDbEntity
  8
洗面器
  6
CONTINUOUS
 62
     3
100
AcDbVertex
100
AcDb2dVertex
 10
1456.47406
 20
1304.425781
 30
0.0
  0
SEQEND
  5
19A
100
AcDbEntity
  8
洗面器
  6
CONTINUOUS
 62
     3
  0
POLYLINE
  5
19B
100
AcDbEntity
  8
洗面器
  6
CONTINUOUS
 62
     3
100
AcDb2dPolyline
 66
     1
 10
0.0
 20
0.0
 30
0.0
 70
   128
  0
VERTEX
  5
19C
100
AcDbEntity
  8
洗面器
  6
CONTINUOUS
 62
     3
100
AcDbVertex
100
AcDb2dVertex
 10
1456.47406
 20
1206.811035
 30
0.0
  0
VERTEX
  5
19D
100
AcDbEntity
  8
洗面器
  6
CONTINUOUS
 62
     3
100
AcDbVertex
100
AcDb2dVertex
 10
1447.415375
 20
1240.618408
 30
0.0
  0
VERTEX
  5
19E
100
AcDbEntity
  8
洗面器
  6
CONTINUOUS
 62
     3
100
AcDbVertex
100
AcDb2dVertex
 10
1438.35669
 20
1206.811035
 30
0.0
  0
SEQEND
  5
19F
100
AcDbEntity
  8
洗面器
  6
CONTINUOUS
 62
     3
  0
LINE
  5
1A0
100
AcDbEntity
  8
洗面器
  6
CONTINUOUS
 62
     3
100
AcDbLine
 10
1467.415375
 20
1270.618408
 30
0.0
 11
1385.613617
 21
1270.618408
 31
0.0
  0
POLYLINE
  5
1A1
100
AcDbEntity
  8
洗面器
  6
CONTINUOUS
 62
     3
100
AcDb2dPolyline
 66
     1
 10
0.0
 20
0.0
 30
0.0
 70
   128
  0
VERTEX
  5
1A2
100
AcDbEntity
  8
洗面器
  6
CONTINUOUS
 62
     3
100
AcDbVertex
100
AcDb2dVertex
 10
950.159058
 20
1186.989105
 30
0.0
  0
VERTEX
  5
1A3
100
AcDbEntity
  8
洗面器
  6
CONTINUOUS
 62
     3
100
AcDbVertex
100
AcDb2dVertex
 10
941.100372
 20
1220.796478
 30
0.0
  0
VERTEX
  5
1A4
100
AcDbEntity
  8
洗面器
  6
CONTINUOUS
 62
     3
100
AcDbVertex
100
AcDb2dVertex
 10
932.041687
 20
1186.989105
 30
0.0
  0
SEQEND
  5
1A5
100
AcDbEntity
  8
洗面器
  6
CONTINUOUS
 62
     3
  0
POLYLINE
  5
1A6
100
AcDbEntity
  8
洗面器
  6
CONTINUOUS
 62
     3
100
AcDb2dPolyline
 66
     1
 10
0.0
 20
0.0
 30
0.0
 70
   128
  0
VERTEX
  5
1A7
100
AcDbEntity
  8
洗面器
  6
CONTINUOUS
 62
     3
100
AcDbVertex
100
AcDb2dVertex
 10
932.041687
 20
1112.425964
 30
0.0
  0
VERTEX
  5
1A8
100
AcDbEntity
  8
洗面器
  6
CONTINUOUS
 62
     3
100
AcDbVertex
100
AcDb2dVertex
 10
941.100372
 20
1078.618591
 30
0.0
  0
VERTEX
  5
1A9
100
AcDbEntity
  8
洗面器
  6
CONTINUOUS
 62
     3
100
AcDbVertex
100
AcDb2dVertex
 10
950.159058
 20
1112.425964
 30
0.0
  0
SEQEND
  5
1AA
100
AcDbEntity
  8
洗面器
  6
CONTINUOUS
 62
     3
  0
LINE
  5
1AB
100
AcDbEntity
  8
洗面器
  6
CONTINUOUS
 62
     3
100
AcDbLine
 10
921.100372
 20
1078.618591
 30
0.0
 11
1177.349457
 21
1078.618591
 31
0.0
  0
POLYLINE
  5
1AC
100
AcDbEntity
  8
洗面器
  6
CONTINUOUS
 62
     3
100
AcDb2dPolyline
 66
     1
 10
0.0
 20
0.0
 30
0.0
 70
   128
  0
VERTEX
  5
1AD
100
AcDbEntity
  8
洗面器
  6
CONTINUOUS
 62
     3
100
AcDbVertex
100
AcDb2dVertex
 10
932.041687
 20
1304.39679
 30
0.0
  0
VERTEX
  5
1AE
100
AcDbEntity
  8
洗面器
  6
CONTINUOUS
 62
     3
100
AcDbVertex
100
AcDb2dVertex
 10
941.100372
 20
1270.589417
 30
0.0
  0
VERTEX
  5
1AF
100
AcDbEntity
  8
洗面器
  6
CONTINUOUS
 62
     3
100
AcDbVertex
100
AcDb2dVertex
 10
950.159058
 20
1304.39679
 30
0.0
  0
SEQEND
  5
1B0
100
AcDbEntity
  8
洗面器
  6
CONTINUOUS
 62
     3
  0
LINE
  5
1B1
100
AcDbEntity
  8
洗面器
  6
CONTINUOUS
 62
     3
100
AcDbLine
 10
941.100372
 20
1315.589417
 30
0.0
 11
941.100372
 21
1078.618591
 31
0.0
  0
TEXT
  5
1B2
100
AcDbEntity
  8
洗面器
  6
CONTINUOUS
 62
     2
100
AcDbText
 10
1443.915466
 20
1303.344238
 30
0.0
 40
40.0
  1
３０
 50
90.0
 41
0.861
  7
EXCADSTD
 72
     5
 11
1443.915466
 21
1378.505438
 31
0.0
100
AcDbText
  0
TEXT
  5
1B3
100
AcDbEntity
  8
洗面器
  6
CONTINUOUS
 62
     2
100
AcDbText
 10
1240.113739
 20
848.500061
 30
0.0
 40
40.0
  1
１６５
 41
0.833
  7
EXCADSTD
 72
     5
 11
1359.113739
 21
848.500061
 31
0.0
100
AcDbText
  0
TEXT
  5
1B4
100
AcDbEntity
  8
洗面器
  6
CONTINUOUS
 62
     2
100
AcDbText
 10
937.600311
 20
1091.707428
 30
0.0
 40
40.0
  1
１４２
 50
90.0
 41
0.833
  7
EXCADSTD
 72
     5
 11
937.600311
 21
1210.707428
 31
0.0
100
AcDbText
  0
TEXT
  5
1B5
100
AcDbEntity
  8
洗面器
  6
CONTINUOUS
 62
     2
100
AcDbText
 10
937.600311
 20
1212.707428
 30
0.0
 40
40.0
  1
５０
 50
90.0
 41
0.7875
  7
EXCADSTD
 72
     5
 11
937.600311
 21
1281.452428
 31
0.0
100
AcDbText
  0
ARC
  5
1B6
100
AcDbEntity
  8
洗面器
  6
CONTINUOUS
 62
     7
100
AcDbCircle
 10
1166.846527
 20
1104.526489
 30
0.0
 40
9.999976
100
AcDbArc
 50
8.056659
 51
85.13147
  0
ARC
  5
1B7
100
AcDbEntity
  8
洗面器
  6
CONTINUOUS
 62
     7
100
AcDbCircle
 10
1370.79184
 20
1264.6185
 30
0.0
 40
6.000061
100
AcDbArc
 50
89.999969
 51
171.607788
  0
ARC
  5
1B8
100
AcDbEntity
  8
洗面器
  6
CONTINUOUS
 62
     7
100
AcDbCircle
 10
1323.990082
 20
1262.542847
 30
0.0
 40
39.999981
100
AcDbArc
 50
270.974014
 51
351.60791
  0
ARC
  5
1B9
100
AcDbEntity
  8
洗面器
  6
CONTINUOUS
 62
     7
100
AcDbCircle
 10
1360.613617
 20
1269.337433
 30
0.0
 40
19.999981
100
AcDbArc
 50
325.147537
 51
0.0
  0
ARC
  5
1BA
100
AcDbEntity
  8
洗面器
  6
CONTINUOUS
 62
     7
100
AcDbCircle
 10
1294.961762
 20
1315.053833
 30
0.0
 40
99.999933
100
AcDbArc
 50
298.933136
 51
325.148224
  0
ARC
  5
1BB
100
AcDbEntity
  8
洗面器
  6
CONTINUOUS
 62
     7
100
AcDbCircle
 10
1012.613129
 20
1213.891571
 30
0.0
 40
6.999963
100
AcDbArc
 50
89.63028
 51
187.448395
  0
ARC
  5
1BC
100
AcDbEntity
  8
洗面器
  6
CONTINUOUS
 62
     7
100
AcDbCircle
 10
1018.763031
 20
1166.854065
 30
0.0
 40
6.999985
100
AcDbArc
 50
187.448456
 51
269.650269
  0
LINE
  5
1BD
100
AcDbEntity
  8
洗面器
  6
CONTINUOUS
 62
     7
100
AcDbLine
 10
1011.822113
 20
1165.946777
 30
0.0
 11
1005.672211
 21
1212.984131
 31
0.0
  0
ARC
  5
1BE
100
AcDbEntity
  8
洗面器
  6
CONTINUOUS
 62
     7
100
AcDbCircle
 10
1097.918304
 20
14480.431641
 30
0.0
 40
13320.810547
100
AcDbArc
 50
269.659439
 51
271.216125
  0
ARC
  5
1BF
100
AcDbEntity
  8
洗面器
  6
CONTINUOUS
 62
     7
100
AcDbCircle
 10
1064.395355
 20
723.618591
 30
0.0
 40
500.0
100
AcDbArc
 50
89.999969
 51
96.029068
  0
LINE
  5
1C0
100
AcDbEntity
  8
洗面器
  6
CONTINUOUS
 62
     7
100
AcDbLine
 10
1064.395355
 20
1223.618591
 30
0.0
 11
1333.203949
 21
1223.618591
 31
0.0
  0
ARC
  5
1C1
100
AcDbEntity
  8
洗面器
  6
CONTINUOUS
 62
     7
100
AcDbCircle
 10
1097.918304
 20
14541.430176
 30
0.0
 40
13320.810547
100
AcDbArc
 50
269.705338
 51
270.975372
  0
ARC
  5
1C2
100
AcDbEntity
  8
洗面器
  6
CONTINUOUS
 62
     7
100
AcDbCircle
 10
1021.787933
 20
1271.965759
 30
0.0
 40
49.999962
100
AcDbArc
 50
274.442978
 51
308.526688
  0
ARC
  5
1C3
100
AcDbEntity
  8
洗面器
  6
CONTINUOUS
 62
     7
100
AcDbCircle
 10
1146.363129
 20
1115.501678
 30
0.0
 40
149.999991
100
AcDbArc
 50
96.290146
 51
128.526443
  0
ARC
  5
1C4
100
AcDbEntity
  8
洗面器
  6
CONTINUOUS
 62
     7
100
AcDbCircle
 10
1239.488129
 20
270.618408
 30
0.0
 40
1000.0
100
AcDbArc
 50
89.999969
 51
96.289978
  0
ARC
  5
1C5
100
AcDbEntity
  8
洗面器
  6
CONTINUOUS
 62
     7
100
AcDbCircle
 10
1041.978363
 20
1152.736023
 30
0.0
 40
6.999977
100
AcDbArc
 50
55.13382
 51
89.760162
  0
ARC
  5
1C6
100
AcDbEntity
  8
洗面器
  6
CONTINUOUS
 62
     7
100
AcDbCircle
 10
1188.914398
 20
1363.588379
 30
0.0
 40
250.0
100
AcDbArc
 50
235.128738
 51
265.131088
  0
ARC
  5
1C7
100
AcDbEntity
  8
洗面器
  6
CONTINUOUS
 62
     7
100
AcDbCircle
 10
1182.349457
 20
1080.618408
 30
0.0
 40
2.000026
100
AcDbArc
 50
188.056549
 51
270.000031
  0
LINE
  5
1C8
100
AcDbEntity
  8
洗面器
  6
CONTINUOUS
 62
     7
100
AcDbLine
 10
1180.369476
 20
1080.338257
 30
0.0
 11
1176.748871
 21
1105.928162
 31
0.0
  0
LINE
  5
1C9
100
AcDbEntity
  8
洗面器
  6
CONTINUOUS
 62
     7
100
AcDbLine
 10
1182.349457
 20
1078.618591
 30
0.0
 11
1248.877777
 21
1078.618591
 31
0.0
  0
ARC
  5
1CA
100
AcDbEntity
  8
洗面器
  6
CONTINUOUS
 62
     7
100
AcDbCircle
 10
1215.613617
 20
1611.165283
 30
0.0
 40
500.0
100
AcDbArc
 50
265.986053
 51
275.610397
  0
ARC
  5
1CB
100
AcDbEntity
  8
洗面器
  6
CONTINUOUS
 62
     7
100
AcDbCircle
 10
1339.805512
 20
1154.814117
 30
0.0
 40
6.999922
100
AcDbArc
 50
91.04921
 51
150.130447
  0
ARC
  5
1CC
100
AcDbEntity
  8
洗面器
  6
CONTINUOUS
 62
     7
100
AcDbCircle
 10
1255.694183
 20
1203.129394
 30
0.0
 40
90.000067
100
AcDbArc
 50
275.610397
 51
330.126221
  0
ARC
  5
1CD
100
AcDbEntity
  8
洗面器
  6
CONTINUOUS
 62
     7
100
AcDbCircle
 10
1217.432465
 20
1177.701233
 30
0.0
 40
99.999943
100
AcDbArc
 50
288.37706
 51
329.486343
  0
ARC
  5
1CE
100
AcDbEntity
  8
洗面器
  6
CONTINUOUS
 62
     7
100
AcDbCircle
 10
1255.847992
 20
1079.981201
 30
0.0
 40
5.000026
100
AcDbArc
 50
111.46698
 51
174.776932
  0
ARC
  5
1CF
100
AcDbEntity
  8
洗面器
  6
CONTINUOUS
 62
     7
100
AcDbCircle
 10
1248.877777
 20
1080.618408
 30
0.0
 40
1.99997
100
AcDbArc
 50
270.000031
 51
354.777863
  0
LINE
  5
1D0
100
AcDbEntity
  8
洗面器
  6
CONTINUOUS
 62
     7
100
AcDbLine
 10
1364.859222
 20
1265.493897
 30
0.0
 11
1363.560394
 21
1256.704987
 31
0.0
  0
LINE
  5
1D1
100
AcDbEntity
  8
洗面器
  6
CONTINUOUS
 62
     7
100
AcDbLine
 10
1239.488129
 20
1270.618408
 30
0.0
 11
1297.702649
 21
1270.618408
 31
0.0
  0
LINE
  5
1D2
100
AcDbEntity
  8
洗面器
  6
CONTINUOUS
 62
     7
100
AcDbLine
 10
1317.524111
 20
1270.618408
 30
0.0
 11
1380.613617
 21
1270.618408
 31
0.0
  0
LINE
  5
1D3
100
AcDbEntity
  8
洗面器
  6
CONTINUOUS
 62
     3
100
AcDbLine
 10
1447.415375
 20
1369.0
 30
0.0
 11
1447.415375
 21
1195.618408
 31
0.0
  0
ARC
  5
1D4
100
AcDbEntity
  8
洗面器
  6
CONTINUOUS
 62
     6
100
AcDbCircle
 10
1398.884702
 20
1213.692613
 30
0.0
 40
30.0
100
AcDbArc
 50
63.834961
 51
83.821533
  0
ARC
  5
1D5
100
AcDbEntity
  8
洗面器
  6
CONTINUOUS
 62
     6
100
AcDbCircle
 10
1398.884702
 20
1267.544236
 30
0.0
 40
30.0
100
AcDbArc
 50
276.178467
 51
296.165039
  0
LINE
  5
1D6
100
AcDbEntity
  8
洗面器
  6
CONTINUOUS
 62
     6
100
AcDbLine
 10
1380.613546
 20
1237.718492
 30
0.0
 11
1402.113462
 21
1237.718492
 31
0.0
  0
LINE
  5
1D7
100
AcDbEntity
  8
洗面器
  6
CONTINUOUS
 62
     6
100
AcDbLine
 10
1380.613549
 20
1243.518357
 30
0.0
 11
1402.113462
 21
1243.518357
 31
0.0
  0
LINE
  5
1D8
100
AcDbEntity
  8
洗面器
  6
CONTINUOUS
 62
     6
100
AcDbLine
 10
793.0
 20
1335.750092
 30
0.0
 11
1042.509674
 21
1335.750092
 31
0.0
  0
TEXT
  5
1D9
100
AcDbEntity
  8
洗面器
  6
CONTINUOUS
 62
     2
100
AcDbText
 10
791.509673
 20
1339.250153
 30
0.0
 40
40.0
  1
ＮＴ７Ａ（４）
 41
0.801
  7
EXCADSTD
 72
     5
 11
1058.509673
 21
1339.250153
 31
0.0
100
AcDbText
  0
LEADER
  5
1DA
100
AcDbEntity
  8
水栓
  6
CONTINUOUS
 62
     6
100
AcDbLeader
  3
STANDARD
 73
     3
 74
     1
 75
     0
 40
0.0
 76
     2
 10
1293.373303
 20
1291.748403
 30
0.0
 10
1248.120297
 20
1359.423825
 30
0.0
 77
     6
1001
ACAD
1000
DSTYLE
1002
{
1070
    41
1040
35.0
1070
     5
1000
_EX_NORM
1070
     6
1000
_EX_NORM
1070
     7
1000
_EX_NORM
1070
   341
1005
2C
1002
}
  0
CIRCLE
  5
1DB
100
AcDbEntity
  8
水栓
  6
CONTINUOUS
 62
     6
100
AcDbCircle
 10
1307.613281
 20
1929.796183
 30
0.0
 40
5.500031
  0
CIRCLE
  5
1DC
100
AcDbEntity
  8
水栓
  6
CONTINUOUS
 62
     6
100
AcDbCircle
 10
1307.613281
 20
1929.796183
 30
0.0
 40
6.99997
  0
ARC
  5
1DD
100
AcDbEntity
  8
水栓
  6
CONTINUOUS
 62
     6
100
AcDbCircle
 10
1307.613281
 20
1929.796183
 30
0.0
 40
20.000038
100
AcDbArc
 50
293.535767
 51
335.662216
  0
ARC
  5
1DE
100
AcDbEntity
  8
水栓
  6
CONTINUOUS
 62
     6
100
AcDbCircle
 10
1307.613434
 20
1929.796448
 30
0.0
 40
19.999981
100
AcDbArc
 50
24.336487
 51
95.662903
  0
ARC
  5
1DF
100
AcDbEntity
  8
水栓
  6
CONTINUOUS
 62
     6
100
AcDbCircle
 10
1307.613281
 20
1929.796183
 30
0.0
 40
19.999943
100
AcDbArc
 50
144.337341
 51
156.464539
  0
LINE
  5
1E0
100
AcDbEntity
  8
水栓
  6
CONTINUOUS
 62
     6
100
AcDbLine
 10
1299.254232
 20
1903.803604
 30
0.0
 11
1310.810568
 21
1914.824708
 31
0.0
  0
ARC
  5
1E1
100
AcDbEntity
  8
水栓
  6
CONTINUOUS
 62
     6
100
AcDbCircle
 10
1324.613523
 20
1900.351391
 30
0.0
 40
20.000029
100
AcDbArc
 50
106.357666
 51
133.641922
  0
LINE
  5
1E2
100
AcDbEntity
  8
水栓
  6
CONTINUOUS
 62
     6
100
AcDbLine
 10
1318.980857
 20
1919.54186
 30
0.0
 11
1334.303054
 21
1924.039058
 31
0.0
  0
ARC
  5
1E3
100
AcDbEntity
  8
水栓
  6
CONTINUOUS
 62
     6
100
AcDbCircle
 10
1332.613334
 20
1929.796153
 30
0.0
 40
5.999942
100
AcDbArc
 50
286.357086
 51
73.643311
  0
LINE
  5
1E4
100
AcDbEntity
  8
水栓
  6
CONTINUOUS
 62
     6
100
AcDbLine
 10
1334.303033
 20
1935.553304
 30
0.0
 11
1318.980648
 21
1940.050531
 31
0.0
  0
ARC
  5
1E5
100
AcDbEntity
  8
水栓
  6
CONTINUOUS
 62
     6
100
AcDbCircle
 10
1324.613251
 20
1959.240994
 30
0.0
 40
19.999962
100
AcDbArc
 50
226.356094
 51
253.642532
  0
LINE
  5
1E6
100
AcDbEntity
  8
水栓
  6
CONTINUOUS
 62
     6
100
AcDbLine
 10
1310.809803
 20
1944.768147
 30
0.0
 11
1299.254502
 21
1955.788935
 31
0.0
  0
ARC
  5
1E7
100
AcDbEntity
  8
水栓
  6
CONTINUOUS
 62
     6
100
AcDbCircle
 10
1295.113513
 20
1951.447037
 30
0.0
 40
5.99999
100
AcDbArc
 50
46.356705
 51
193.641891
  0
LINE
  5
1E8
100
AcDbEntity
  8
水栓
  6
CONTINUOUS
 62
     6
100
AcDbLine
 10
1289.28273
 20
1950.031907
 30
0.0
 11
1293.0491
 21
1934.513215
 31
0.0
  0
ARC
  5
1E9
100
AcDbEntity
  8
水栓
  6
CONTINUOUS
 62
     6
100
AcDbCircle
 10
1273.613278
 20
1929.796221
 30
0.0
 40
20.000019
100
AcDbArc
 50
346.357117
 51
13.641693
  0
LINE
  5
1EA
100
AcDbEntity
  8
水栓
  6
CONTINUOUS
 62
     6
100
AcDbLine
 10
1293.048995
 20
1925.078828
 30
0.0
 11
1289.282572
 21
1909.560745
 31
0.0
  0
ARC
  5
1EB
100
AcDbEntity
  8
水栓
  6
CONTINUOUS
 62
     6
100
AcDbCircle
 10
1295.113281
 20
1908.145548
 30
0.0
 40
5.999997
100
AcDbArc
 50
166.357315
 51
313.6427
  0
LINE
  5
1EC
100
AcDbEntity
  8
水栓
  6
CONTINUOUS
 62
     6
100
AcDbLine
 10
1245.180145
 20
1879.383734
 30
0.0
 11
1265.350759
 21
1899.554333
 31
0.0
  0
ARC
  5
1ED
100
AcDbEntity
  8
水栓
  6
CONTINUOUS
 62
     6
100
AcDbCircle
 10
1099.180718
 20
2065.724365
 30
0.0
 40
235.0
100
AcDbArc
 50
315.000017
 51
325.591929
  0
ARC
  5
1EE
100
AcDbEntity
  8
水栓
  6
CONTINUOUS
 62
     6
100
AcDbCircle
 10
1443.542445
 20
1721.364299
 30
0.0
 40
235.0
100
AcDbArc
 50
129.638947
 51
135.000046
  0
LINE
  5
1EF
100
AcDbEntity
  8
水栓
  6
CONTINUOUS
 62
     6
100
AcDbLine
 10
1257.200916
 20
1867.362828
 30
0.0
 11
1277.372405
 21
1887.534331
 31
0.0
  0
ARC
  5
1F0
100
AcDbEntity
  8
水栓
  6
CONTINUOUS
 62
     6
100
AcDbCircle
 10
1165.50715
 20
1991.690319
 30
0.0
 40
134.999924
100
AcDbArc
 50
315.000034
 51
336.464542
  0
LINE
  5
1F1
100
AcDbEntity
  8
水栓
  6
CONTINUOUS
 62
     6
100
AcDbLine
 10
1246.052839
 20
1881.317342
 30
0.0
 11
1260.966559
 21
1896.231
 31
0.0
  0
ARC
  5
1F2
100
AcDbEntity
  8
水栓
  6
CONTINUOUS
 62
     6
100
AcDbCircle
 10
1248.174221
 20
1879.19609
 30
0.0
 40
2.999996
100
AcDbArc
 50
135.001785
 51
203.427322
  0
ARC
  5
1F3
100
AcDbEntity
  8
水栓
  6
CONTINUOUS
 62
     6
100
AcDbCircle
 10
1263.772614
 20
1885.955427
 30
0.0
 40
20.000029
100
AcDbArc
 50
203.428574
 51
246.571426
  0
ARC
  5
1F4
100
AcDbEntity
  8
水栓
  6
CONTINUOUS
 62
     6
100
AcDbCircle
 10
1257.013325
 20
1870.357003
 30
0.0
 40
3.000056
100
AcDbArc
 50
246.571259
 51
314.998947
  0
LINE
  5
1F5
100
AcDbEntity
  8
水栓
  6
CONTINUOUS
 62
     6
100
AcDbLine
 10
1259.134631
 20
1868.235619
 30
0.0
 11
1274.048865
 21
1883.149862
 31
0.0
  0
ARC
  5
1F6
100
AcDbEntity
  8
水栓
  6
CONTINUOUS
 62
     6
100
AcDbCircle
 10
1369.508274
 20
1787.690543
 30
0.0
 40
135.000095
100
AcDbArc
 50
113.535873
 51
135.000046
  0
ARC
  5
1F7
100
AcDbEntity
  8
水栓
  6
CONTINUOUS
 62
     6
100
AcDbCircle
 10
1172.143387
 20
1197.622498
 30
0.0
 40
120.000057
100
AcDbArc
 50
12.511409
 51
23.653809
  0
LINE
  5
1F8
100
AcDbEntity
  8
水栓
  6
CONTINUOUS
 62
     6
100
AcDbLine
 10
1301.317886
 20
1258.296478
 30
0.0
 11
1319.61348
 21
1258.296478
 31
0.0
  0
LINE
  5
1F9
100
AcDbEntity
  8
水栓
  6
CONTINUOUS
 62
     6
100
AcDbLine
 10
1281.142563
 20
1243.796509
 30
0.0
 11
1284.123825
 21
1250.189941
 31
0.0
  0
LINE
  5
1FA
100
AcDbEntity
  8
水栓
  6
CONTINUOUS
 62
     6
100
AcDbLine
 10
1276.11174
 20
1247.796448
 30
0.0
 11
1281.147141
 21
1258.594788
 31
0.0
  0
ARC
  5
1FB
100
AcDbEntity
  8
水栓
  6
CONTINUOUS
 62
     6
100
AcDbCircle
 10
1273.146194
 20
1255.425079
 30
0.0
 40
7.499957
100
AcDbArc
 50
103.159515
 51
154.999115
  0
ARC
  5
1FC
100
AcDbEntity
  8
水栓
  6
CONTINUOUS
 62
     6
100
AcDbCircle
 10
1280.545334
 20
1223.778503
 30
0.0
 40
40.0
100
AcDbArc
 50
76.840332
 51
103.159668
  0
LINE
  5
1FD
100
AcDbEntity
  8
水栓
  6
CONTINUOUS
 62
     6
100
AcDbLine
 10
1266.348862
 20
1258.594788
 30
0.0
 11
1261.113724
 21
1247.796448
 31
0.0
  0
ARC
  5
1FE
100
AcDbEntity
  8
水栓
  6
CONTINUOUS
 62
     6
100
AcDbCircle
 10
1226.036209
 20
1148.964355
 30
0.0
 40
119.999971
100
AcDbArc
 50
38.471025
 51
58.68689
  0
ARC
  5
1FF
100
AcDbEntity
  8
水栓
  6
CONTINUOUS
 62
     6
100
AcDbCircle
 10
1286.842789
 20
1248.922089
 30
0.0
 40
2.999999
100
AcDbArc
 50
58.68689
 51
155.000366
  0
LINE
  5
200
100
AcDbEntity
  8
水栓
  6
CONTINUOUS
 62
     6
100
AcDbLine
 10
1290.648636
 20
1262.420624
 30
0.0
 11
1315.002731
 21
1253.006714
 31
0.0
  0
ARC
  5
201
100
AcDbEntity
  8
水栓
  6
CONTINUOUS
 62
     6
100
AcDbCircle
 10
1287.944473
 20
1255.425079
 30
0.0
 40
7.50001
100
AcDbArc
 50
68.865677
 51
154.999603
  0
LINE
  5
202
100
AcDbEntity
  8
水栓
  6
CONTINUOUS
 62
     6
100
AcDbLine
 10
1261.113724
 20
1247.796448
 30
0.0
 11
1276.111893
 21
1247.796448
 31
0.0
  0
LINE
  5
203
100
AcDbEntity
  8
水栓
  6
CONTINUOUS
 62
     6
100
AcDbLine
 10
1276.111893
 20
1247.796448
 30
0.0
 11
1281.142563
 21
1243.796509
 31
0.0
  0
LINE
  5
204
100
AcDbEntity
  8
水栓
  6
CONTINUOUS
 62
     6
100
AcDbLine
 10
1265.857071
 20
1243.796509
 30
0.0
 11
1281.142563
 21
1243.796509
 31
0.0
  0
LINE
  5
205
100
AcDbEntity
  8
水栓
  6
CONTINUOUS
 62
     6
100
AcDbLine
 10
1261.113724
 20
1247.796448
 30
0.0
 11
1265.857071
 21
1243.796509
 31
0.0
  0
LINE
  5
206
100
AcDbEntity
  8
水栓
  6
CONTINUOUS
 62
     6
100
AcDbLine
 10
1319.61348
 20
1258.296478
 30
0.0
 11
1319.61348
 21
1259.546478
 31
0.0
  0
LINE
  5
207
100
AcDbEntity
  8
水栓
  6
CONTINUOUS
 62
     6
100
AcDbLine
 10
1319.61348
 20
1258.296478
 30
0.0
 11
1327.011457
 21
1223.618591
 31
0.0
  0
LINE
  5
208
100
AcDbEntity
  8
水栓
  6
CONTINUOUS
 62
     6
100
AcDbLine
 10
1312.363571
 20
1272.446411
 30
0.0
 11
1312.363571
 21
1280.946472
 31
0.0
  0
LINE
  5
209
100
AcDbEntity
  8
水栓
  6
CONTINUOUS
 62
     6
100
AcDbLine
 10
1302.863449
 20
1272.446411
 30
0.0
 11
1302.863449
 21
1280.946472
 31
0.0
  0
LINE
  5
20A
100
AcDbEntity
  8
水栓
  6
CONTINUOUS
 62
     6
100
AcDbLine
 10
1313.613571
 20
1280.946472
 30
0.0
 11
1313.105148
 21
1285.08786
 31
0.0
  0
ARC
  5
20B
100
AcDbEntity
  8
水栓
  6
CONTINUOUS
 62
     6
100
AcDbCircle
 10
1307.61351
 20
1284.413574
 30
0.0
 40
5.532779
100
AcDbArc
 50
7.000167
 51
172.999832
  0
LINE
  5
20C
100
AcDbEntity
  8
水栓
  6
CONTINUOUS
 62
     6
100
AcDbLine
 10
1301.613449
 20
1280.946472
 30
0.0
 11
1302.122025
 21
1285.08786
 31
0.0
  0
LINE
  5
20D
100
AcDbEntity
  8
水栓
  6
CONTINUOUS
 62
     6
100
AcDbLine
 10
1279.963058
 20
1280.946472
 30
0.0
 11
1335.264114
 21
1280.946472
 31
0.0
  0
ARC
  5
20E
100
AcDbEntity
  8
水栓
  6
CONTINUOUS
 62
     6
100
AcDbCircle
 10
1307.61351
 20
1279.362457
 30
0.0
 40
17.083826
100
AcDbArc
 50
65.811432
 51
114.188568
  0
ARC
  5
20F
100
AcDbEntity
  8
水栓
  6
CONTINUOUS
 62
     6
100
AcDbCircle
 10
1328.750137
 20
1284.765289
 30
0.0
 40
6.0
100
AcDbArc
 50
6.99977
 51
81.190689
  0
LINE
  5
210
100
AcDbEntity
  8
水栓
  6
CONTINUOUS
 62
     6
100
AcDbLine
 10
1335.264114
 20
1280.946472
 30
0.0
 11
1334.70549
 21
1285.49649
 31
0.0
  0
ARC
  5
211
100
AcDbEntity
  8
水栓
  6
CONTINUOUS
 62
     6
100
AcDbCircle
 10
1299.042648
 20
1093.053406
 30
0.0
 40
200.0
100
AcDbArc
 50
81.191528
 51
85.534775
  0
ARC
  5
212
100
AcDbEntity
  8
水栓
  6
CONTINUOUS
 62
     6
100
AcDbCircle
 10
1286.477036
 20
1284.765442
 30
0.0
 40
6.0
100
AcDbArc
 50
98.807861
 51
173.000229
  0
ARC
  5
213
100
AcDbEntity
  8
水栓
  6
CONTINUOUS
 62
     6
100
AcDbCircle
 10
1316.184677
 20
1093.053558
 30
0.0
 40
200.0
100
AcDbArc
 50
94.465317
 51
98.808472
  0
LINE
  5
214
100
AcDbEntity
  8
水栓
  6
CONTINUOUS
 62
     6
100
AcDbLine
 10
1279.963058
 20
1280.946472
 30
0.0
 11
1280.521683
 21
1285.496643
 31
0.0
  0
LINE
  5
215
100
AcDbEntity
  8
水栓
  6
CONTINUOUS
 62
     6
100
AcDbLine
 10
1300.613541
 20
1292.446411
 30
0.0
 11
1314.61348
 21
1292.446411
 31
0.0
  0
LINE
  5
216
100
AcDbEntity
  8
水栓
  6
CONTINUOUS
 62
     6
100
AcDbLine
 10
1300.613541
 20
1294.946411
 30
0.0
 11
1314.61348
 21
1294.946411
 31
0.0
  0
LINE
  5
217
100
AcDbEntity
  8
水栓
  6
CONTINUOUS
 62
     6
100
AcDbLine
 10
1314.61348
 20
1294.946411
 30
0.0
 11
1314.61348
 21
1292.446411
 31
0.0
  0
LINE
  5
218
100
AcDbEntity
  8
水栓
  6
CONTINUOUS
 62
     6
100
AcDbLine
 10
1300.613541
 20
1294.946411
 30
0.0
 11
1300.613541
 21
1292.446411
 31
0.0
  0
ARC
  5
219
100
AcDbEntity
  8
水栓
  6
CONTINUOUS
 62
     6
100
AcDbCircle
 10
1298.863434
 20
1263.321503
 30
0.0
 40
5.500047
100
AcDbArc
 50
122.777451
 51
140.599655
  0
LINE
  5
21A
100
AcDbEntity
  8
水栓
  6
CONTINUOUS
 62
     6
100
AcDbLine
 10
1302.313293
 20
1272.446411
 30
0.0
 11
1295.885834
 21
1267.945831
 31
0.0
  0
LINE
  5
21B
100
AcDbEntity
  8
水栓
  6
CONTINUOUS
 62
     6
100
AcDbLine
 10
1302.313293
 20
1272.446411
 30
0.0
 11
1312.913422
 21
1272.446411
 31
0.0
  0
LINE
  5
21C
100
AcDbEntity
  8
水栓
  6
CONTINUOUS
 62
     6
100
AcDbLine
 10
1319.340118
 20
1267.946442
 30
0.0
 11
1312.913422
 21
1272.446411
 31
0.0
  0
ARC
  5
21D
100
AcDbEntity
  8
水栓
  6
CONTINUOUS
 62
     6
100
AcDbCircle
 10
1316.363434
 20
1263.321503
 30
0.0
 40
5.500022
100
AcDbArc
 50
39.400345
 51
57.234024
  0
LINE
  5
21E
100
AcDbEntity
  8
水栓
  6
CONTINUOUS
 62
     6
100
AcDbLine
 10
1319.340118
 20
1267.946442
 30
0.0
 11
1295.886749
 21
1267.946442
 31
0.0
  0
POLYLINE
  5
21F
100
AcDbEntity
  8
水栓
  6
CONTINUOUS
 62
     6
100
AcDb2dPolyline
 66
     1
 10
0.0
 20
0.0
 30
0.0
 70
   128
  0
VERTEX
  5
220
100
AcDbEntity
  8
水栓
  6
CONTINUOUS
 62
     6
100
AcDbVertex
100
AcDb2dVertex
 10
1309.059051
 20
1263.321655
 30
0.0
  0
VERTEX
  5
221
100
AcDbEntity
  8
水栓
  6
CONTINUOUS
 62
     6
100
AcDbVertex
100
AcDb2dVertex
 10
1309.078278
 20
1263.625916
 30
0.0
  0
VERTEX
  5
222
100
AcDbEntity
  8
水栓
  6
CONTINUOUS
 62
     6
100
AcDbVertex
100
AcDb2dVertex
 10
1309.135956
 20
1263.927887
 30
0.0
  0
VERTEX
  5
223
100
AcDbEntity
  8
水栓
  6
CONTINUOUS
 62
     6
100
AcDbVertex
100
AcDb2dVertex
 10
1309.231323
 20
1264.225128
 30
0.0
  0
VERTEX
  5
224
100
AcDbEntity
  8
水栓
  6
CONTINUOUS
 62
     6
100
AcDbVertex
100
AcDb2dVertex
 10
1309.363922
 20
1264.515503
 30
0.0
  0
VERTEX
  5
225
100
AcDbEntity
  8
水栓
  6
CONTINUOUS
 62
     6
100
AcDbVertex
100
AcDb2dVertex
 10
1309.532684
 20
1264.797028
 30
0.0
  0
VERTEX
  5
226
100
AcDbEntity
  8
水栓
  6
CONTINUOUS
 62
     6
100
AcDbVertex
100
AcDb2dVertex
 10
1309.736237
 20
1265.067108
 30
0.0
  0
VERTEX
  5
227
100
AcDbEntity
  8
水栓
  6
CONTINUOUS
 62
     6
100
AcDbVertex
100
AcDb2dVertex
 10
1309.973206
 20
1265.323914
 30
0.0
  0
VERTEX
  5
228
100
AcDbEntity
  8
水栓
  6
CONTINUOUS
 62
     6
100
AcDbVertex
100
AcDb2dVertex
 10
1310.241608
 20
1265.565613
 30
0.0
  0
VERTEX
  5
229
100
AcDbEntity
  8
水栓
  6
CONTINUOUS
 62
     6
100
AcDbVertex
100
AcDb2dVertex
 10
1310.539459
 20
1265.79007
 30
0.0
  0
VERTEX
  5
22A
100
AcDbEntity
  8
水栓
  6
CONTINUOUS
 62
     6
100
AcDbVertex
100
AcDb2dVertex
 10
1310.864624
 20
1265.995758
 30
0.0
  0
VERTEX
  5
22B
100
AcDbEntity
  8
水栓
  6
CONTINUOUS
 62
     6
100
AcDbVertex
100
AcDb2dVertex
 10
1311.214355
 20
1266.181152
 30
0.0
  0
VERTEX
  5
22C
100
AcDbEntity
  8
水栓
  6
CONTINUOUS
 62
     6
100
AcDbVertex
100
AcDb2dVertex
 10
1311.586365
 20
1266.344727
 30
0.0
  0
VERTEX
  5
22D
100
AcDbEntity
  8
水栓
  6
CONTINUOUS
 62
     6
100
AcDbVertex
100
AcDb2dVertex
 10
1311.977447
 20
1266.48526
 30
0.0
  0
VERTEX
  5
22E
100
AcDbEntity
  8
水栓
  6
CONTINUOUS
 62
     6
100
AcDbVertex
100
AcDb2dVertex
 10
1312.384857
 20
1266.601837
 30
0.0
  0
VERTEX
  5
22F
100
AcDbEntity
  8
水栓
  6
CONTINUOUS
 62
     6
100
AcDbVertex
100
AcDb2dVertex
 10
1312.805237
 20
1266.693695
 30
0.0
  0
VERTEX
  5
230
100
AcDbEntity
  8
水栓
  6
CONTINUOUS
 62
     6
100
AcDbVertex
100
AcDb2dVertex
 10
1313.235687
 20
1266.759613
 30
0.0
  0
VERTEX
  5
231
100
AcDbEntity
  8
水栓
  6
CONTINUOUS
 62
     6
100
AcDbVertex
100
AcDb2dVertex
 10
1313.672852
 20
1266.799438
 30
0.0
  0
VERTEX
  5
232
100
AcDbEntity
  8
水栓
  6
CONTINUOUS
 62
     6
100
AcDbVertex
100
AcDb2dVertex
 10
1314.113373
 20
1266.812714
 30
0.0
  0
VERTEX
  5
233
100
AcDbEntity
  8
水栓
  6
CONTINUOUS
 62
     6
100
AcDbVertex
100
AcDb2dVertex
 10
1314.553894
 20
1266.799438
 30
0.0
  0
VERTEX
  5
234
100
AcDbEntity
  8
水栓
  6
CONTINUOUS
 62
     6
100
AcDbVertex
100
AcDb2dVertex
 10
1314.991058
 20
1266.759613
 30
0.0
  0
VERTEX
  5
235
100
AcDbEntity
  8
水栓
  6
CONTINUOUS
 62
     6
100
AcDbVertex
100
AcDb2dVertex
 10
1315.421509
 20
1266.693695
 30
0.0
  0
VERTEX
  5
236
100
AcDbEntity
  8
水栓
  6
CONTINUOUS
 62
     6
100
AcDbVertex
100
AcDb2dVertex
 10
1315.842041
 20
1266.602142
 30
0.0
  0
VERTEX
  5
237
100
AcDbEntity
  8
水栓
  6
CONTINUOUS
 62
     6
100
AcDbVertex
100
AcDb2dVertex
 10
1316.249451
 20
1266.485565
 30
0.0
  0
VERTEX
  5
238
100
AcDbEntity
  8
水栓
  6
CONTINUOUS
 62
     6
100
AcDbVertex
100
AcDb2dVertex
 10
1316.640686
 20
1266.344727
 30
0.0
  0
VERTEX
  5
239
100
AcDbEntity
  8
水栓
  6
CONTINUOUS
 62
     6
100
AcDbVertex
100
AcDb2dVertex
 10
1317.012543
 20
1266.181
 30
0.0
  0
VERTEX
  5
23A
100
AcDbEntity
  8
水栓
  6
CONTINUOUS
 62
     6
100
AcDbVertex
100
AcDb2dVertex
 10
1317.362427
 20
1265.995605
 30
0.0
  0
VERTEX
  5
23B
100
AcDbEntity
  8
水栓
  6
CONTINUOUS
 62
     6
100
AcDbVertex
100
AcDb2dVertex
 10
1317.687592
 20
1265.79007
 30
0.0
  0
VERTEX
  5
23C
100
AcDbEntity
  8
水栓
  6
CONTINUOUS
 62
     6
100
AcDbVertex
100
AcDb2dVertex
 10
1317.985443
 20
1265.56546
 30
0.0
  0
VERTEX
  5
23D
100
AcDbEntity
  8
水栓
  6
CONTINUOUS
 62
     6
100
AcDbVertex
100
AcDb2dVertex
 10
1318.253845
 20
1265.323914
 30
0.0
  0
VERTEX
  5
23E
100
AcDbEntity
  8
水栓
  6
CONTINUOUS
 62
     6
100
AcDbVertex
100
AcDb2dVertex
 10
1318.490814
 20
1265.067108
 30
0.0
  0
VERTEX
  5
23F
100
AcDbEntity
  8
水栓
  6
CONTINUOUS
 62
     6
100
AcDbVertex
100
AcDb2dVertex
 10
1318.694366
 20
1264.797028
 30
0.0
  0
VERTEX
  5
240
100
AcDbEntity
  8
水栓
  6
CONTINUOUS
 62
     6
100
AcDbVertex
100
AcDb2dVertex
 10
1318.863129
 20
1264.515656
 30
0.0
  0
VERTEX
  5
241
100
AcDbEntity
  8
水栓
  6
CONTINUOUS
 62
     6
100
AcDbVertex
100
AcDb2dVertex
 10
1318.995728
 20
1264.225128
 30
0.0
  0
VERTEX
  5
242
100
AcDbEntity
  8
水栓
  6
CONTINUOUS
 62
     6
100
AcDbVertex
100
AcDb2dVertex
 10
1319.091095
 20
1263.927734
 30
0.0
  0
VERTEX
  5
243
100
AcDbEntity
  8
水栓
  6
CONTINUOUS
 62
     6
100
AcDbVertex
100
AcDb2dVertex
 10
1319.148773
 20
1263.625916
 30
0.0
  0
VERTEX
  5
244
100
AcDbEntity
  8
水栓
  6
CONTINUOUS
 62
     6
100
AcDbVertex
100
AcDb2dVertex
 10
1319.167847
 20
1263.321655
 30
0.0
  0
VERTEX
  5
245
100
AcDbEntity
  8
水栓
  6
CONTINUOUS
 62
     6
100
AcDbVertex
100
AcDb2dVertex
 10
1319.148621
 20
1263.017395
 30
0.0
  0
VERTEX
  5
246
100
AcDbEntity
  8
水栓
  6
CONTINUOUS
 62
     6
100
AcDbVertex
100
AcDb2dVertex
 10
1319.090942
 20
1262.715424
 30
0.0
  0
VERTEX
  5
247
100
AcDbEntity
  8
水栓
  6
CONTINUOUS
 62
     6
100
AcDbVertex
100
AcDb2dVertex
 10
1318.995728
 20
1262.417877
 30
0.0
  0
VERTEX
  5
248
100
AcDbEntity
  8
水栓
  6
CONTINUOUS
 62
     6
100
AcDbVertex
100
AcDb2dVertex
 10
1318.863129
 20
1262.127503
 30
0.0
  0
VERTEX
  5
249
100
AcDbEntity
  8
水栓
  6
CONTINUOUS
 62
     6
100
AcDbVertex
100
AcDb2dVertex
 10
1318.694366
 20
1261.845978
 30
0.0
  0
VERTEX
  5
24A
100
AcDbEntity
  8
水栓
  6
CONTINUOUS
 62
     6
100
AcDbVertex
100
AcDb2dVertex
 10
1318.490814
 20
1261.57605
 30
0.0
  0
VERTEX
  5
24B
100
AcDbEntity
  8
水栓
  6
CONTINUOUS
 62
     6
100
AcDbVertex
100
AcDb2dVertex
 10
1318.253845
 20
1261.319244
 30
0.0
  0
VERTEX
  5
24C
100
AcDbEntity
  8
水栓
  6
CONTINUOUS
 62
     6
100
AcDbVertex
100
AcDb2dVertex
 10
1317.985443
 20
1261.077545
 30
0.0
  0
VERTEX
  5
24D
100
AcDbEntity
  8
水栓
  6
CONTINUOUS
 62
     6
100
AcDbVertex
100
AcDb2dVertex
 10
1317.687592
 20
1260.852936
 30
0.0
  0
VERTEX
  5
24E
100
AcDbEntity
  8
水栓
  6
CONTINUOUS
 62
     6
100
AcDbVertex
100
AcDb2dVertex
 10
1317.362427
 20
1260.647247
 30
0.0
  0
VERTEX
  5
24F
100
AcDbEntity
  8
水栓
  6
CONTINUOUS
 62
     6
100
AcDbVertex
100
AcDb2dVertex
 10
1317.012695
 20
1260.461853
 30
0.0
  0
VERTEX
  5
250
100
AcDbEntity
  8
水栓
  6
CONTINUOUS
 62
     6
100
AcDbVertex
100
AcDb2dVertex
 10
1316.640686
 20
1260.298279
 30
0.0
  0
VERTEX
  5
251
100
AcDbEntity
  8
水栓
  6
CONTINUOUS
 62
     6
100
AcDbVertex
100
AcDb2dVertex
 10
1316.249603
 20
1260.157745
 30
0.0
  0
VERTEX
  5
252
100
AcDbEntity
  8
水栓
  6
CONTINUOUS
 62
     6
100
AcDbVertex
100
AcDb2dVertex
 10
1315.842194
 20
1260.041168
 30
0.0
  0
VERTEX
  5
253
100
AcDbEntity
  8
水栓
  6
CONTINUOUS
 62
     6
100
AcDbVertex
100
AcDb2dVertex
 10
1315.421509
 20
1259.949463
 30
0.0
  0
VERTEX
  5
254
100
AcDbEntity
  8
水栓
  6
CONTINUOUS
 62
     6
100
AcDbVertex
100
AcDb2dVertex
 10
1314.991058
 20
1259.883545
 30
0.0
  0
VERTEX
  5
255
100
AcDbEntity
  8
水栓
  6
CONTINUOUS
 62
     6
100
AcDbVertex
100
AcDb2dVertex
 10
1314.553741
 20
1259.843719
 30
0.0
  0
VERTEX
  5
256
100
AcDbEntity
  8
水栓
  6
CONTINUOUS
 62
     6
100
AcDbVertex
100
AcDb2dVertex
 10
1314.113373
 20
1259.830597
 30
0.0
  0
VERTEX
  5
257
100
AcDbEntity
  8
水栓
  6
CONTINUOUS
 62
     6
100
AcDbVertex
100
AcDb2dVertex
 10
1313.672852
 20
1259.843872
 30
0.0
  0
VERTEX
  5
258
100
AcDbEntity
  8
水栓
  6
CONTINUOUS
 62
     6
100
AcDbVertex
100
AcDb2dVertex
 10
1313.235687
 20
1259.883697
 30
0.0
  0
VERTEX
  5
259
100
AcDbEntity
  8
水栓
  6
CONTINUOUS
 62
     6
100
AcDbVertex
100
AcDb2dVertex
 10
1312.805237
 20
1259.949463
 30
0.0
  0
VERTEX
  5
25A
100
AcDbEntity
  8
水栓
  6
CONTINUOUS
 62
     6
100
AcDbVertex
100
AcDb2dVertex
 10
1312.384705
 20
1260.041016
 30
0.0
  0
VERTEX
  5
25B
100
AcDbEntity
  8
水栓
  6
CONTINUOUS
 62
     6
100
AcDbVertex
100
AcDb2dVertex
 10
1311.977295
 20
1260.157593
 30
0.0
  0
SEQEND
  5
25C
100
AcDbEntity
  8
水栓
  6
CONTINUOUS
 62
     6
  0
POLYLINE
  5
25D
100
AcDbEntity
  8
水栓
  6
CONTINUOUS
 62
     6
100
AcDb2dPolyline
 66
     1
 10
0.0
 20
0.0
 30
0.0
 70
   128
  0
VERTEX
  5
25E
100
AcDbEntity
  8
水栓
  6
CONTINUOUS
 62
     6
100
AcDbVertex
100
AcDb2dVertex
 10
1311.977295
 20
1260.157593
 30
0.0
  0
VERTEX
  5
25F
100
AcDbEntity
  8
水栓
  6
CONTINUOUS
 62
     6
100
AcDbVertex
100
AcDb2dVertex
 10
1311.586365
 20
1260.298279
 30
0.0
  0
VERTEX
  5
260
100
AcDbEntity
  8
水栓
  6
CONTINUOUS
 62
     6
100
AcDbVertex
100
AcDb2dVertex
 10
1311.214508
 20
1260.462006
 30
0.0
  0
VERTEX
  5
261
100
AcDbEntity
  8
水栓
  6
CONTINUOUS
 62
     6
100
AcDbVertex
100
AcDb2dVertex
 10
1310.864624
 20
1260.6474
 30
0.0
  0
VERTEX
  5
262
100
AcDbEntity
  8
水栓
  6
CONTINUOUS
 62
     6
100
AcDbVertex
100
AcDb2dVertex
 10
1310.539459
 20
1260.852936
 30
0.0
  0
VERTEX
  5
263
100
AcDbEntity
  8
水栓
  6
CONTINUOUS
 62
     6
100
AcDbVertex
100
AcDb2dVertex
 10
1310.241608
 20
1261.077545
 30
0.0
  0
VERTEX
  5
264
100
AcDbEntity
  8
水栓
  6
CONTINUOUS
 62
     6
100
AcDbVertex
100
AcDb2dVertex
 10
1309.973206
 20
1261.319092
 30
0.0
  0
VERTEX
  5
265
100
AcDbEntity
  8
水栓
  6
CONTINUOUS
 62
     6
100
AcDbVertex
100
AcDb2dVertex
 10
1309.736237
 20
1261.57605
 30
0.0
  0
VERTEX
  5
266
100
AcDbEntity
  8
水栓
  6
CONTINUOUS
 62
     6
100
AcDbVertex
100
AcDb2dVertex
 10
1309.532684
 20
1261.84613
 30
0.0
  0
VERTEX
  5
267
100
AcDbEntity
  8
水栓
  6
CONTINUOUS
 62
     6
100
AcDbVertex
100
AcDb2dVertex
 10
1309.363922
 20
1262.127503
 30
0.0
  0
VERTEX
  5
268
100
AcDbEntity
  8
水栓
  6
CONTINUOUS
 62
     6
100
AcDbVertex
100
AcDb2dVertex
 10
1309.231323
 20
1262.417877
 30
0.0
  0
SEQEND
  5
269
100
AcDbEntity
  8
水栓
  6
CONTINUOUS
 62
     6
  0
POLYLINE
  5
26A
100
AcDbEntity
  8
水栓
  6
CONTINUOUS
 62
     6
100
AcDb2dPolyline
 66
     1
 10
0.0
 20
0.0
 30
0.0
 70
   128
  0
VERTEX
  5
26B
100
AcDbEntity
  8
水栓
  6
CONTINUOUS
 62
     6
100
AcDbVertex
100
AcDb2dVertex
 10
1309.231323
 20
1262.417877
 30
0.0
  0
VERTEX
  5
26C
100
AcDbEntity
  8
水栓
  6
CONTINUOUS
 62
     6
100
AcDbVertex
100
AcDb2dVertex
 10
1309.135956
 20
1262.715271
 30
0.0
  0
VERTEX
  5
26D
100
AcDbEntity
  8
水栓
  6
CONTINUOUS
 62
     6
100
AcDbVertex
100
AcDb2dVertex
 10
1309.07843
 20
1263.01709
 30
0.0
  0
VERTEX
  5
26E
100
AcDbEntity
  8
水栓
  6
CONTINUOUS
 62
     6
100
AcDbVertex
100
AcDb2dVertex
 10
1309.059204
 20
1263.32135
 30
0.0
  0
SEQEND
  5
26F
100
AcDbEntity
  8
水栓
  6
CONTINUOUS
 62
     6
  0
LINE
  5
270
100
AcDbEntity
  8
水栓
  6
CONTINUOUS
 62
     6
100
AcDbLine
 10
1320.613464
 20
1266.812561
 30
0.0
 11
1320.613464
 21
1259.830444
 31
0.0
  0
ARC
  5
271
100
AcDbEntity
  8
水栓
  6
CONTINUOUS
 62
     6
100
AcDbCircle
 10
1316.363434
 20
1263.321503
 30
0.0
 40
5.500029
100
AcDbArc
 50
316.656998
 51
320.599655
  0
LINE
  5
272
100
AcDbEntity
  8
水栓
  6
CONTINUOUS
 62
     6
100
AcDbLine
 10
1298.084145
 20
1259.546478
 30
0.0
 11
1320.363373
 21
1259.546478
 31
0.0
  0
LINE
  5
273
100
AcDbEntity
  8
水栓
  6
CONTINUOUS
 62
     6
100
AcDbLine
 10
1294.613403
 20
1266.812561
 30
0.0
 11
1294.613403
 21
1260.88807
 31
0.0
  0
POLYLINE
  5
274
100
AcDbEntity
  8
水栓
  6
CONTINUOUS
 62
     6
100
AcDb2dPolyline
 66
     1
 10
0.0
 20
0.0
 30
0.0
 70
   128
  0
VERTEX
  5
275
100
AcDbEntity
  8
水栓
  6
CONTINUOUS
 62
     6
100
AcDbVertex
100
AcDb2dVertex
 10
1306.167816
 20
1263.321655
 30
0.0
  0
VERTEX
  5
276
100
AcDbEntity
  8
水栓
  6
CONTINUOUS
 62
     6
100
AcDbVertex
100
AcDb2dVertex
 10
1306.14859
 20
1263.625916
 30
0.0
  0
VERTEX
  5
277
100
AcDbEntity
  8
水栓
  6
CONTINUOUS
 62
     6
100
AcDbVertex
100
AcDb2dVertex
 10
1306.090912
 20
1263.927887
 30
0.0
  0
VERTEX
  5
278
100
AcDbEntity
  8
水栓
  6
CONTINUOUS
 62
     6
100
AcDbVertex
100
AcDb2dVertex
 10
1305.995544
 20
1264.225128
 30
0.0
  0
VERTEX
  5
279
100
AcDbEntity
  8
水栓
  6
CONTINUOUS
 62
     6
100
AcDbVertex
100
AcDb2dVertex
 10
1305.862946
 20
1264.515503
 30
0.0
  0
VERTEX
  5
27A
100
AcDbEntity
  8
水栓
  6
CONTINUOUS
 62
     6
100
AcDbVertex
100
AcDb2dVertex
 10
1305.694183
 20
1264.797028
 30
0.0
  0
VERTEX
  5
27B
100
AcDbEntity
  8
水栓
  6
CONTINUOUS
 62
     6
100
AcDbVertex
100
AcDb2dVertex
 10
1305.490631
 20
1265.067108
 30
0.0
  0
VERTEX
  5
27C
100
AcDbEntity
  8
水栓
  6
CONTINUOUS
 62
     6
100
AcDbVertex
100
AcDb2dVertex
 10
1305.253662
 20
1265.323914
 30
0.0
  0
VERTEX
  5
27D
100
AcDbEntity
  8
水栓
  6
CONTINUOUS
 62
     6
100
AcDbVertex
100
AcDb2dVertex
 10
1304.98526
 20
1265.565613
 30
0.0
  0
VERTEX
  5
27E
100
AcDbEntity
  8
水栓
  6
CONTINUOUS
 62
     6
100
AcDbVertex
100
AcDb2dVertex
 10
1304.687408
 20
1265.79007
 30
0.0
  0
VERTEX
  5
27F
100
AcDbEntity
  8
水栓
  6
CONTINUOUS
 62
     6
100
AcDbVertex
100
AcDb2dVertex
 10
1304.362244
 20
1265.995758
 30
0.0
  0
VERTEX
  5
280
100
AcDbEntity
  8
水栓
  6
CONTINUOUS
 62
     6
100
AcDbVertex
100
AcDb2dVertex
 10
1304.012512
 20
1266.181152
 30
0.0
  0
VERTEX
  5
281
100
AcDbEntity
  8
水栓
  6
CONTINUOUS
 62
     6
100
AcDbVertex
100
AcDb2dVertex
 10
1303.640503
 20
1266.344727
 30
0.0
  0
VERTEX
  5
282
100
AcDbEntity
  8
水栓
  6
CONTINUOUS
 62
     6
100
AcDbVertex
100
AcDb2dVertex
 10
1303.24942
 20
1266.48526
 30
0.0
  0
VERTEX
  5
283
100
AcDbEntity
  8
水栓
  6
CONTINUOUS
 62
     6
100
AcDbVertex
100
AcDb2dVertex
 10
1302.842011
 20
1266.601837
 30
0.0
  0
VERTEX
  5
284
100
AcDbEntity
  8
水栓
  6
CONTINUOUS
 62
     6
100
AcDbVertex
100
AcDb2dVertex
 10
1302.421631
 20
1266.693695
 30
0.0
  0
VERTEX
  5
285
100
AcDbEntity
  8
水栓
  6
CONTINUOUS
 62
     6
100
AcDbVertex
100
AcDb2dVertex
 10
1301.99118
 20
1266.759613
 30
0.0
  0
VERTEX
  5
286
100
AcDbEntity
  8
水栓
  6
CONTINUOUS
 62
     6
100
AcDbVertex
100
AcDb2dVertex
 10
1301.554016
 20
1266.799438
 30
0.0
  0
VERTEX
  5
287
100
AcDbEntity
  8
水栓
  6
CONTINUOUS
 62
     6
100
AcDbVertex
100
AcDb2dVertex
 10
1301.113495
 20
1266.812714
 30
0.0
  0
VERTEX
  5
288
100
AcDbEntity
  8
水栓
  6
CONTINUOUS
 62
     6
100
AcDbVertex
100
AcDb2dVertex
 10
1300.672974
 20
1266.799438
 30
0.0
  0
VERTEX
  5
289
100
AcDbEntity
  8
水栓
  6
CONTINUOUS
 62
     6
100
AcDbVertex
100
AcDb2dVertex
 10
1300.235809
 20
1266.759613
 30
0.0
  0
VERTEX
  5
28A
100
AcDbEntity
  8
水栓
  6
CONTINUOUS
 62
     6
100
AcDbVertex
100
AcDb2dVertex
 10
1299.805359
 20
1266.693695
 30
0.0
  0
VERTEX
  5
28B
100
AcDbEntity
  8
水栓
  6
CONTINUOUS
 62
     6
100
AcDbVertex
100
AcDb2dVertex
 10
1299.384827
 20
1266.602142
 30
0.0
  0
VERTEX
  5
28C
100
AcDbEntity
  8
水栓
  6
CONTINUOUS
 62
     6
100
AcDbVertex
100
AcDb2dVertex
 10
1298.977417
 20
1266.485565
 30
0.0
  0
VERTEX
  5
28D
100
AcDbEntity
  8
水栓
  6
CONTINUOUS
 62
     6
100
AcDbVertex
100
AcDb2dVertex
 10
1298.586182
 20
1266.344727
 30
0.0
  0
VERTEX
  5
28E
100
AcDbEntity
  8
水栓
  6
CONTINUOUS
 62
     6
100
AcDbVertex
100
AcDb2dVertex
 10
1298.214325
 20
1266.181
 30
0.0
  0
VERTEX
  5
28F
100
AcDbEntity
  8
水栓
  6
CONTINUOUS
 62
     6
100
AcDbVertex
100
AcDb2dVertex
 10
1297.864441
 20
1265.995605
 30
0.0
  0
VERTEX
  5
290
100
AcDbEntity
  8
水栓
  6
CONTINUOUS
 62
     6
100
AcDbVertex
100
AcDb2dVertex
 10
1297.539276
 20
1265.79007
 30
0.0
  0
VERTEX
  5
291
100
AcDbEntity
  8
水栓
  6
CONTINUOUS
 62
     6
100
AcDbVertex
100
AcDb2dVertex
 10
1297.241425
 20
1265.56546
 30
0.0
  0
VERTEX
  5
292
100
AcDbEntity
  8
水栓
  6
CONTINUOUS
 62
     6
100
AcDbVertex
100
AcDb2dVertex
 10
1296.973022
 20
1265.323914
 30
0.0
  0
VERTEX
  5
293
100
AcDbEntity
  8
水栓
  6
CONTINUOUS
 62
     6
100
AcDbVertex
100
AcDb2dVertex
 10
1296.736053
 20
1265.067108
 30
0.0
  0
VERTEX
  5
294
100
AcDbEntity
  8
水栓
  6
CONTINUOUS
 62
     6
100
AcDbVertex
100
AcDb2dVertex
 10
1296.532501
 20
1264.797028
 30
0.0
  0
VERTEX
  5
295
100
AcDbEntity
  8
水栓
  6
CONTINUOUS
 62
     6
100
AcDbVertex
100
AcDb2dVertex
 10
1296.363739
 20
1264.515656
 30
0.0
  0
VERTEX
  5
296
100
AcDbEntity
  8
水栓
  6
CONTINUOUS
 62
     6
100
AcDbVertex
100
AcDb2dVertex
 10
1296.23114
 20
1264.225128
 30
0.0
  0
VERTEX
  5
297
100
AcDbEntity
  8
水栓
  6
CONTINUOUS
 62
     6
100
AcDbVertex
100
AcDb2dVertex
 10
1296.135773
 20
1263.927734
 30
0.0
  0
VERTEX
  5
298
100
AcDbEntity
  8
水栓
  6
CONTINUOUS
 62
     6
100
AcDbVertex
100
AcDb2dVertex
 10
1296.078094
 20
1263.625916
 30
0.0
  0
VERTEX
  5
299
100
AcDbEntity
  8
水栓
  6
CONTINUOUS
 62
     6
100
AcDbVertex
100
AcDb2dVertex
 10
1296.059021
 20
1263.321655
 30
0.0
  0
VERTEX
  5
29A
100
AcDbEntity
  8
水栓
  6
CONTINUOUS
 62
     6
100
AcDbVertex
100
AcDb2dVertex
 10
1296.078247
 20
1263.017395
 30
0.0
  0
VERTEX
  5
29B
100
AcDbEntity
  8
水栓
  6
CONTINUOUS
 62
     6
100
AcDbVertex
100
AcDb2dVertex
 10
1296.135925
 20
1262.715424
 30
0.0
  0
VERTEX
  5
29C
100
AcDbEntity
  8
水栓
  6
CONTINUOUS
 62
     6
100
AcDbVertex
100
AcDb2dVertex
 10
1296.23114
 20
1262.417877
 30
0.0
  0
VERTEX
  5
29D
100
AcDbEntity
  8
水栓
  6
CONTINUOUS
 62
     6
100
AcDbVertex
100
AcDb2dVertex
 10
1296.363739
 20
1262.127503
 30
0.0
  0
VERTEX
  5
29E
100
AcDbEntity
  8
水栓
  6
CONTINUOUS
 62
     6
100
AcDbVertex
100
AcDb2dVertex
 10
1296.532501
 20
1261.845978
 30
0.0
  0
VERTEX
  5
29F
100
AcDbEntity
  8
水栓
  6
CONTINUOUS
 62
     6
100
AcDbVertex
100
AcDb2dVertex
 10
1296.736053
 20
1261.57605
 30
0.0
  0
VERTEX
  5
2A0
100
AcDbEntity
  8
水栓
  6
CONTINUOUS
 62
     6
100
AcDbVertex
100
AcDb2dVertex
 10
1296.973022
 20
1261.319244
 30
0.0
  0
VERTEX
  5
2A1
100
AcDbEntity
  8
水栓
  6
CONTINUOUS
 62
     6
100
AcDbVertex
100
AcDb2dVertex
 10
1297.241425
 20
1261.077545
 30
0.0
  0
VERTEX
  5
2A2
100
AcDbEntity
  8
水栓
  6
CONTINUOUS
 62
     6
100
AcDbVertex
100
AcDb2dVertex
 10
1297.539276
 20
1260.852936
 30
0.0
  0
VERTEX
  5
2A3
100
AcDbEntity
  8
水栓
  6
CONTINUOUS
 62
     6
100
AcDbVertex
100
AcDb2dVertex
 10
1297.864441
 20
1260.647247
 30
0.0
  0
VERTEX
  5
2A4
100
AcDbEntity
  8
水栓
  6
CONTINUOUS
 62
     6
100
AcDbVertex
100
AcDb2dVertex
 10
1298.214172
 20
1260.461853
 30
0.0
  0
VERTEX
  5
2A5
100
AcDbEntity
  8
水栓
  6
CONTINUOUS
 62
     6
100
AcDbVertex
100
AcDb2dVertex
 10
1298.586182
 20
1260.298279
 30
0.0
  0
VERTEX
  5
2A6
100
AcDbEntity
  8
水栓
  6
CONTINUOUS
 62
     6
100
AcDbVertex
100
AcDb2dVertex
 10
1298.977264
 20
1260.157745
 30
0.0
  0
VERTEX
  5
2A7
100
AcDbEntity
  8
水栓
  6
CONTINUOUS
 62
     6
100
AcDbVertex
100
AcDb2dVertex
 10
1299.384674
 20
1260.041168
 30
0.0
  0
VERTEX
  5
2A8
100
AcDbEntity
  8
水栓
  6
CONTINUOUS
 62
     6
100
AcDbVertex
100
AcDb2dVertex
 10
1299.805359
 20
1259.949463
 30
0.0
  0
VERTEX
  5
2A9
100
AcDbEntity
  8
水栓
  6
CONTINUOUS
 62
     6
100
AcDbVertex
100
AcDb2dVertex
 10
1300.235809
 20
1259.883545
 30
0.0
  0
VERTEX
  5
2AA
100
AcDbEntity
  8
水栓
  6
CONTINUOUS
 62
     6
100
AcDbVertex
100
AcDb2dVertex
 10
1300.673126
 20
1259.843719
 30
0.0
  0
VERTEX
  5
2AB
100
AcDbEntity
  8
水栓
  6
CONTINUOUS
 62
     6
100
AcDbVertex
100
AcDb2dVertex
 10
1301.113495
 20
1259.830597
 30
0.0
  0
VERTEX
  5
2AC
100
AcDbEntity
  8
水栓
  6
CONTINUOUS
 62
     6
100
AcDbVertex
100
AcDb2dVertex
 10
1301.554016
 20
1259.843872
 30
0.0
  0
VERTEX
  5
2AD
100
AcDbEntity
  8
水栓
  6
CONTINUOUS
 62
     6
100
AcDbVertex
100
AcDb2dVertex
 10
1301.99118
 20
1259.883697
 30
0.0
  0
VERTEX
  5
2AE
100
AcDbEntity
  8
水栓
  6
CONTINUOUS
 62
     6
100
AcDbVertex
100
AcDb2dVertex
 10
1302.421631
 20
1259.949463
 30
0.0
  0
VERTEX
  5
2AF
100
AcDbEntity
  8
水栓
  6
CONTINUOUS
 62
     6
100
AcDbVertex
100
AcDb2dVertex
 10
1302.842163
 20
1260.041016
 30
0.0
  0
VERTEX
  5
2B0
100
AcDbEntity
  8
水栓
  6
CONTINUOUS
 62
     6
100
AcDbVertex
100
AcDb2dVertex
 10
1303.249573
 20
1260.157593
 30
0.0
  0
SEQEND
  5
2B1
100
AcDbEntity
  8
水栓
  6
CONTINUOUS
 62
     6
  0
POLYLINE
  5
2B2
100
AcDbEntity
  8
水栓
  6
CONTINUOUS
 62
     6
100
AcDb2dPolyline
 66
     1
 10
0.0
 20
0.0
 30
0.0
 70
   128
  0
VERTEX
  5
2B3
100
AcDbEntity
  8
水栓
  6
CONTINUOUS
 62
     6
100
AcDbVertex
100
AcDb2dVertex
 10
1303.249573
 20
1260.157593
 30
0.0
  0
VERTEX
  5
2B4
100
AcDbEntity
  8
水栓
  6
CONTINUOUS
 62
     6
100
AcDbVertex
100
AcDb2dVertex
 10
1303.640503
 20
1260.298279
 30
0.0
  0
VERTEX
  5
2B5
100
AcDbEntity
  8
水栓
  6
CONTINUOUS
 62
     6
100
AcDbVertex
100
AcDb2dVertex
 10
1304.01236
 20
1260.462006
 30
0.0
  0
VERTEX
  5
2B6
100
AcDbEntity
  8
水栓
  6
CONTINUOUS
 62
     6
100
AcDbVertex
100
AcDb2dVertex
 10
1304.362244
 20
1260.6474
 30
0.0
  0
VERTEX
  5
2B7
100
AcDbEntity
  8
水栓
  6
CONTINUOUS
 62
     6
100
AcDbVertex
100
AcDb2dVertex
 10
1304.687408
 20
1260.852936
 30
0.0
  0
VERTEX
  5
2B8
100
AcDbEntity
  8
水栓
  6
CONTINUOUS
 62
     6
100
AcDbVertex
100
AcDb2dVertex
 10
1304.98526
 20
1261.077545
 30
0.0
  0
VERTEX
  5
2B9
100
AcDbEntity
  8
水栓
  6
CONTINUOUS
 62
     6
100
AcDbVertex
100
AcDb2dVertex
 10
1305.253662
 20
1261.319092
 30
0.0
  0
VERTEX
  5
2BA
100
AcDbEntity
  8
水栓
  6
CONTINUOUS
 62
     6
100
AcDbVertex
100
AcDb2dVertex
 10
1305.490631
 20
1261.57605
 30
0.0
  0
VERTEX
  5
2BB
100
AcDbEntity
  8
水栓
  6
CONTINUOUS
 62
     6
100
AcDbVertex
100
AcDb2dVertex
 10
1305.694183
 20
1261.84613
 30
0.0
  0
VERTEX
  5
2BC
100
AcDbEntity
  8
水栓
  6
CONTINUOUS
 62
     6
100
AcDbVertex
100
AcDb2dVertex
 10
1305.862946
 20
1262.127503
 30
0.0
  0
VERTEX
  5
2BD
100
AcDbEntity
  8
水栓
  6
CONTINUOUS
 62
     6
100
AcDbVertex
100
AcDb2dVertex
 10
1305.995544
 20
1262.417877
 30
0.0
  0
SEQEND
  5
2BE
100
AcDbEntity
  8
水栓
  6
CONTINUOUS
 62
     6
  0
POLYLINE
  5
2BF
100
AcDbEntity
  8
水栓
  6
CONTINUOUS
 62
     6
100
AcDb2dPolyline
 66
     1
 10
0.0
 20
0.0
 30
0.0
 70
   128
  0
VERTEX
  5
2C0
100
AcDbEntity
  8
水栓
  6
CONTINUOUS
 62
     6
100
AcDbVertex
100
AcDb2dVertex
 10
1305.995544
 20
1262.417877
 30
0.0
  0
VERTEX
  5
2C1
100
AcDbEntity
  8
水栓
  6
CONTINUOUS
 62
     6
100
AcDbVertex
100
AcDb2dVertex
 10
1306.090912
 20
1262.715271
 30
0.0
  0
VERTEX
  5
2C2
100
AcDbEntity
  8
水栓
  6
CONTINUOUS
 62
     6
100
AcDbVertex
100
AcDb2dVertex
 10
1306.148438
 20
1263.01709
 30
0.0
  0
VERTEX
  5
2C3
100
AcDbEntity
  8
水栓
  6
CONTINUOUS
 62
     6
100
AcDbVertex
100
AcDb2dVertex
 10
1306.167664
 20
1263.32135
 30
0.0
  0
SEQEND
  5
2C4
100
AcDbEntity
  8
水栓
  6
CONTINUOUS
 62
     6
  0
TEXT
  5
2C5
100
AcDbEntity
  8
水栓
  6
CONTINUOUS
 62
     2
100
AcDbText
 10
1136.446193
 20
1362.923886
 30
0.0
 40
40.0
  1
ＮＬ１
 41
0.833
  7
EXCADSTD
 72
     5
 11
1255.446193
 21
1362.923886
 31
0.0
100
AcDbText
  0
LINE
  5
2C6
100
AcDbEntity
  8
水栓
  6
CONTINUOUS
 62
     6
100
AcDbLine
 10
1138.120297
 20
1359.423825
 30
0.0
 11
1248.120297
 21
1359.423825
 31
0.0
  0
LEADER
  5
2C7
100
AcDbEntity
  8
止水栓
  6
CONTINUOUS
 62
     6
100
AcDbLeader
  3
STANDARD
 73
     3
 74
     1
 75
     0
 40
0.0
 76
     2
 10
1297.113403
 20
2009.8
 30
0.0
 10
1242.159027
 20
2104.172821
 30
0.0
 77
     6
1001
ACAD
1000
DSTYLE
1002
{
1070
    41
1040
35.0
1070
     5
1000
_EX_NORM
1070
     6
1000
_EX_NORM
1070
     7
1000
_EX_NORM
1070
   341
1005
2C
1002
}
  0
LEADER
  5
2C8
100
AcDbEntity
  8
止水栓
  6
CONTINUOUS
 62
     6
100
AcDbLeader
  3
STANDARD
 73
     3
 74
     1
 75
     0
 40
0.0
 76
     2
 10
1301.263641
 20
1063.0
 30
0.0
 10
1120.0
 20
1004.0
 30
0.0
 77
     6
1001
ACAD
1000
DSTYLE
1002
{
1070
    41
1040
35.0
1070
     5
1000
_EX_NORM
1070
     6
1000
_EX_NORM
1070
     7
1000
_EX_NORM
1070
   341
1005
2C
1002
}
  0
LINE
  5
2C9
100
AcDbEntity
  8
止水栓
  6
CONTINUOUS
 62
     6
100
AcDbLine
 10
1318.113464
 20
2011.296539
 30
0.0
 11
1318.113464
 21
2002.796478
 31
0.0
  0
LINE
  5
2CA
100
AcDbEntity
  8
止水栓
  6
CONTINUOUS
 62
     6
100
AcDbLine
 10
1316.913361
 20
2011.296539
 30
0.0
 11
1316.913361
 21
2002.796478
 31
0.0
  0
LINE
  5
2CB
100
AcDbEntity
  8
止水栓
  6
CONTINUOUS
 62
     6
100
AcDbLine
 10
1298.313507
 20
2011.296539
 30
0.0
 11
1298.313507
 21
2002.796478
 31
0.0
  0
LINE
  5
2CC
100
AcDbEntity
  8
止水栓
  6
CONTINUOUS
 62
     6
100
AcDbLine
 10
1297.113403
 20
2011.296539
 30
0.0
 11
1297.113403
 21
2002.796478
 31
0.0
  0
LINE
  5
2CD
100
AcDbEntity
  8
止水栓
  6
CONTINUOUS
 62
     6
100
AcDbLine
 10
1297.113403
 20
2011.296539
 30
0.0
 11
1318.113464
 21
2011.296539
 31
0.0
  0
LINE
  5
2CE
100
AcDbEntity
  8
止水栓
  6
CONTINUOUS
 62
     6
100
AcDbLine
 10
1150.0
 20
2104.172821
 30
0.0
 11
1242.159027
 21
2104.172821
 31
0.0
  0
TEXT
  5
2CF
100
AcDbEntity
  8
止水栓
  6
CONTINUOUS
 62
     6
100
AcDbText
 10
1190.457062
 20
2107.672882
 30
0.0
 40
40.0
  1
／ 
 41
0.94164
  7
EXCADSTD
 72
     5
 11
1226.329063
 21
2107.672882
 31
0.0
100
AcDbText
  0
TEXT
  5
2D0
100
AcDbEntity
  8
止水栓
  6
CONTINUOUS
 62
     2
100
AcDbText
 10
1215.953216
 20
2106.344452
 30
0.0
 40
25.0
  1
２
 41
0.911904
  7
EXCADSTD
 72
     5
 11
1237.665216
 21
2106.344452
 31
0.0
100
AcDbText
  0
TEXT
  5
2D1
100
AcDbEntity
  8
止水栓
  6
CONTINUOUS
 62
     2
100
AcDbText
 10
1182.038727
 20
2123.294067
 30
0.0
 40
25.0
  1
１
 41
0.911904
  7
EXCADSTD
 72
     5
 11
1203.750727
 21
2123.294067
 31
0.0
100
AcDbText
  0
TEXT
  5
2D2
100
AcDbEntity
  8
止水栓
  6
CONTINUOUS
 62
     2
100
AcDbText
 10
1148.581787
 20
2107.672882
 30
0.0
 40
40.0
  1
Ｒ
 41
0.94164
  7
EXCADSTD
 72
     5
 11
1184.453789
 21
2107.672882
 31
0.0
100
AcDbText
  0
CIRCLE
  5
2D3
100
AcDbEntity
  8
止水栓
  6
CONTINUOUS
 62
     6
100
AcDbCircle
 10
1307.613586
 20
1010.796631
 30
0.0
 40
6.99997
  0
LINE
  5
2D4
100
AcDbEntity
  8
止水栓
  6
CONTINUOUS
 62
     6
100
AcDbLine
 10
1312.197327
 20
996.895874
 30
0.0
 11
1327.715515
 21
993.129394
 31
0.0
  0
ARC
  5
2D5
100
AcDbEntity
  8
止水栓
  6
CONTINUOUS
 62
     6
100
AcDbCircle
 10
1329.130768
 20
998.960083
 30
0.0
 40
5.99999
100
AcDbArc
 50
256.356689
 51
43.642914
  0
LINE
  5
2D6
100
AcDbEntity
  8
止水栓
  6
CONTINUOUS
 62
     6
100
AcDbLine
 10
1333.472656
 20
1003.101013
 30
0.0
 11
1322.451691
 21
1014.656952
 31
0.0
  0
ARC
  5
2D7
100
AcDbEntity
  8
止水栓
  6
CONTINUOUS
 62
     6
100
AcDbCircle
 10
1336.924957
 20
1028.460053
 30
0.0
 40
20.000019
100
AcDbArc
 50
196.357086
 51
223.642334
  0
LINE
  5
2D8
100
AcDbEntity
  8
止水栓
  6
CONTINUOUS
 62
     6
100
AcDbLine
 10
1317.734436
 20
1022.827576
 30
0.0
 11
1313.237213
 21
1038.149841
 31
0.0
  0
ARC
  5
2D9
100
AcDbEntity
  8
止水栓
  6
CONTINUOUS
 62
     6
100
AcDbCircle
 10
1307.480072
 20
1036.460083
 30
0.0
 40
5.999997
100
AcDbArc
 50
16.3573
 51
163.642685
  0
LINE
  5
2DA
100
AcDbEntity
  8
止水栓
  6
CONTINUOUS
 62
     6
100
AcDbLine
 10
1301.722931
 20
1038.149841
 30
0.0
 11
1297.225708
 21
1022.827576
 31
0.0
  0
ARC
  5
2DB
100
AcDbEntity
  8
止水栓
  6
CONTINUOUS
 62
     6
100
AcDbCircle
 10
1278.035187
 20
1028.460053
 30
0.0
 40
20.000029
100
AcDbArc
 50
316.357697
 51
343.642883
  0
LINE
  5
2DC
100
AcDbEntity
  8
止水栓
  6
CONTINUOUS
 62
     6
100
AcDbLine
 10
1292.508453
 20
1014.656952
 30
0.0
 11
1281.487488
 21
1003.101013
 31
0.0
  0
ARC
  5
2DD
100
AcDbEntity
  8
止水栓
  6
CONTINUOUS
 62
     6
100
AcDbCircle
 10
1285.829376
 20
998.960083
 30
0.0
 40
5.999942
100
AcDbArc
 50
136.357117
 51
283.643311
  0
LINE
  5
2DE
100
AcDbEntity
  8
止水栓
  6
CONTINUOUS
 62
     6
100
AcDbLine
 10
1287.244629
 20
993.129394
 30
0.0
 11
1302.762817
 21
996.895874
 31
0.0
  0
ARC
  5
2DF
100
AcDbEntity
  8
止水栓
  6
CONTINUOUS
 62
     6
100
AcDbCircle
 10
1307.480072
 20
977.460144
 30
0.0
 40
20.0
100
AcDbArc
 50
76.357468
 51
103.642548
  0
ARC
  5
2E0
100
AcDbEntity
  8
止水栓
  6
CONTINUOUS
 62
     6
100
AcDbCircle
 10
1275.480103
 20
1011.460083
 30
0.0
 40
44.999943
100
AcDbArc
 50
8.024372
 51
14.835184
  0
ARC
  5
2E1
100
AcDbEntity
  8
止水栓
  6
CONTINUOUS
 62
     6
100
AcDbCircle
 10
1347.980103
 20
1030.662964
 30
0.0
 40
30.0
100
AcDbArc
 50
180.000015
 51
194.835464
  0
LINE
  5
2E2
100
AcDbEntity
  8
止水栓
  6
CONTINUOUS
 62
     6
100
AcDbLine
 10
1317.980103
 20
1030.662964
 30
0.0
 11
1317.980103
 21
1035.460022
 31
0.0
  0
ARC
  5
2E3
100
AcDbEntity
  8
止水栓
  6
CONTINUOUS
 62
     6
100
AcDbCircle
 10
1339.480042
 20
1011.460083
 30
0.0
 40
45.000067
100
AcDbArc
 50
165.164886
 51
171.975677
  0
ARC
  5
2E4
100
AcDbEntity
  8
止水栓
  6
CONTINUOUS
 62
     6
100
AcDbCircle
 10
1266.980042
 20
1030.662964
 30
0.0
 40
29.999933
100
AcDbArc
 50
345.164908
 51
0.0
  0
LINE
  5
2E5
100
AcDbEntity
  8
止水栓
  6
CONTINUOUS
 62
     6
100
AcDbLine
 10
1296.980042
 20
1030.662964
 30
0.0
 11
1296.980042
 21
1035.460022
 31
0.0
  0
LINE
  5
2E6
100
AcDbEntity
  8
止水栓
  6
CONTINUOUS
 62
     6
100
AcDbLine
 10
1314.026703
 20
1035.460022
 30
0.0
 11
1318.449463
 21
1035.460022
 31
0.0
  0
ARC
  5
2E7
100
AcDbEntity
  8
止水栓
  6
CONTINUOUS
 62
     6
100
AcDbCircle
 10
1309.22995
 20
1041.460083
 30
0.0
 40
11.000004
100
AcDbArc
 50
326.943909
 51
332.420471
  0
LINE
  5
2E8
100
AcDbEntity
  8
止水栓
  6
CONTINUOUS
 62
     6
100
AcDbLine
 10
1318.980011
 20
1036.36731
 30
0.0
 11
1318.980011
 21
1046.552856
 31
0.0
  0
ARC
  5
2E9
100
AcDbEntity
  8
止水栓
  6
CONTINUOUS
 62
     6
100
AcDbCircle
 10
1309.22995
 20
1041.460083
 30
0.0
 40
11.000004
100
AcDbArc
 50
27.579529
 51
33.056091
  0
LINE
  5
2EA
100
AcDbEntity
  8
止水栓
  6
CONTINUOUS
 62
     6
100
AcDbLine
 10
1296.510681
 20
1047.460144
 30
0.0
 11
1318.449463
 21
1047.460144
 31
0.0
  0
ARC
  5
2EB
100
AcDbEntity
  8
止水栓
  6
CONTINUOUS
 62
     6
100
AcDbCircle
 10
1305.730194
 20
1041.460083
 30
0.0
 40
11.000004
100
AcDbArc
 50
146.943909
 51
152.420471
  0
LINE
  5
2EC
100
AcDbEntity
  8
止水栓
  6
CONTINUOUS
 62
     6
100
AcDbLine
 10
1295.980133
 20
1036.36731
 30
0.0
 11
1295.980133
 21
1046.552856
 31
0.0
  0
ARC
  5
2ED
100
AcDbEntity
  8
止水栓
  6
CONTINUOUS
 62
     6
100
AcDbCircle
 10
1305.730194
 20
1041.460083
 30
0.0
 40
11.000004
100
AcDbArc
 50
207.579529
 51
213.056091
  0
LINE
  5
2EE
100
AcDbEntity
  8
止水栓
  6
CONTINUOUS
 62
     6
100
AcDbLine
 10
1296.510681
 20
1035.460022
 30
0.0
 11
1300.933441
 21
1035.460022
 31
0.0
  0
POLYLINE
  5
2EF
100
AcDbEntity
  8
止水栓
  6
CONTINUOUS
 62
     6
100
AcDb2dPolyline
 66
     1
 10
0.0
 20
0.0
 30
0.0
 70
   128
  0
VERTEX
  5
2F0
100
AcDbEntity
  8
止水栓
  6
CONTINUOUS
 62
     6
100
AcDbVertex
100
AcDb2dVertex
 10
1318.060059
 20
1041.460083
 30
0.0
  0
VERTEX
  5
2F1
100
AcDbEntity
  8
止水栓
  6
CONTINUOUS
 62
     6
100
AcDbVertex
100
AcDb2dVertex
 10
1318.041596
 20
1040.980804
 30
0.0
  0
VERTEX
  5
2F2
100
AcDbEntity
  8
止水栓
  6
CONTINUOUS
 62
     6
100
AcDbVertex
100
AcDb2dVertex
 10
1317.986664
 20
1040.505035
 30
0.0
  0
VERTEX
  5
2F3
100
AcDbEntity
  8
止水栓
  6
CONTINUOUS
 62
     6
100
AcDbVertex
100
AcDb2dVertex
 10
1317.895569
 20
1040.036743
 30
0.0
  0
VERTEX
  5
2F4
100
AcDbEntity
  8
止水栓
  6
CONTINUOUS
 62
     6
100
AcDbVertex
100
AcDb2dVertex
 10
1317.768921
 20
1039.579132
 30
0.0
  0
VERTEX
  5
2F5
100
AcDbEntity
  8
止水栓
  6
CONTINUOUS
 62
     6
100
AcDbVertex
100
AcDb2dVertex
 10
1317.607636
 20
1039.135864
 30
0.0
  0
VERTEX
  5
2F6
100
AcDbEntity
  8
止水栓
  6
CONTINUOUS
 62
     6
100
AcDbVertex
100
AcDb2dVertex
 10
1317.413391
 20
1038.710144
 30
0.0
  0
VERTEX
  5
2F7
100
AcDbEntity
  8
止水栓
  6
CONTINUOUS
 62
     6
100
AcDbVertex
100
AcDb2dVertex
 10
1317.187103
 20
1038.305481
 30
0.0
  0
VERTEX
  5
2F8
100
AcDbEntity
  8
止水栓
  6
CONTINUOUS
 62
     6
100
AcDbVertex
100
AcDb2dVertex
 10
1316.930756
 20
1037.924927
 30
0.0
  0
VERTEX
  5
2F9
100
AcDbEntity
  8
止水栓
  6
CONTINUOUS
 62
     6
100
AcDbVertex
100
AcDb2dVertex
 10
1316.646179
 20
1037.571075
 30
0.0
  0
VERTEX
  5
2FA
100
AcDbEntity
  8
止水栓
  6
CONTINUOUS
 62
     6
100
AcDbVertex
100
AcDb2dVertex
 10
1316.335663
 20
1037.246979
 30
0.0
  0
VERTEX
  5
2FB
100
AcDbEntity
  8
止水栓
  6
CONTINUOUS
 62
     6
100
AcDbVertex
100
AcDb2dVertex
 10
1316.001495
 20
1036.954925
 30
0.0
  0
VERTEX
  5
2FC
100
AcDbEntity
  8
止水栓
  6
CONTINUOUS
 62
     6
100
AcDbVertex
100
AcDb2dVertex
 10
1315.646423
 20
1036.696899
 30
0.0
  0
VERTEX
  5
2FD
100
AcDbEntity
  8
止水栓
  6
CONTINUOUS
 62
     6
100
AcDbVertex
100
AcDb2dVertex
 10
1315.272888
 20
1036.475342
 30
0.0
  0
VERTEX
  5
2FE
100
AcDbEntity
  8
止水栓
  6
CONTINUOUS
 62
     6
100
AcDbVertex
100
AcDb2dVertex
 10
1314.883789
 20
1036.291779
 30
0.0
  0
VERTEX
  5
2FF
100
AcDbEntity
  8
止水栓
  6
CONTINUOUS
 62
     6
100
AcDbVertex
100
AcDb2dVertex
 10
1314.482178
 20
1036.14743
 30
0.0
  0
VERTEX
  5
300
100
AcDbEntity
  8
止水栓
  6
CONTINUOUS
 62
     6
100
AcDbVertex
100
AcDb2dVertex
 10
1314.278626
 20
1036.090668
 30
0.0
  0
VERTEX
  5
301
100
AcDbEntity
  8
止水栓
  6
CONTINUOUS
 62
     6
100
AcDbVertex
100
AcDb2dVertex
 10
1314.073242
 20
1036.044128
 30
0.0
  0
VERTEX
  5
302
100
AcDbEntity
  8
止水栓
  6
CONTINUOUS
 62
     6
100
AcDbVertex
100
AcDb2dVertex
 10
1313.86618
 20
1036.00766
 30
0.0
  0
SEQEND
  5
303
100
AcDbEntity
  8
止水栓
  6
CONTINUOUS
 62
     6
  0
POLYLINE
  5
304
100
AcDbEntity
  8
止水栓
  6
CONTINUOUS
 62
     6
100
AcDb2dPolyline
 66
     1
 10
0.0
 20
0.0
 30
0.0
 70
   128
  0
VERTEX
  5
305
100
AcDbEntity
  8
止水栓
  6
CONTINUOUS
 62
     6
100
AcDbVertex
100
AcDb2dVertex
 10
1318.060059
 20
1041.460083
 30
0.0
  0
VERTEX
  5
306
100
AcDbEntity
  8
止水栓
  6
CONTINUOUS
 62
     6
100
AcDbVertex
100
AcDb2dVertex
 10
1318.041596
 20
1041.939362
 30
0.0
  0
VERTEX
  5
307
100
AcDbEntity
  8
止水栓
  6
CONTINUOUS
 62
     6
100
AcDbVertex
100
AcDb2dVertex
 10
1317.986664
 20
1042.415131
 30
0.0
  0
VERTEX
  5
308
100
AcDbEntity
  8
止水栓
  6
CONTINUOUS
 62
     6
100
AcDbVertex
100
AcDb2dVertex
 10
1317.895569
 20
1042.883575
 30
0.0
  0
VERTEX
  5
309
100
AcDbEntity
  8
止水栓
  6
CONTINUOUS
 62
     6
100
AcDbVertex
100
AcDb2dVertex
 10
1317.768921
 20
1043.341186
 30
0.0
  0
VERTEX
  5
30A
100
AcDbEntity
  8
止水栓
  6
CONTINUOUS
 62
     6
100
AcDbVertex
100
AcDb2dVertex
 10
1317.607636
 20
1043.784454
 30
0.0
  0
VERTEX
  5
30B
100
AcDbEntity
  8
止水栓
  6
CONTINUOUS
 62
     6
100
AcDbVertex
100
AcDb2dVertex
 10
1317.413391
 20
1044.210175
 30
0.0
  0
VERTEX
  5
30C
100
AcDbEntity
  8
止水栓
  6
CONTINUOUS
 62
     6
100
AcDbVertex
100
AcDb2dVertex
 10
1317.187103
 20
1044.614838
 30
0.0
  0
VERTEX
  5
30D
100
AcDbEntity
  8
止水栓
  6
CONTINUOUS
 62
     6
100
AcDbVertex
100
AcDb2dVertex
 10
1316.930756
 20
1044.995392
 30
0.0
  0
VERTEX
  5
30E
100
AcDbEntity
  8
止水栓
  6
CONTINUOUS
 62
     6
100
AcDbVertex
100
AcDb2dVertex
 10
1316.646179
 20
1045.349243
 30
0.0
  0
VERTEX
  5
30F
100
AcDbEntity
  8
止水栓
  6
CONTINUOUS
 62
     6
100
AcDbVertex
100
AcDb2dVertex
 10
1316.335663
 20
1045.67334
 30
0.0
  0
VERTEX
  5
310
100
AcDbEntity
  8
止水栓
  6
CONTINUOUS
 62
     6
100
AcDbVertex
100
AcDb2dVertex
 10
1316.001495
 20
1045.965393
 30
0.0
  0
VERTEX
  5
311
100
AcDbEntity
  8
止水栓
  6
CONTINUOUS
 62
     6
100
AcDbVertex
100
AcDb2dVertex
 10
1315.646423
 20
1046.223267
 30
0.0
  0
VERTEX
  5
312
100
AcDbEntity
  8
止水栓
  6
CONTINUOUS
 62
     6
100
AcDbVertex
100
AcDb2dVertex
 10
1315.272888
 20
1046.444824
 30
0.0
  0
VERTEX
  5
313
100
AcDbEntity
  8
止水栓
  6
CONTINUOUS
 62
     6
100
AcDbVertex
100
AcDb2dVertex
 10
1314.883789
 20
1046.628387
 30
0.0
  0
VERTEX
  5
314
100
AcDbEntity
  8
止水栓
  6
CONTINUOUS
 62
     6
100
AcDbVertex
100
AcDb2dVertex
 10
1314.482178
 20
1046.772736
 30
0.0
  0
VERTEX
  5
315
100
AcDbEntity
  8
止水栓
  6
CONTINUOUS
 62
     6
100
AcDbVertex
100
AcDb2dVertex
 10
1314.070953
 20
1046.876495
 30
0.0
  0
VERTEX
  5
316
100
AcDbEntity
  8
止水栓
  6
CONTINUOUS
 62
     6
100
AcDbVertex
100
AcDb2dVertex
 10
1313.653473
 20
1046.939209
 30
0.0
  0
VERTEX
  5
317
100
AcDbEntity
  8
止水栓
  6
CONTINUOUS
 62
     6
100
AcDbVertex
100
AcDb2dVertex
 10
1313.232636
 20
1046.960113
 30
0.0
  0
VERTEX
  5
318
100
AcDbEntity
  8
止水栓
  6
CONTINUOUS
 62
     6
100
AcDbVertex
100
AcDb2dVertex
 10
1312.811951
 20
1046.939209
 30
0.0
  0
VERTEX
  5
319
100
AcDbEntity
  8
止水栓
  6
CONTINUOUS
 62
     6
100
AcDbVertex
100
AcDb2dVertex
 10
1312.394318
 20
1046.876495
 30
0.0
  0
VERTEX
  5
31A
100
AcDbEntity
  8
止水栓
  6
CONTINUOUS
 62
     6
100
AcDbVertex
100
AcDb2dVertex
 10
1311.983093
 20
1046.772736
 30
0.0
  0
VERTEX
  5
31B
100
AcDbEntity
  8
止水栓
  6
CONTINUOUS
 62
     6
100
AcDbVertex
100
AcDb2dVertex
 10
1311.581482
 20
1046.628387
 30
0.0
  0
VERTEX
  5
31C
100
AcDbEntity
  8
止水栓
  6
CONTINUOUS
 62
     6
100
AcDbVertex
100
AcDb2dVertex
 10
1311.192383
 20
1046.444824
 30
0.0
  0
VERTEX
  5
31D
100
AcDbEntity
  8
止水栓
  6
CONTINUOUS
 62
     6
100
AcDbVertex
100
AcDb2dVertex
 10
1310.818848
 20
1046.223267
 30
0.0
  0
VERTEX
  5
31E
100
AcDbEntity
  8
止水栓
  6
CONTINUOUS
 62
     6
100
AcDbVertex
100
AcDb2dVertex
 10
1310.463623
 20
1045.965393
 30
0.0
  0
VERTEX
  5
31F
100
AcDbEntity
  8
止水栓
  6
CONTINUOUS
 62
     6
100
AcDbVertex
100
AcDb2dVertex
 10
1310.129608
 20
1045.673187
 30
0.0
  0
VERTEX
  5
320
100
AcDbEntity
  8
止水栓
  6
CONTINUOUS
 62
     6
100
AcDbVertex
100
AcDb2dVertex
 10
1309.818939
 20
1045.349243
 30
0.0
  0
VERTEX
  5
321
100
AcDbEntity
  8
止水栓
  6
CONTINUOUS
 62
     6
100
AcDbVertex
100
AcDb2dVertex
 10
1309.534515
 20
1044.995392
 30
0.0
  0
VERTEX
  5
322
100
AcDbEntity
  8
止水栓
  6
CONTINUOUS
 62
     6
100
AcDbVertex
100
AcDb2dVertex
 10
1309.278015
 20
1044.614838
 30
0.0
  0
VERTEX
  5
323
100
AcDbEntity
  8
止水栓
  6
CONTINUOUS
 62
     6
100
AcDbVertex
100
AcDb2dVertex
 10
1309.05188
 20
1044.210175
 30
0.0
  0
VERTEX
  5
324
100
AcDbEntity
  8
止水栓
  6
CONTINUOUS
 62
     6
100
AcDbVertex
100
AcDb2dVertex
 10
1308.857483
 20
1043.784607
 30
0.0
  0
VERTEX
  5
325
100
AcDbEntity
  8
止水栓
  6
CONTINUOUS
 62
     6
100
AcDbVertex
100
AcDb2dVertex
 10
1308.69635
 20
1043.341186
 30
0.0
  0
VERTEX
  5
326
100
AcDbEntity
  8
止水栓
  6
CONTINUOUS
 62
     6
100
AcDbVertex
100
AcDb2dVertex
 10
1308.56955
 20
1042.883575
 30
0.0
  0
VERTEX
  5
327
100
AcDbEntity
  8
止水栓
  6
CONTINUOUS
 62
     6
100
AcDbVertex
100
AcDb2dVertex
 10
1308.532623
 20
1042.716034
 30
0.0
  0
VERTEX
  5
328
100
AcDbEntity
  8
止水栓
  6
CONTINUOUS
 62
     6
100
AcDbVertex
100
AcDb2dVertex
 10
1308.500275
 20
1042.547272
 30
0.0
  0
VERTEX
  5
329
100
AcDbEntity
  8
止水栓
  6
CONTINUOUS
 62
     6
100
AcDbVertex
100
AcDb2dVertex
 10
1308.472656
 20
1042.377441
 30
0.0
  0
SEQEND
  5
32A
100
AcDbEntity
  8
止水栓
  6
CONTINUOUS
 62
     6
  0
POLYLINE
  5
32B
100
AcDbEntity
  8
止水栓
  6
CONTINUOUS
 62
     6
100
AcDb2dPolyline
 66
     1
 10
0.0
 20
0.0
 30
0.0
 70
   128
  0
VERTEX
  5
32C
100
AcDbEntity
  8
止水栓
  6
CONTINUOUS
 62
     6
100
AcDbVertex
100
AcDb2dVertex
 10
1306.487488
 20
1042.377441
 30
0.0
  0
VERTEX
  5
32D
100
AcDbEntity
  8
止水栓
  6
CONTINUOUS
 62
     6
100
AcDbVertex
100
AcDb2dVertex
 10
1306.459869
 20
1042.547272
 30
0.0
  0
VERTEX
  5
32E
100
AcDbEntity
  8
止水栓
  6
CONTINUOUS
 62
     6
100
AcDbVertex
100
AcDb2dVertex
 10
1306.427521
 20
1042.716034
 30
0.0
  0
VERTEX
  5
32F
100
AcDbEntity
  8
止水栓
  6
CONTINUOUS
 62
     6
100
AcDbVertex
100
AcDb2dVertex
 10
1306.390595
 20
1042.883575
 30
0.0
  0
VERTEX
  5
330
100
AcDbEntity
  8
止水栓
  6
CONTINUOUS
 62
     6
100
AcDbVertex
100
AcDb2dVertex
 10
1306.263947
 20
1043.341186
 30
0.0
  0
VERTEX
  5
331
100
AcDbEntity
  8
止水栓
  6
CONTINUOUS
 62
     6
100
AcDbVertex
100
AcDb2dVertex
 10
1306.102814
 20
1043.784454
 30
0.0
  0
VERTEX
  5
332
100
AcDbEntity
  8
止水栓
  6
CONTINUOUS
 62
     6
100
AcDbVertex
100
AcDb2dVertex
 10
1305.908417
 20
1044.210175
 30
0.0
  0
VERTEX
  5
333
100
AcDbEntity
  8
止水栓
  6
CONTINUOUS
 62
     6
100
AcDbVertex
100
AcDb2dVertex
 10
1305.682129
 20
1044.614838
 30
0.0
  0
VERTEX
  5
334
100
AcDbEntity
  8
止水栓
  6
CONTINUOUS
 62
     6
100
AcDbVertex
100
AcDb2dVertex
 10
1305.425781
 20
1044.995392
 30
0.0
  0
VERTEX
  5
335
100
AcDbEntity
  8
止水栓
  6
CONTINUOUS
 62
     6
100
AcDbVertex
100
AcDb2dVertex
 10
1305.141205
 20
1045.349243
 30
0.0
  0
VERTEX
  5
336
100
AcDbEntity
  8
止水栓
  6
CONTINUOUS
 62
     6
100
AcDbVertex
100
AcDb2dVertex
 10
1304.830689
 20
1045.67334
 30
0.0
  0
VERTEX
  5
337
100
AcDbEntity
  8
止水栓
  6
CONTINUOUS
 62
     6
100
AcDbVertex
100
AcDb2dVertex
 10
1304.496521
 20
1045.965393
 30
0.0
  0
VERTEX
  5
338
100
AcDbEntity
  8
止水栓
  6
CONTINUOUS
 62
     6
100
AcDbVertex
100
AcDb2dVertex
 10
1304.141449
 20
1046.223267
 30
0.0
  0
VERTEX
  5
339
100
AcDbEntity
  8
止水栓
  6
CONTINUOUS
 62
     6
100
AcDbVertex
100
AcDb2dVertex
 10
1303.767914
 20
1046.444824
 30
0.0
  0
VERTEX
  5
33A
100
AcDbEntity
  8
止水栓
  6
CONTINUOUS
 62
     6
100
AcDbVertex
100
AcDb2dVertex
 10
1303.378815
 20
1046.628387
 30
0.0
  0
VERTEX
  5
33B
100
AcDbEntity
  8
止水栓
  6
CONTINUOUS
 62
     6
100
AcDbVertex
100
AcDb2dVertex
 10
1302.977203
 20
1046.772736
 30
0.0
  0
VERTEX
  5
33C
100
AcDbEntity
  8
止水栓
  6
CONTINUOUS
 62
     6
100
AcDbVertex
100
AcDb2dVertex
 10
1302.565979
 20
1046.876495
 30
0.0
  0
VERTEX
  5
33D
100
AcDbEntity
  8
止水栓
  6
CONTINUOUS
 62
     6
100
AcDbVertex
100
AcDb2dVertex
 10
1302.148499
 20
1046.939209
 30
0.0
  0
VERTEX
  5
33E
100
AcDbEntity
  8
止水栓
  6
CONTINUOUS
 62
     6
100
AcDbVertex
100
AcDb2dVertex
 10
1301.727661
 20
1046.960113
 30
0.0
  0
VERTEX
  5
33F
100
AcDbEntity
  8
止水栓
  6
CONTINUOUS
 62
     6
100
AcDbVertex
100
AcDb2dVertex
 10
1301.306976
 20
1046.939209
 30
0.0
  0
VERTEX
  5
340
100
AcDbEntity
  8
止水栓
  6
CONTINUOUS
 62
     6
100
AcDbVertex
100
AcDb2dVertex
 10
1300.889343
 20
1046.876495
 30
0.0
  0
VERTEX
  5
341
100
AcDbEntity
  8
止水栓
  6
CONTINUOUS
 62
     6
100
AcDbVertex
100
AcDb2dVertex
 10
1300.478119
 20
1046.772736
 30
0.0
  0
VERTEX
  5
342
100
AcDbEntity
  8
止水栓
  6
CONTINUOUS
 62
     6
100
AcDbVertex
100
AcDb2dVertex
 10
1300.076508
 20
1046.628387
 30
0.0
  0
VERTEX
  5
343
100
AcDbEntity
  8
止水栓
  6
CONTINUOUS
 62
     6
100
AcDbVertex
100
AcDb2dVertex
 10
1299.687408
 20
1046.444824
 30
0.0
  0
VERTEX
  5
344
100
AcDbEntity
  8
止水栓
  6
CONTINUOUS
 62
     6
100
AcDbVertex
100
AcDb2dVertex
 10
1299.313873
 20
1046.223267
 30
0.0
  0
VERTEX
  5
345
100
AcDbEntity
  8
止水栓
  6
CONTINUOUS
 62
     6
100
AcDbVertex
100
AcDb2dVertex
 10
1298.958649
 20
1045.965393
 30
0.0
  0
VERTEX
  5
346
100
AcDbEntity
  8
止水栓
  6
CONTINUOUS
 62
     6
100
AcDbVertex
100
AcDb2dVertex
 10
1298.624634
 20
1045.673187
 30
0.0
  0
VERTEX
  5
347
100
AcDbEntity
  8
止水栓
  6
CONTINUOUS
 62
     6
100
AcDbVertex
100
AcDb2dVertex
 10
1298.313965
 20
1045.349243
 30
0.0
  0
VERTEX
  5
348
100
AcDbEntity
  8
止水栓
  6
CONTINUOUS
 62
     6
100
AcDbVertex
100
AcDb2dVertex
 10
1298.029541
 20
1044.995392
 30
0.0
  0
VERTEX
  5
349
100
AcDbEntity
  8
止水栓
  6
CONTINUOUS
 62
     6
100
AcDbVertex
100
AcDb2dVertex
 10
1297.773193
 20
1044.614838
 30
0.0
  0
VERTEX
  5
34A
100
AcDbEntity
  8
止水栓
  6
CONTINUOUS
 62
     6
100
AcDbVertex
100
AcDb2dVertex
 10
1297.546905
 20
1044.210175
 30
0.0
  0
VERTEX
  5
34B
100
AcDbEntity
  8
止水栓
  6
CONTINUOUS
 62
     6
100
AcDbVertex
100
AcDb2dVertex
 10
1297.352509
 20
1043.784607
 30
0.0
  0
VERTEX
  5
34C
100
AcDbEntity
  8
止水栓
  6
CONTINUOUS
 62
     6
100
AcDbVertex
100
AcDb2dVertex
 10
1297.191376
 20
1043.341186
 30
0.0
  0
VERTEX
  5
34D
100
AcDbEntity
  8
止水栓
  6
CONTINUOUS
 62
     6
100
AcDbVertex
100
AcDb2dVertex
 10
1297.064575
 20
1042.883575
 30
0.0
  0
VERTEX
  5
34E
100
AcDbEntity
  8
止水栓
  6
CONTINUOUS
 62
     6
100
AcDbVertex
100
AcDb2dVertex
 10
1296.97348
 20
1042.415131
 30
0.0
  0
VERTEX
  5
34F
100
AcDbEntity
  8
止水栓
  6
CONTINUOUS
 62
     6
100
AcDbVertex
100
AcDb2dVertex
 10
1296.918549
 20
1041.939362
 30
0.0
  0
VERTEX
  5
350
100
AcDbEntity
  8
止水栓
  6
CONTINUOUS
 62
     6
100
AcDbVertex
100
AcDb2dVertex
 10
1296.900086
 20
1041.460083
 30
0.0
  0
VERTEX
  5
351
100
AcDbEntity
  8
止水栓
  6
CONTINUOUS
 62
     6
100
AcDbVertex
100
AcDb2dVertex
 10
1296.918549
 20
1040.980804
 30
0.0
  0
VERTEX
  5
352
100
AcDbEntity
  8
止水栓
  6
CONTINUOUS
 62
     6
100
AcDbVertex
100
AcDb2dVertex
 10
1296.97348
 20
1040.505035
 30
0.0
  0
VERTEX
  5
353
100
AcDbEntity
  8
止水栓
  6
CONTINUOUS
 62
     6
100
AcDbVertex
100
AcDb2dVertex
 10
1297.064575
 20
1040.036743
 30
0.0
  0
VERTEX
  5
354
100
AcDbEntity
  8
止水栓
  6
CONTINUOUS
 62
     6
100
AcDbVertex
100
AcDb2dVertex
 10
1297.191223
 20
1039.579132
 30
0.0
  0
VERTEX
  5
355
100
AcDbEntity
  8
止水栓
  6
CONTINUOUS
 62
     6
100
AcDbVertex
100
AcDb2dVertex
 10
1297.352509
 20
1039.135864
 30
0.0
  0
VERTEX
  5
356
100
AcDbEntity
  8
止水栓
  6
CONTINUOUS
 62
     6
100
AcDbVertex
100
AcDb2dVertex
 10
1297.546905
 20
1038.710144
 30
0.0
  0
VERTEX
  5
357
100
AcDbEntity
  8
止水栓
  6
CONTINUOUS
 62
     6
100
AcDbVertex
100
AcDb2dVertex
 10
1297.773193
 20
1038.305481
 30
0.0
  0
VERTEX
  5
358
100
AcDbEntity
  8
止水栓
  6
CONTINUOUS
 62
     6
100
AcDbVertex
100
AcDb2dVertex
 10
1298.029541
 20
1037.924927
 30
0.0
  0
VERTEX
  5
359
100
AcDbEntity
  8
止水栓
  6
CONTINUOUS
 62
     6
100
AcDbVertex
100
AcDb2dVertex
 10
1298.313965
 20
1037.571075
 30
0.0
  0
VERTEX
  5
35A
100
AcDbEntity
  8
止水栓
  6
CONTINUOUS
 62
     6
100
AcDbVertex
100
AcDb2dVertex
 10
1298.624481
 20
1037.246979
 30
0.0
  0
VERTEX
  5
35B
100
AcDbEntity
  8
止水栓
  6
CONTINUOUS
 62
     6
100
AcDbVertex
100
AcDb2dVertex
 10
1298.958649
 20
1036.954925
 30
0.0
  0
VERTEX
  5
35C
100
AcDbEntity
  8
止水栓
  6
CONTINUOUS
 62
     6
100
AcDbVertex
100
AcDb2dVertex
 10
1299.313873
 20
1036.697052
 30
0.0
  0
VERTEX
  5
35D
100
AcDbEntity
  8
止水栓
  6
CONTINUOUS
 62
     6
100
AcDbVertex
100
AcDb2dVertex
 10
1299.687408
 20
1036.475494
 30
0.0
  0
VERTEX
  5
35E
100
AcDbEntity
  8
止水栓
  6
CONTINUOUS
 62
     6
100
AcDbVertex
100
AcDb2dVertex
 10
1300.076508
 20
1036.291931
 30
0.0
  0
VERTEX
  5
35F
100
AcDbEntity
  8
止水栓
  6
CONTINUOUS
 62
     6
100
AcDbVertex
100
AcDb2dVertex
 10
1300.478119
 20
1036.14743
 30
0.0
  0
VERTEX
  5
360
100
AcDbEntity
  8
止水栓
  6
CONTINUOUS
 62
     6
100
AcDbVertex
100
AcDb2dVertex
 10
1300.681671
 20
1036.090668
 30
0.0
  0
VERTEX
  5
361
100
AcDbEntity
  8
止水栓
  6
CONTINUOUS
 62
     6
100
AcDbVertex
100
AcDb2dVertex
 10
1300.887054
 20
1036.044128
 30
0.0
  0
VERTEX
  5
362
100
AcDbEntity
  8
止水栓
  6
CONTINUOUS
 62
     6
100
AcDbVertex
100
AcDb2dVertex
 10
1301.094116
 20
1036.00766
 30
0.0
  0
SEQEND
  5
363
100
AcDbEntity
  8
止水栓
  6
CONTINUOUS
 62
     6
  0
ARC
  5
364
100
AcDbEntity
  8
止水栓
  6
CONTINUOUS
 62
     6
100
AcDbCircle
 10
1307.613586
 20
1010.796631
 30
0.0
 40
27.499943
100
AcDbArc
 50
115.026443
 51
196.72908
  0
ARC
  5
365
100
AcDbEntity
  8
止水栓
  6
CONTINUOUS
 62
     6
100
AcDbCircle
 10
1307.613586
 20
1010.796631
 30
0.0
 40
27.500057
100
AcDbArc
 50
220.361603
 51
319.491608
  0
ARC
  5
366
100
AcDbEntity
  8
止水栓
  6
CONTINUOUS
 62
     6
100
AcDbCircle
 10
1307.613586
 20
1010.796631
 30
0.0
 40
27.499952
100
AcDbArc
 50
342.808853
 51
65.58609
  0
LINE
  5
367
100
AcDbEntity
  8
止水栓
  6
CONTINUOUS
 62
     6
100
AcDbLine
 10
1313.963532
 20
1134.538544
 30
0.0
 11
1313.963532
 21
1047.460144
 31
0.0
  0
LINE
  5
368
100
AcDbEntity
  8
止水栓
  6
CONTINUOUS
 62
     6
100
AcDbLine
 10
1301.263641
 20
1123.18219
 30
0.0
 11
1301.263641
 21
1047.460144
 31
0.0
  0
LINE
  5
369
100
AcDbEntity
  8
止水栓
  6
CONTINUOUS
 62
     6
100
AcDbLine
 10
1307.613586
 20
1100.261505
 30
0.0
 11
1307.613586
 21
1139.871185
 31
0.0
  0
LINE
  5
36A
100
AcDbEntity
  8
止水栓
  6
CONTINUOUS
 62
     6
100
AcDbLine
 10
1307.613586
 20
905.0
 30
0.0
 11
1307.613586
 21
1070.261505
 31
0.0
  0
LINE
  5
36B
100
AcDbEntity
  8
止水栓
  6
CONTINUOUS
 62
     6
100
AcDbLine
 10
1307.613586
 20
1080.261505
 30
0.0
 11
1307.613586
 21
1090.261505
 31
0.0
  0
TEXT
  5
36C
100
AcDbEntity
  8
止水栓
  6
CONTINUOUS
 62
     2
100
AcDbText
 10
973.0
 20
1007.500061
 30
0.0
 40
40.0
  1
ＮＬ２Ｙ
 41
0.819
  7
EXCADSTD
 72
     5
 11
1128.999999
 21
1007.500061
 31
0.0
100
AcDbText
  0
LINE
  5
36D
100
AcDbEntity
  8
止水栓
  6
CONTINUOUS
 62
     6
100
AcDbLine
 10
972.0
 20
1004.0
 30
0.0
 11
1120.0
 21
1004.0
 31
0.0
  0
LINE
  5
36E
100
AcDbEntity
  8
止水栓
  6
CONTINUOUS
 62
     6
100
AcDbLine
 10
1317.805572
 20
453.938568
 30
0.0
 11
1318.019958
 21
460.796631
 31
0.0
  0
LINE
  5
36F
100
AcDbEntity
  8
止水栓
  6
CONTINUOUS
 62
     6
100
AcDbLine
 10
1297.421661
 20
453.938568
 30
0.0
 11
1317.805572
 21
453.938568
 31
0.0
  0
LINE
  5
370
100
AcDbEntity
  8
止水栓
  6
CONTINUOUS
 62
     6
100
AcDbLine
 10
1317.805572
 20
453.938568
 30
0.0
 11
1316.363617
 21
452.496613
 31
0.0
  0
TEXT
  5
371
100
AcDbEntity
  8
止水栓
  6
CONTINUOUS
 62
     6
100
AcDbText
 10
1405.298035
 20
386.500061
 30
0.0
 40
40.0
  1
／ 
 41
0.94164
  7
EXCADSTD
 72
     5
 11
1441.170036
 21
386.500061
 31
0.0
100
AcDbText
  0
TEXT
  5
372
100
AcDbEntity
  8
止水栓
  6
CONTINUOUS
 62
     2
100
AcDbText
 10
1430.794189
 20
385.171631
 30
0.0
 40
25.0
  1
２
 41
0.911904
  7
EXCADSTD
 72
     5
 11
1452.506189
 21
385.171631
 31
0.0
100
AcDbText
  0
TEXT
  5
373
100
AcDbEntity
  8
止水栓
  6
CONTINUOUS
 62
     2
100
AcDbText
 10
1396.8797
 20
402.121246
 30
0.0
 40
25.0
  1
１
 41
0.911904
  7
EXCADSTD
 72
     5
 11
1418.591699
 21
402.121246
 31
0.0
100
AcDbText
  0
TEXT
  5
374
100
AcDbEntity
  8
止水栓
  6
CONTINUOUS
 62
     2
100
AcDbText
 10
1363.42276
 20
386.500061
 30
0.0
 40
40.0
  1
Ｒ
 41
0.94164
  7
EXCADSTD
 72
     5
 11
1399.294762
 21
386.500061
 31
0.0
100
AcDbText
  0
LINE
  5
375
100
AcDbEntity
  8
止水栓
  6
CONTINUOUS
 62
     6
100
AcDbLine
 10
1365.134017
 20
383.0
 30
0.0
 11
1457.0
 21
383.0
 31
0.0
  0
LINE
  5
376
100
AcDbEntity
  8
止水栓
  6
EXLTYPE4
 62
     6
100
AcDbLine
 10
1335.113617
 20
460.796631
 30
0.0
 11
1335.113617
 21
462.7966
 31
0.0
  0
ARC
  5
377
100
AcDbEntity
  8
止水栓
  6
EXLTYPE4
 62
     6
100
AcDbCircle
 10
1322.113586
 20
462.7966
 30
0.0
 40
13.000002
100
AcDbArc
 50
0.0
 51
66.735184
  0
ARC
  5
378
100
AcDbEntity
  8
止水栓
  6
EXLTYPE4
 62
     6
100
AcDbCircle
 10
1317.25534
 20
451.496704
 30
0.0
 40
25.299997
100
AcDbArc
 50
66.735397
 51
90.0
  0
LINE
  5
379
100
AcDbEntity
  8
止水栓
  6
EXLTYPE4
 62
     6
100
AcDbLine
 10
1297.971893
 20
476.796692
 30
0.0
 11
1317.25534
 21
476.796692
 31
0.0
  0
ARC
  5
37A
100
AcDbEntity
  8
止水栓
  6
EXLTYPE4
 62
     6
100
AcDbCircle
 10
1297.971893
 20
451.496704
 30
0.0
 40
25.299997
100
AcDbArc
 50
90.0
 51
113.264603
  0
ARC
  5
37B
100
AcDbEntity
  8
止水栓
  6
EXLTYPE4
 62
     6
100
AcDbCircle
 10
1293.113647
 20
462.7966
 30
0.0
 40
13.000002
100
AcDbArc
 50
113.264816
 51
180.0
  0
LINE
  5
37C
100
AcDbEntity
  8
止水栓
  6
EXLTYPE4
 62
     6
100
AcDbLine
 10
1280.113617
 20
460.796631
 30
0.0
 11
1280.113617
 21
462.7966
 31
0.0
  0
LINE
  5
37D
100
AcDbEntity
  8
止水栓
  6
EXLTYPE4
 62
     6
100
AcDbLine
 10
1318.113647
 20
476.796692
 30
0.0
 11
1318.113647
 21
734.0
 31
0.0
  0
LINE
  5
37E
100
AcDbEntity
  8
止水栓
  6
EXLTYPE4
 62
     6
100
AcDbLine
 10
1297.113586
 20
476.796692
 30
0.0
 11
1297.113586
 21
734.0
 31
0.0
  0
LINE
  5
37F
100
AcDbEntity
  8
止水栓
  6
EXLTYPE4
 62
     6
100
AcDbLine
 10
1297.421661
 20
453.938568
 30
0.0
 11
1298.863617
 21
452.496613
 31
0.0
  0
LINE
  5
380
100
AcDbEntity
  8
止水栓
  6
EXLTYPE4
 62
     6
100
AcDbLine
 10
1298.863617
 20
452.496613
 30
0.0
 11
1316.363617
 21
452.496613
 31
0.0
  0
LINE
  5
381
100
AcDbEntity
  8
止水栓
  6
EXLTYPE4
 62
     6
100
AcDbLine
 10
1297.421661
 20
453.938568
 30
0.0
 11
1297.207275
 21
460.796631
 31
0.0
  0
LINE
  5
382
100
AcDbEntity
  8
止水栓
  6
EXLTYPE4
 62
     6
100
AcDbLine
 10
1298.660522
 20
452.699707
 30
0.0
 11
1298.407379
 21
460.796631
 31
0.0
  0
LINE
  5
383
100
AcDbEntity
  8
止水栓
  6
EXLTYPE4
 62
     6
100
AcDbLine
 10
1316.819855
 20
460.796631
 30
0.0
 11
1316.566711
 21
452.699707
 31
0.0
  0
LEADER
  5
384
100
AcDbEntity
  8
トラップ
  6
CONTINUOUS
 62
     6
100
AcDbLeader
  3
STANDARD
 73
     3
 74
     1
 75
     0
 40
0.0
 76
     2
 10
1202.913971
 20
898.399997
 30
0.0
 10
1130.000017
 20
849.400002
 30
0.0
 77
     6
1001
ACAD
1000
DSTYLE
1002
{
1070
    41
1040
35.0
1070
     5
1000
_EX_NORM
1070
     6
1000
_EX_NORM
1070
     7
1000
_EX_NORM
1070
   341
1005
2C
1002
}
  0
POLYLINE
  5
385
100
AcDbEntity
  8
トラップ
  6
CONTINUOUS
 62
     6
100
AcDb2dPolyline
 66
     1
 10
0.0
 20
0.0
 30
0.0
 70
   128
  0
VERTEX
  5
386
100
AcDbEntity
  8
トラップ
  6
CONTINUOUS
 62
     6
100
AcDbVertex
100
AcDb2dVertex
 10
1203.113617
 20
2017.796571
 30
0.0
  0
VERTEX
  5
387
100
AcDbEntity
  8
トラップ
  6
CONTINUOUS
 62
     6
100
AcDbVertex
100
AcDb2dVertex
 10
1147.0
 20
2052.0
 30
0.0
  0
SEQEND
  5
388
100
AcDbEntity
  8
トラップ
  6
CONTINUOUS
 62
     6
  0
LINE
  5
389
100
AcDbEntity
  8
トラップ
  6
CONTINUOUS
 62
     6
100
AcDbLine
 10
1170.191777
 20
2031.032139
 30
0.0
 11
1203.113617
 21
2017.796571
 31
0.0
  0
LINE
  5
38A
100
AcDbEntity
  8
トラップ
  6
CONTINUOUS
 62
     6
100
AcDbLine
 10
1203.113617
 20
2017.796571
 30
0.0
 11
1176.263953
 21
2040.994056
 31
0.0
  0
LINE
  5
38B
100
AcDbEntity
  8
トラップ
  6
CONTINUOUS
 62
     6
100
AcDbLine
 10
1073.80069
 20
2052.0
 30
0.0
 11
1147.0
 21
2052.0
 31
0.0
  0
TEXT
  5
38C
100
AcDbEntity
  8
トラップ
  6
CONTINUOUS
 62
     2
100
AcDbText
 10
1069.80069
 20
2055.500061
 30
0.0
 40
40.0
  1
２５
 41
0.861
  7
EXCADSTD
 72
     5
 11
1144.96189
 21
2055.500061
 31
0.0
100
AcDbText
  0
LINE
  5
38D
100
AcDbEntity
  8
トラップ
  6
CONTINUOUS
 62
     6
100
AcDbLine
 10
1228.113617
 20
2032.796568
 30
0.0
 11
1228.113617
 21
2002.796561
 31
0.0
  0
LINE
  5
38E
100
AcDbEntity
  8
トラップ
  6
CONTINUOUS
 62
     6
100
AcDbLine
 10
1203.113617
 20
2032.796568
 30
0.0
 11
1203.113617
 21
2002.796575
 31
0.0
  0
LINE
  5
38F
100
AcDbEntity
  8
トラップ
  6
CONTINUOUS
 62
     6
100
AcDbLine
 10
1203.113617
 20
2032.796575
 30
0.0
 11
1228.113617
 21
2032.796561
 31
0.0
  0
LINE
  5
390
100
AcDbEntity
  8
トラップ
  6
CONTINUOUS
 62
     6
100
AcDbLine
 10
1189.113373
 20
1072.620056
 30
0.0
 11
1242.113251
 21
1072.620056
 31
0.0
  0
LINE
  5
391
100
AcDbEntity
  8
トラップ
  6
CONTINUOUS
 62
     6
100
AcDbLine
 10
1242.113251
 20
1074.619568
 30
0.0
 11
1242.113251
 21
1072.620056
 31
0.0
  0
LINE
  5
392
100
AcDbEntity
  8
トラップ
  6
CONTINUOUS
 62
     6
100
AcDbLine
 10
1189.113373
 20
1074.619568
 30
0.0
 11
1189.113373
 21
1072.620056
 31
0.0
  0
LINE
  5
393
100
AcDbEntity
  8
トラップ
  6
CONTINUOUS
 62
     6
100
AcDbLine
 10
1241.150726
 20
1078.618591
 30
0.0
 11
1244.614014
 21
1076.61908
 31
0.0
  0
LINE
  5
394
100
AcDbEntity
  8
トラップ
  6
CONTINUOUS
 62
     6
100
AcDbLine
 10
1190.076355
 20
1078.618591
 30
0.0
 11
1186.613068
 21
1076.61908
 31
0.0
  0
LINE
  5
395
100
AcDbEntity
  8
トラップ
  6
CONTINUOUS
 62
     6
100
AcDbLine
 10
1186.613373
 20
1076.61908
 30
0.0
 11
1244.613251
 21
1076.61908
 31
0.0
  0
LINE
  5
396
100
AcDbEntity
  8
トラップ
  6
CONTINUOUS
 62
     6
100
AcDbLine
 10
1186.613373
 20
1074.619568
 30
0.0
 11
1244.613251
 21
1074.619568
 31
0.0
  0
LINE
  5
397
100
AcDbEntity
  8
トラップ
  6
CONTINUOUS
 62
     6
100
AcDbLine
 10
1244.613251
 20
1076.61908
 30
0.0
 11
1244.613251
 21
1074.619568
 31
0.0
  0
LINE
  5
398
100
AcDbEntity
  8
トラップ
  6
CONTINUOUS
 62
     6
100
AcDbLine
 10
1186.613373
 20
1076.61908
 30
0.0
 11
1186.613373
 21
1074.619568
 31
0.0
  0
LINE
  5
399
100
AcDbEntity
  8
トラップ
  6
CONTINUOUS
 62
     6
100
AcDbLine
 10
1233.113312
 20
1065.620544
 30
0.0
 11
1235.613312
 21
1067.119568
 31
0.0
  0
LINE
  5
39A
100
AcDbEntity
  8
トラップ
  6
CONTINUOUS
 62
     6
100
AcDbLine
 10
1195.613312
 20
1067.119568
 30
0.0
 11
1198.113312
 21
1065.620544
 31
0.0
  0
LINE
  5
39B
100
AcDbEntity
  8
トラップ
  6
CONTINUOUS
 62
     6
100
AcDbLine
 10
1198.113312
 20
1065.620544
 30
0.0
 11
1233.113312
 21
1065.620544
 31
0.0
  0
LINE
  5
39C
100
AcDbEntity
  8
トラップ
  6
CONTINUOUS
 62
     6
100
AcDbLine
 10
1235.613312
 20
1072.620056
 30
0.0
 11
1235.613312
 21
1067.119568
 31
0.0
  0
LINE
  5
39D
100
AcDbEntity
  8
トラップ
  6
CONTINUOUS
 62
     6
100
AcDbLine
 10
1195.613312
 20
1072.620056
 30
0.0
 11
1195.613312
 21
1067.119568
 31
0.0
  0
ARC
  5
39E
100
AcDbEntity
  8
トラップ
  6
CONTINUOUS
 62
     6
100
AcDbCircle
 10
1199.592041
 20
1074.705017
 30
0.0
 40
8.483931
100
AcDbArc
 50
243.392502
 51
296.606125
  0
ARC
  5
39F
100
AcDbEntity
  8
トラップ
  6
CONTINUOUS
 62
     6
100
AcDbCircle
 10
1215.613464
 20
1098.78949
 30
0.0
 40
32.567711
100
AcDbArc
 50
256.510895
 51
283.489105
  0
ARC
  5
3A0
100
AcDbEntity
  8
トラップ
  6
CONTINUOUS
 62
     6
100
AcDbCircle
 10
1231.63504
 20
1074.705017
 30
0.0
 40
8.483658
100
AcDbArc
 50
243.393875
 51
296.606125
  0
LINE
  5
3A1
100
AcDbEntity
  8
トラップ
  6
CONTINUOUS
 62
     6
100
AcDbLine
 10
1203.391632
 20
1067.119568
 30
0.0
 11
1208.016571
 21
1067.119568
 31
0.0
  0
LINE
  5
3A2
100
AcDbEntity
  8
トラップ
  6
CONTINUOUS
 62
     6
100
AcDbLine
 10
1223.210358
 20
1067.119568
 30
0.0
 11
1227.835449
 21
1067.119568
 31
0.0
  0
LINE
  5
3A3
100
AcDbEntity
  8
トラップ
  6
CONTINUOUS
 62
     6
100
AcDbLine
 10
1227.835449
 20
1072.620056
 30
0.0
 11
1227.835449
 21
1067.119568
 31
0.0
  0
LINE
  5
3A4
100
AcDbEntity
  8
トラップ
  6
CONTINUOUS
 62
     6
100
AcDbLine
 10
1223.210358
 20
1072.620056
 30
0.0
 11
1223.210358
 21
1067.119568
 31
0.0
  0
LINE
  5
3A5
100
AcDbEntity
  8
トラップ
  6
CONTINUOUS
 62
     6
100
AcDbLine
 10
1208.016571
 20
1072.620056
 30
0.0
 11
1208.016571
 21
1067.119568
 31
0.0
  0
LINE
  5
3A6
100
AcDbEntity
  8
トラップ
  6
CONTINUOUS
 62
     6
100
AcDbLine
 10
1203.391632
 20
1072.620056
 30
0.0
 11
1203.391632
 21
1067.119568
 31
0.0
  0
LINE
  5
3A7
100
AcDbEntity
  8
トラップ
  6
CONTINUOUS
 62
     6
100
AcDbLine
 10
1198.113312
 20
1059.11908
 30
0.0
 11
1233.113312
 21
1059.11908
 31
0.0
  0
POLYLINE
  5
3A8
100
AcDbEntity
  8
トラップ
  6
CONTINUOUS
 62
     6
100
AcDb2dPolyline
 66
     1
 10
0.0
 20
0.0
 30
0.0
 70
   128
  0
VERTEX
  5
3A9
100
AcDbEntity
  8
トラップ
  6
CONTINUOUS
 62
     6
100
AcDbVertex
100
AcDb2dVertex
 10
1203.776001
 20
1053.618591
 30
0.0
  0
VERTEX
  5
3AA
100
AcDbEntity
  8
トラップ
  6
CONTINUOUS
 62
     6
100
AcDbVertex
100
AcDb2dVertex
 10
1203.761658
 20
1054.040955
 30
0.0
  0
VERTEX
  5
3AB
100
AcDbEntity
  8
トラップ
  6
CONTINUOUS
 62
     6
100
AcDbVertex
100
AcDb2dVertex
 10
1203.718933
 20
1054.458435
 30
0.0
  0
VERTEX
  5
3AC
100
AcDbEntity
  8
トラップ
  6
CONTINUOUS
 62
     6
100
AcDbVertex
100
AcDb2dVertex
 10
1203.648438
 20
1054.871033
 30
0.0
  0
VERTEX
  5
3AD
100
AcDbEntity
  8
トラップ
  6
CONTINUOUS
 62
     6
100
AcDbVertex
100
AcDb2dVertex
 10
1203.550018
 20
1055.273865
 30
0.0
  0
VERTEX
  5
3AE
100
AcDbEntity
  8
トラップ
  6
CONTINUOUS
 62
     6
100
AcDbVertex
100
AcDb2dVertex
 10
1203.424896
 20
1055.66449
 30
0.0
  0
VERTEX
  5
3AF
100
AcDbEntity
  8
トラップ
  6
CONTINUOUS
 62
     6
100
AcDbVertex
100
AcDb2dVertex
 10
1203.273682
 20
1056.040466
 30
0.0
  0
VERTEX
  5
3B0
100
AcDbEntity
  8
トラップ
  6
CONTINUOUS
 62
     6
100
AcDbVertex
100
AcDb2dVertex
 10
1203.0979
 20
1056.396912
 30
0.0
  0
VERTEX
  5
3B1
100
AcDbEntity
  8
トラップ
  6
CONTINUOUS
 62
     6
100
AcDbVertex
100
AcDb2dVertex
 10
1202.898773
 20
1056.731384
 30
0.0
  0
VERTEX
  5
3B2
100
AcDbEntity
  8
トラップ
  6
CONTINUOUS
 62
     6
100
AcDbVertex
100
AcDb2dVertex
 10
1202.677673
 20
1057.041443
 30
0.0
  0
VERTEX
  5
3B3
100
AcDbEntity
  8
トラップ
  6
CONTINUOUS
 62
     6
100
AcDbVertex
100
AcDb2dVertex
 10
1202.436432
 20
1057.327087
 30
0.0
  0
VERTEX
  5
3B4
100
AcDbEntity
  8
トラップ
  6
CONTINUOUS
 62
     6
100
AcDbVertex
100
AcDb2dVertex
 10
1202.17688
 20
1057.583435
 30
0.0
  0
VERTEX
  5
3B5
100
AcDbEntity
  8
トラップ
  6
CONTINUOUS
 62
     6
100
AcDbVertex
100
AcDb2dVertex
 10
1201.900696
 20
1057.810486
 30
0.0
  0
VERTEX
  5
3B6
100
AcDbEntity
  8
トラップ
  6
CONTINUOUS
 62
     6
100
AcDbVertex
100
AcDb2dVertex
 10
1201.610474
 20
1058.005798
 30
0.0
  0
VERTEX
  5
3B7
100
AcDbEntity
  8
トラップ
  6
CONTINUOUS
 62
     6
100
AcDbVertex
100
AcDb2dVertex
 10
1201.308044
 20
1058.166931
 30
0.0
  0
VERTEX
  5
3B8
100
AcDbEntity
  8
トラップ
  6
CONTINUOUS
 62
     6
100
AcDbVertex
100
AcDb2dVertex
 10
1200.996155
 20
1058.293884
 30
0.0
  0
VERTEX
  5
3B9
100
AcDbEntity
  8
トラップ
  6
CONTINUOUS
 62
     6
100
AcDbVertex
100
AcDb2dVertex
 10
1200.676636
 20
1058.384216
 30
0.0
  0
VERTEX
  5
3BA
100
AcDbEntity
  8
トラップ
  6
CONTINUOUS
 62
     6
100
AcDbVertex
100
AcDb2dVertex
 10
1200.352234
 20
1058.440369
 30
0.0
  0
VERTEX
  5
3BB
100
AcDbEntity
  8
トラップ
  6
CONTINUOUS
 62
     6
100
AcDbVertex
100
AcDb2dVertex
 10
1200.025391
 20
1058.4599
 30
0.0
  0
VERTEX
  5
3BC
100
AcDbEntity
  8
トラップ
  6
CONTINUOUS
 62
     6
100
AcDbVertex
100
AcDb2dVertex
 10
1199.698395
 20
1058.440369
 30
0.0
  0
VERTEX
  5
3BD
100
AcDbEntity
  8
トラップ
  6
CONTINUOUS
 62
     6
100
AcDbVertex
100
AcDb2dVertex
 10
1199.373993
 20
1058.386658
 30
0.0
  0
VERTEX
  5
3BE
100
AcDbEntity
  8
トラップ
  6
CONTINUOUS
 62
     6
100
AcDbVertex
100
AcDb2dVertex
 10
1199.054626
 20
1058.293884
 30
0.0
  0
VERTEX
  5
3BF
100
AcDbEntity
  8
トラップ
  6
CONTINUOUS
 62
     6
100
AcDbVertex
100
AcDb2dVertex
 10
1198.742584
 20
1058.166931
 30
0.0
  0
VERTEX
  5
3C0
100
AcDbEntity
  8
トラップ
  6
CONTINUOUS
 62
     6
100
AcDbVertex
100
AcDb2dVertex
 10
1198.440155
 20
1058.005798
 30
0.0
  0
VERTEX
  5
3C1
100
AcDbEntity
  8
トラップ
  6
CONTINUOUS
 62
     6
100
AcDbVertex
100
AcDb2dVertex
 10
1198.150085
 20
1057.810486
 30
0.0
  0
VERTEX
  5
3C2
100
AcDbEntity
  8
トラップ
  6
CONTINUOUS
 62
     6
100
AcDbVertex
100
AcDb2dVertex
 10
1197.874054
 20
1057.583435
 30
0.0
  0
VERTEX
  5
3C3
100
AcDbEntity
  8
トラップ
  6
CONTINUOUS
 62
     6
100
AcDbVertex
100
AcDb2dVertex
 10
1197.614349
 20
1057.324646
 30
0.0
  0
VERTEX
  5
3C4
100
AcDbEntity
  8
トラップ
  6
CONTINUOUS
 62
     6
100
AcDbVertex
100
AcDb2dVertex
 10
1197.373718
 20
1057.041443
 30
0.0
  0
VERTEX
  5
3C5
100
AcDbEntity
  8
トラップ
  6
CONTINUOUS
 62
     6
100
AcDbVertex
100
AcDb2dVertex
 10
1197.152771
 20
1056.731384
 30
0.0
  0
VERTEX
  5
3C6
100
AcDbEntity
  8
トラップ
  6
CONTINUOUS
 62
     6
100
AcDbVertex
100
AcDb2dVertex
 10
1196.953796
 20
1056.39447
 30
0.0
  0
VERTEX
  5
3C7
100
AcDbEntity
  8
トラップ
  6
CONTINUOUS
 62
     6
100
AcDbVertex
100
AcDb2dVertex
 10
1196.77771
 20
1056.040466
 30
0.0
  0
VERTEX
  5
3C8
100
AcDbEntity
  8
トラップ
  6
CONTINUOUS
 62
     6
100
AcDbVertex
100
AcDb2dVertex
 10
1196.626648
 20
1055.666931
 30
0.0
  0
VERTEX
  5
3C9
100
AcDbEntity
  8
トラップ
  6
CONTINUOUS
 62
     6
100
AcDbVertex
100
AcDb2dVertex
 10
1196.501678
 20
1055.276306
 30
0.0
  0
VERTEX
  5
3CA
100
AcDbEntity
  8
トラップ
  6
CONTINUOUS
 62
     6
100
AcDbVertex
100
AcDb2dVertex
 10
1196.402954
 20
1054.871033
 30
0.0
  0
VERTEX
  5
3CB
100
AcDbEntity
  8
トラップ
  6
CONTINUOUS
 62
     6
100
AcDbVertex
100
AcDb2dVertex
 10
1196.332153
 20
1054.458435
 30
0.0
  0
VERTEX
  5
3CC
100
AcDbEntity
  8
トラップ
  6
CONTINUOUS
 62
     6
100
AcDbVertex
100
AcDb2dVertex
 10
1196.289581
 20
1054.038513
 30
0.0
  0
VERTEX
  5
3CD
100
AcDbEntity
  8
トラップ
  6
CONTINUOUS
 62
     6
100
AcDbVertex
100
AcDb2dVertex
 10
1196.27478
 20
1053.618591
 30
0.0
  0
VERTEX
  5
3CE
100
AcDbEntity
  8
トラップ
  6
CONTINUOUS
 62
     6
100
AcDbVertex
100
AcDb2dVertex
 10
1196.288971
 20
1053.196228
 30
0.0
  0
VERTEX
  5
3CF
100
AcDbEntity
  8
トラップ
  6
CONTINUOUS
 62
     6
100
AcDbVertex
100
AcDb2dVertex
 10
1196.331543
 20
1052.778748
 30
0.0
  0
VERTEX
  5
3D0
100
AcDbEntity
  8
トラップ
  6
CONTINUOUS
 62
     6
100
AcDbVertex
100
AcDb2dVertex
 10
1196.402954
 20
1052.36615
 30
0.0
  0
VERTEX
  5
3D1
100
AcDbEntity
  8
トラップ
  6
CONTINUOUS
 62
     6
100
AcDbVertex
100
AcDb2dVertex
 10
1196.501373
 20
1051.963318
 30
0.0
  0
VERTEX
  5
3D2
100
AcDbEntity
  8
トラップ
  6
CONTINUOUS
 62
     6
100
AcDbVertex
100
AcDb2dVertex
 10
1196.626801
 20
1051.572693
 30
0.0
  0
VERTEX
  5
3D3
100
AcDbEntity
  8
トラップ
  6
CONTINUOUS
 62
     6
100
AcDbVertex
100
AcDb2dVertex
 10
1196.77771
 20
1051.199158
 30
0.0
  0
VERTEX
  5
3D4
100
AcDbEntity
  8
トラップ
  6
CONTINUOUS
 62
     6
100
AcDbVertex
100
AcDb2dVertex
 10
1196.953644
 20
1050.842712
 30
0.0
  0
VERTEX
  5
3D5
100
AcDbEntity
  8
トラップ
  6
CONTINUOUS
 62
     6
100
AcDbVertex
100
AcDb2dVertex
 10
1197.152924
 20
1050.50824
 30
0.0
  0
VERTEX
  5
3D6
100
AcDbEntity
  8
トラップ
  6
CONTINUOUS
 62
     6
100
AcDbVertex
100
AcDb2dVertex
 10
1197.373718
 20
1050.19574
 30
0.0
  0
VERTEX
  5
3D7
100
AcDbEntity
  8
トラップ
  6
CONTINUOUS
 62
     6
100
AcDbVertex
100
AcDb2dVertex
 10
1197.61496
 20
1049.910095
 30
0.0
  0
VERTEX
  5
3D8
100
AcDbEntity
  8
トラップ
  6
CONTINUOUS
 62
     6
100
AcDbVertex
100
AcDb2dVertex
 10
1197.874817
 20
1049.653748
 30
0.0
  0
VERTEX
  5
3D9
100
AcDbEntity
  8
トラップ
  6
CONTINUOUS
 62
     6
100
AcDbVertex
100
AcDb2dVertex
 10
1198.150085
 20
1049.426697
 30
0.0
  0
VERTEX
  5
3DA
100
AcDbEntity
  8
トラップ
  6
CONTINUOUS
 62
     6
100
AcDbVertex
100
AcDb2dVertex
 10
1198.440308
 20
1049.231384
 30
0.0
  0
VERTEX
  5
3DB
100
AcDbEntity
  8
トラップ
  6
CONTINUOUS
 62
     6
100
AcDbVertex
100
AcDb2dVertex
 10
1198.742432
 20
1049.070251
 30
0.0
  0
VERTEX
  5
3DC
100
AcDbEntity
  8
トラップ
  6
CONTINUOUS
 62
     6
100
AcDbVertex
100
AcDb2dVertex
 10
1199.054626
 20
1048.943298
 30
0.0
  0
VERTEX
  5
3DD
100
AcDbEntity
  8
トラップ
  6
CONTINUOUS
 62
     6
100
AcDbVertex
100
AcDb2dVertex
 10
1199.373993
 20
1048.852966
 30
0.0
  0
VERTEX
  5
3DE
100
AcDbEntity
  8
トラップ
  6
CONTINUOUS
 62
     6
100
AcDbVertex
100
AcDb2dVertex
 10
1199.698242
 20
1048.796814
 30
0.0
  0
VERTEX
  5
3DF
100
AcDbEntity
  8
トラップ
  6
CONTINUOUS
 62
     6
100
AcDbVertex
100
AcDb2dVertex
 10
1200.025391
 20
1048.777283
 30
0.0
  0
VERTEX
  5
3E0
100
AcDbEntity
  8
トラップ
  6
CONTINUOUS
 62
     6
100
AcDbVertex
100
AcDb2dVertex
 10
1200.352234
 20
1048.796814
 30
0.0
  0
VERTEX
  5
3E1
100
AcDbEntity
  8
トラップ
  6
CONTINUOUS
 62
     6
100
AcDbVertex
100
AcDb2dVertex
 10
1200.676483
 20
1048.850525
 30
0.0
  0
VERTEX
  5
3E2
100
AcDbEntity
  8
トラップ
  6
CONTINUOUS
 62
     6
100
AcDbVertex
100
AcDb2dVertex
 10
1200.996155
 20
1048.943298
 30
0.0
  0
VERTEX
  5
3E3
100
AcDbEntity
  8
トラップ
  6
CONTINUOUS
 62
     6
100
AcDbVertex
100
AcDb2dVertex
 10
1201.308197
 20
1049.070251
 30
0.0
  0
VERTEX
  5
3E4
100
AcDbEntity
  8
トラップ
  6
CONTINUOUS
 62
     6
100
AcDbVertex
100
AcDb2dVertex
 10
1201.610321
 20
1049.231384
 30
0.0
  0
SEQEND
  5
3E5
100
AcDbEntity
  8
トラップ
  6
CONTINUOUS
 62
     6
  0
POLYLINE
  5
3E6
100
AcDbEntity
  8
トラップ
  6
CONTINUOUS
 62
     6
100
AcDb2dPolyline
 66
     1
 10
0.0
 20
0.0
 30
0.0
 70
   128
  0
VERTEX
  5
3E7
100
AcDbEntity
  8
トラップ
  6
CONTINUOUS
 62
     6
100
AcDbVertex
100
AcDb2dVertex
 10
1201.610321
 20
1049.231384
 30
0.0
  0
VERTEX
  5
3E8
100
AcDbEntity
  8
トラップ
  6
CONTINUOUS
 62
     6
100
AcDbVertex
100
AcDb2dVertex
 10
1201.900696
 20
1049.426697
 30
0.0
  0
VERTEX
  5
3E9
100
AcDbEntity
  8
トラップ
  6
CONTINUOUS
 62
     6
100
AcDbVertex
100
AcDb2dVertex
 10
1202.176575
 20
1049.653748
 30
0.0
  0
VERTEX
  5
3EA
100
AcDbEntity
  8
トラップ
  6
CONTINUOUS
 62
     6
100
AcDbVertex
100
AcDb2dVertex
 10
1202.436127
 20
1049.912537
 30
0.0
  0
VERTEX
  5
3EB
100
AcDbEntity
  8
トラップ
  6
CONTINUOUS
 62
     6
100
AcDbVertex
100
AcDb2dVertex
 10
1202.677673
 20
1050.19574
 30
0.0
  0
VERTEX
  5
3EC
100
AcDbEntity
  8
トラップ
  6
CONTINUOUS
 62
     6
100
AcDbVertex
100
AcDb2dVertex
 10
1202.898773
 20
1050.505798
 30
0.0
  0
VERTEX
  5
3ED
100
AcDbEntity
  8
トラップ
  6
CONTINUOUS
 62
     6
100
AcDbVertex
100
AcDb2dVertex
 10
1203.0979
 20
1050.842712
 30
0.0
  0
VERTEX
  5
3EE
100
AcDbEntity
  8
トラップ
  6
CONTINUOUS
 62
     6
100
AcDbVertex
100
AcDb2dVertex
 10
1203.273682
 20
1051.199158
 30
0.0
  0
VERTEX
  5
3EF
100
AcDbEntity
  8
トラップ
  6
CONTINUOUS
 62
     6
100
AcDbVertex
100
AcDb2dVertex
 10
1203.424744
 20
1051.572693
 30
0.0
  0
VERTEX
  5
3F0
100
AcDbEntity
  8
トラップ
  6
CONTINUOUS
 62
     6
100
AcDbVertex
100
AcDb2dVertex
 10
1203.550018
 20
1051.963318
 30
0.0
  0
VERTEX
  5
3F1
100
AcDbEntity
  8
トラップ
  6
CONTINUOUS
 62
     6
100
AcDbVertex
100
AcDb2dVertex
 10
1203.648438
 20
1052.36615
 30
0.0
  0
SEQEND
  5
3F2
100
AcDbEntity
  8
トラップ
  6
CONTINUOUS
 62
     6
  0
POLYLINE
  5
3F3
100
AcDbEntity
  8
トラップ
  6
CONTINUOUS
 62
     6
100
AcDb2dPolyline
 66
     1
 10
0.0
 20
0.0
 30
0.0
 70
   128
  0
VERTEX
  5
3F4
100
AcDbEntity
  8
トラップ
  6
CONTINUOUS
 62
     6
100
AcDbVertex
100
AcDb2dVertex
 10
1203.648438
 20
1052.36615
 30
0.0
  0
VERTEX
  5
3F5
100
AcDbEntity
  8
トラップ
  6
CONTINUOUS
 62
     6
100
AcDbVertex
100
AcDb2dVertex
 10
1203.719238
 20
1052.778748
 30
0.0
  0
VERTEX
  5
3F6
100
AcDbEntity
  8
トラップ
  6
CONTINUOUS
 62
     6
100
AcDbVertex
100
AcDb2dVertex
 10
1203.761963
 20
1053.198669
 30
0.0
  0
VERTEX
  5
3F7
100
AcDbEntity
  8
トラップ
  6
CONTINUOUS
 62
     6
100
AcDbVertex
100
AcDb2dVertex
 10
1203.776459
 20
1053.621033
 30
0.0
  0
SEQEND
  5
3F8
100
AcDbEntity
  8
トラップ
  6
CONTINUOUS
 62
     6
  0
ARC
  5
3F9
100
AcDbEntity
  8
トラップ
  6
CONTINUOUS
 62
     6
100
AcDbCircle
 10
1204.677338
 20
1053.618591
 30
0.0
 40
8.563983
100
AcDbArc
 50
140.037827
 51
219.962143
  0
POLYLINE
  5
3FA
100
AcDbEntity
  8
トラップ
  6
CONTINUOUS
 62
     6
100
AcDb2dPolyline
 66
     1
 10
0.0
 20
0.0
 30
0.0
 70
   128
  0
VERTEX
  5
3FB
100
AcDbEntity
  8
トラップ
  6
CONTINUOUS
 62
     6
100
AcDbVertex
100
AcDb2dVertex
 10
1223.112396
 20
1053.618591
 30
0.0
  0
VERTEX
  5
3FC
100
AcDbEntity
  8
トラップ
  6
CONTINUOUS
 62
     6
100
AcDbVertex
100
AcDb2dVertex
 10
1223.083862
 20
1054.040955
 30
0.0
  0
VERTEX
  5
3FD
100
AcDbEntity
  8
トラップ
  6
CONTINUOUS
 62
     6
100
AcDbVertex
100
AcDb2dVertex
 10
1222.998413
 20
1054.458435
 30
0.0
  0
VERTEX
  5
3FE
100
AcDbEntity
  8
トラップ
  6
CONTINUOUS
 62
     6
100
AcDbVertex
100
AcDb2dVertex
 10
1222.856659
 20
1054.871033
 30
0.0
  0
VERTEX
  5
3FF
100
AcDbEntity
  8
トラップ
  6
CONTINUOUS
 62
     6
100
AcDbVertex
100
AcDb2dVertex
 10
1222.659821
 20
1055.273865
 30
0.0
  0
VERTEX
  5
400
100
AcDbEntity
  8
トラップ
  6
CONTINUOUS
 62
     6
100
AcDbVertex
100
AcDb2dVertex
 10
1222.409271
 20
1055.66449
 30
0.0
  0
VERTEX
  5
401
100
AcDbEntity
  8
トラップ
  6
CONTINUOUS
 62
     6
100
AcDbVertex
100
AcDb2dVertex
 10
1222.107758
 20
1056.040466
 30
0.0
  0
VERTEX
  5
402
100
AcDbEntity
  8
トラップ
  6
CONTINUOUS
 62
     6
100
AcDbVertex
100
AcDb2dVertex
 10
1221.756195
 20
1056.396912
 30
0.0
  0
VERTEX
  5
403
100
AcDbEntity
  8
トラップ
  6
CONTINUOUS
 62
     6
100
AcDbVertex
100
AcDb2dVertex
 10
1221.358093
 20
1056.731384
 30
0.0
  0
VERTEX
  5
404
100
AcDbEntity
  8
トラップ
  6
CONTINUOUS
 62
     6
100
AcDbVertex
100
AcDb2dVertex
 10
1220.916046
 20
1057.041443
 30
0.0
  0
VERTEX
  5
405
100
AcDbEntity
  8
トラップ
  6
CONTINUOUS
 62
     6
100
AcDbVertex
100
AcDb2dVertex
 10
1220.433716
 20
1057.327087
 30
0.0
  0
VERTEX
  5
406
100
AcDbEntity
  8
トラップ
  6
CONTINUOUS
 62
     6
100
AcDbVertex
100
AcDb2dVertex
 10
1219.914764
 20
1057.583435
 30
0.0
  0
VERTEX
  5
407
100
AcDbEntity
  8
トラップ
  6
CONTINUOUS
 62
     6
100
AcDbVertex
100
AcDb2dVertex
 10
1219.362854
 20
1057.810486
 30
0.0
  0
VERTEX
  5
408
100
AcDbEntity
  8
トラップ
  6
CONTINUOUS
 62
     6
100
AcDbVertex
100
AcDb2dVertex
 10
1218.782562
 20
1058.005798
 30
0.0
  0
VERTEX
  5
409
100
AcDbEntity
  8
トラップ
  6
CONTINUOUS
 62
     6
100
AcDbVertex
100
AcDb2dVertex
 10
1218.178314
 20
1058.166931
 30
0.0
  0
VERTEX
  5
40A
100
AcDbEntity
  8
トラップ
  6
CONTINUOUS
 62
     6
100
AcDbVertex
100
AcDb2dVertex
 10
1217.55423
 20
1058.293884
 30
0.0
  0
VERTEX
  5
40B
100
AcDbEntity
  8
トラップ
  6
CONTINUOUS
 62
     6
100
AcDbVertex
100
AcDb2dVertex
 10
1216.915497
 20
1058.384216
 30
0.0
  0
VERTEX
  5
40C
100
AcDbEntity
  8
トラップ
  6
CONTINUOUS
 62
     6
100
AcDbVertex
100
AcDb2dVertex
 10
1216.266693
 20
1058.440369
 30
0.0
  0
VERTEX
  5
40D
100
AcDbEntity
  8
トラップ
  6
CONTINUOUS
 62
     6
100
AcDbVertex
100
AcDb2dVertex
 10
1215.613617
 20
1058.4599
 30
0.0
  0
VERTEX
  5
40E
100
AcDbEntity
  8
トラップ
  6
CONTINUOUS
 62
     6
100
AcDbVertex
100
AcDb2dVertex
 10
1214.960083
 20
1058.440369
 30
0.0
  0
VERTEX
  5
40F
100
AcDbEntity
  8
トラップ
  6
CONTINUOUS
 62
     6
100
AcDbVertex
100
AcDb2dVertex
 10
1214.311432
 20
1058.386658
 30
0.0
  0
VERTEX
  5
410
100
AcDbEntity
  8
トラップ
  6
CONTINUOUS
 62
     6
100
AcDbVertex
100
AcDb2dVertex
 10
1213.672852
 20
1058.293884
 30
0.0
  0
VERTEX
  5
411
100
AcDbEntity
  8
トラップ
  6
CONTINUOUS
 62
     6
100
AcDbVertex
100
AcDb2dVertex
 10
1213.049072
 20
1058.166931
 30
0.0
  0
VERTEX
  5
412
100
AcDbEntity
  8
トラップ
  6
CONTINUOUS
 62
     6
100
AcDbVertex
100
AcDb2dVertex
 10
1212.444824
 20
1058.005798
 30
0.0
  0
VERTEX
  5
413
100
AcDbEntity
  8
トラップ
  6
CONTINUOUS
 62
     6
100
AcDbVertex
100
AcDb2dVertex
 10
1211.864227
 20
1057.810486
 30
0.0
  0
VERTEX
  5
414
100
AcDbEntity
  8
トラップ
  6
CONTINUOUS
 62
     6
100
AcDbVertex
100
AcDb2dVertex
 10
1211.312622
 20
1057.583435
 30
0.0
  0
VERTEX
  5
415
100
AcDbEntity
  8
トラップ
  6
CONTINUOUS
 62
     6
100
AcDbVertex
100
AcDb2dVertex
 10
1210.793518
 20
1057.324646
 30
0.0
  0
VERTEX
  5
416
100
AcDbEntity
  8
トラップ
  6
CONTINUOUS
 62
     6
100
AcDbVertex
100
AcDb2dVertex
 10
1210.311035
 20
1057.041443
 30
0.0
  0
VERTEX
  5
417
100
AcDbEntity
  8
トラップ
  6
CONTINUOUS
 62
     6
100
AcDbVertex
100
AcDb2dVertex
 10
1209.869141
 20
1056.731384
 30
0.0
  0
VERTEX
  5
418
100
AcDbEntity
  8
トラップ
  6
CONTINUOUS
 62
     6
100
AcDbVertex
100
AcDb2dVertex
 10
1209.470886
 20
1056.39447
 30
0.0
  0
VERTEX
  5
419
100
AcDbEntity
  8
トラップ
  6
CONTINUOUS
 62
     6
100
AcDbVertex
100
AcDb2dVertex
 10
1209.119324
 20
1056.040466
 30
0.0
  0
VERTEX
  5
41A
100
AcDbEntity
  8
トラップ
  6
CONTINUOUS
 62
     6
100
AcDbVertex
100
AcDb2dVertex
 10
1208.817352
 20
1055.666931
 30
0.0
  0
VERTEX
  5
41B
100
AcDbEntity
  8
トラップ
  6
CONTINUOUS
 62
     6
100
AcDbVertex
100
AcDb2dVertex
 10
1208.566803
 20
1055.276306
 30
0.0
  0
VERTEX
  5
41C
100
AcDbEntity
  8
トラップ
  6
CONTINUOUS
 62
     6
100
AcDbVertex
100
AcDb2dVertex
 10
1208.370422
 20
1054.871033
 30
0.0
  0
VERTEX
  5
41D
100
AcDbEntity
  8
トラップ
  6
CONTINUOUS
 62
     6
100
AcDbVertex
100
AcDb2dVertex
 10
1208.228973
 20
1054.458435
 30
0.0
  0
VERTEX
  5
41E
100
AcDbEntity
  8
トラップ
  6
CONTINUOUS
 62
     6
100
AcDbVertex
100
AcDb2dVertex
 10
1208.143677
 20
1054.038513
 30
0.0
  0
VERTEX
  5
41F
100
AcDbEntity
  8
トラップ
  6
CONTINUOUS
 62
     6
100
AcDbVertex
100
AcDb2dVertex
 10
1208.114685
 20
1053.618591
 30
0.0
  0
VERTEX
  5
420
100
AcDbEntity
  8
トラップ
  6
CONTINUOUS
 62
     6
100
AcDbVertex
100
AcDb2dVertex
 10
1208.143219
 20
1053.196228
 30
0.0
  0
VERTEX
  5
421
100
AcDbEntity
  8
トラップ
  6
CONTINUOUS
 62
     6
100
AcDbVertex
100
AcDb2dVertex
 10
1208.228668
 20
1052.778748
 30
0.0
  0
VERTEX
  5
422
100
AcDbEntity
  8
トラップ
  6
CONTINUOUS
 62
     6
100
AcDbVertex
100
AcDb2dVertex
 10
1208.370422
 20
1052.36615
 30
0.0
  0
VERTEX
  5
423
100
AcDbEntity
  8
トラップ
  6
CONTINUOUS
 62
     6
100
AcDbVertex
100
AcDb2dVertex
 10
1208.567261
 20
1051.963318
 30
0.0
  0
VERTEX
  5
424
100
AcDbEntity
  8
トラップ
  6
CONTINUOUS
 62
     6
100
AcDbVertex
100
AcDb2dVertex
 10
1208.81781
 20
1051.572693
 30
0.0
  0
VERTEX
  5
425
100
AcDbEntity
  8
トラップ
  6
CONTINUOUS
 62
     6
100
AcDbVertex
100
AcDb2dVertex
 10
1209.119324
 20
1051.199158
 30
0.0
  0
VERTEX
  5
426
100
AcDbEntity
  8
トラップ
  6
CONTINUOUS
 62
     6
100
AcDbVertex
100
AcDb2dVertex
 10
1209.470886
 20
1050.842712
 30
0.0
  0
VERTEX
  5
427
100
AcDbEntity
  8
トラップ
  6
CONTINUOUS
 62
     6
100
AcDbVertex
100
AcDb2dVertex
 10
1209.868988
 20
1050.50824
 30
0.0
  0
VERTEX
  5
428
100
AcDbEntity
  8
トラップ
  6
CONTINUOUS
 62
     6
100
AcDbVertex
100
AcDb2dVertex
 10
1210.311035
 20
1050.19574
 30
0.0
  0
VERTEX
  5
429
100
AcDbEntity
  8
トラップ
  6
CONTINUOUS
 62
     6
100
AcDbVertex
100
AcDb2dVertex
 10
1210.793365
 20
1049.910095
 30
0.0
  0
VERTEX
  5
42A
100
AcDbEntity
  8
トラップ
  6
CONTINUOUS
 62
     6
100
AcDbVertex
100
AcDb2dVertex
 10
1211.312317
 20
1049.653748
 30
0.0
  0
VERTEX
  5
42B
100
AcDbEntity
  8
トラップ
  6
CONTINUOUS
 62
     6
100
AcDbVertex
100
AcDb2dVertex
 10
1211.864227
 20
1049.426697
 30
0.0
  0
VERTEX
  5
42C
100
AcDbEntity
  8
トラップ
  6
CONTINUOUS
 62
     6
100
AcDbVertex
100
AcDb2dVertex
 10
1212.444519
 20
1049.231384
 30
0.0
  0
VERTEX
  5
42D
100
AcDbEntity
  8
トラップ
  6
CONTINUOUS
 62
     6
100
AcDbVertex
100
AcDb2dVertex
 10
1213.048767
 20
1049.070251
 30
0.0
  0
VERTEX
  5
42E
100
AcDbEntity
  8
トラップ
  6
CONTINUOUS
 62
     6
100
AcDbVertex
100
AcDb2dVertex
 10
1213.672852
 20
1048.943298
 30
0.0
  0
VERTEX
  5
42F
100
AcDbEntity
  8
トラップ
  6
CONTINUOUS
 62
     6
100
AcDbVertex
100
AcDb2dVertex
 10
1214.311584
 20
1048.852966
 30
0.0
  0
VERTEX
  5
430
100
AcDbEntity
  8
トラップ
  6
CONTINUOUS
 62
     6
100
AcDbVertex
100
AcDb2dVertex
 10
1214.960388
 20
1048.796814
 30
0.0
  0
VERTEX
  5
431
100
AcDbEntity
  8
トラップ
  6
CONTINUOUS
 62
     6
100
AcDbVertex
100
AcDb2dVertex
 10
1215.613617
 20
1048.777283
 30
0.0
  0
VERTEX
  5
432
100
AcDbEntity
  8
トラップ
  6
CONTINUOUS
 62
     6
100
AcDbVertex
100
AcDb2dVertex
 10
1216.267151
 20
1048.796814
 30
0.0
  0
VERTEX
  5
433
100
AcDbEntity
  8
トラップ
  6
CONTINUOUS
 62
     6
100
AcDbVertex
100
AcDb2dVertex
 10
1216.915802
 20
1048.850525
 30
0.0
  0
VERTEX
  5
434
100
AcDbEntity
  8
トラップ
  6
CONTINUOUS
 62
     6
100
AcDbVertex
100
AcDb2dVertex
 10
1217.55423
 20
1048.943298
 30
0.0
  0
VERTEX
  5
435
100
AcDbEntity
  8
トラップ
  6
CONTINUOUS
 62
     6
100
AcDbVertex
100
AcDb2dVertex
 10
1218.178009
 20
1049.070251
 30
0.0
  0
VERTEX
  5
436
100
AcDbEntity
  8
トラップ
  6
CONTINUOUS
 62
     6
100
AcDbVertex
100
AcDb2dVertex
 10
1218.782257
 20
1049.231384
 30
0.0
  0
SEQEND
  5
437
100
AcDbEntity
  8
トラップ
  6
CONTINUOUS
 62
     6
  0
POLYLINE
  5
438
100
AcDbEntity
  8
トラップ
  6
CONTINUOUS
 62
     6
100
AcDb2dPolyline
 66
     1
 10
0.0
 20
0.0
 30
0.0
 70
   128
  0
VERTEX
  5
439
100
AcDbEntity
  8
トラップ
  6
CONTINUOUS
 62
     6
100
AcDbVertex
100
AcDb2dVertex
 10
1218.782257
 20
1049.231384
 30
0.0
  0
VERTEX
  5
43A
100
AcDbEntity
  8
トラップ
  6
CONTINUOUS
 62
     6
100
AcDbVertex
100
AcDb2dVertex
 10
1219.362854
 20
1049.426697
 30
0.0
  0
VERTEX
  5
43B
100
AcDbEntity
  8
トラップ
  6
CONTINUOUS
 62
     6
100
AcDbVertex
100
AcDb2dVertex
 10
1219.914459
 20
1049.653748
 30
0.0
  0
VERTEX
  5
43C
100
AcDbEntity
  8
トラップ
  6
CONTINUOUS
 62
     6
100
AcDbVertex
100
AcDb2dVertex
 10
1220.433563
 20
1049.912537
 30
0.0
  0
VERTEX
  5
43D
100
AcDbEntity
  8
トラップ
  6
CONTINUOUS
 62
     6
100
AcDbVertex
100
AcDb2dVertex
 10
1220.916046
 20
1050.19574
 30
0.0
  0
VERTEX
  5
43E
100
AcDbEntity
  8
トラップ
  6
CONTINUOUS
 62
     6
100
AcDbVertex
100
AcDb2dVertex
 10
1221.357941
 20
1050.505798
 30
0.0
  0
VERTEX
  5
43F
100
AcDbEntity
  8
トラップ
  6
CONTINUOUS
 62
     6
100
AcDbVertex
100
AcDb2dVertex
 10
1221.756195
 20
1050.842712
 30
0.0
  0
VERTEX
  5
440
100
AcDbEntity
  8
トラップ
  6
CONTINUOUS
 62
     6
100
AcDbVertex
100
AcDb2dVertex
 10
1222.107758
 20
1051.199158
 30
0.0
  0
VERTEX
  5
441
100
AcDbEntity
  8
トラップ
  6
CONTINUOUS
 62
     6
100
AcDbVertex
100
AcDb2dVertex
 10
1222.409729
 20
1051.572693
 30
0.0
  0
VERTEX
  5
442
100
AcDbEntity
  8
トラップ
  6
CONTINUOUS
 62
     6
100
AcDbVertex
100
AcDb2dVertex
 10
1222.660278
 20
1051.963318
 30
0.0
  0
VERTEX
  5
443
100
AcDbEntity
  8
トラップ
  6
CONTINUOUS
 62
     6
100
AcDbVertex
100
AcDb2dVertex
 10
1222.856659
 20
1052.36615
 30
0.0
  0
SEQEND
  5
444
100
AcDbEntity
  8
トラップ
  6
CONTINUOUS
 62
     6
  0
POLYLINE
  5
445
100
AcDbEntity
  8
トラップ
  6
CONTINUOUS
 62
     6
100
AcDb2dPolyline
 66
     1
 10
0.0
 20
0.0
 30
0.0
 70
   128
  0
VERTEX
  5
446
100
AcDbEntity
  8
トラップ
  6
CONTINUOUS
 62
     6
100
AcDbVertex
100
AcDb2dVertex
 10
1222.856659
 20
1052.36615
 30
0.0
  0
VERTEX
  5
447
100
AcDbEntity
  8
トラップ
  6
CONTINUOUS
 62
     6
100
AcDbVertex
100
AcDb2dVertex
 10
1222.998108
 20
1052.778748
 30
0.0
  0
VERTEX
  5
448
100
AcDbEntity
  8
トラップ
  6
CONTINUOUS
 62
     6
100
AcDbVertex
100
AcDb2dVertex
 10
1223.083405
 20
1053.198669
 30
0.0
  0
VERTEX
  5
449
100
AcDbEntity
  8
トラップ
  6
CONTINUOUS
 62
     6
100
AcDbVertex
100
AcDb2dVertex
 10
1223.111786
 20
1053.621033
 30
0.0
  0
SEQEND
  5
44A
100
AcDbEntity
  8
トラップ
  6
CONTINUOUS
 62
     6
  0
POLYLINE
  5
44B
100
AcDbEntity
  8
トラップ
  6
CONTINUOUS
 62
     6
100
AcDb2dPolyline
 66
     1
 10
0.0
 20
0.0
 30
0.0
 70
   128
  0
VERTEX
  5
44C
100
AcDbEntity
  8
トラップ
  6
CONTINUOUS
 62
     6
100
AcDbVertex
100
AcDb2dVertex
 10
1234.951843
 20
1053.618591
 30
0.0
  0
VERTEX
  5
44D
100
AcDbEntity
  8
トラップ
  6
CONTINUOUS
 62
     6
100
AcDbVertex
100
AcDb2dVertex
 10
1234.9375
 20
1054.040955
 30
0.0
  0
VERTEX
  5
44E
100
AcDbEntity
  8
トラップ
  6
CONTINUOUS
 62
     6
100
AcDbVertex
100
AcDb2dVertex
 10
1234.894623
 20
1054.458435
 30
0.0
  0
VERTEX
  5
44F
100
AcDbEntity
  8
トラップ
  6
CONTINUOUS
 62
     6
100
AcDbVertex
100
AcDb2dVertex
 10
1234.82428
 20
1054.871033
 30
0.0
  0
VERTEX
  5
450
100
AcDbEntity
  8
トラップ
  6
CONTINUOUS
 62
     6
100
AcDbVertex
100
AcDb2dVertex
 10
1234.725861
 20
1055.273865
 30
0.0
  0
VERTEX
  5
451
100
AcDbEntity
  8
トラップ
  6
CONTINUOUS
 62
     6
100
AcDbVertex
100
AcDb2dVertex
 10
1234.600586
 20
1055.66449
 30
0.0
  0
VERTEX
  5
452
100
AcDbEntity
  8
トラップ
  6
CONTINUOUS
 62
     6
100
AcDbVertex
100
AcDb2dVertex
 10
1234.449524
 20
1056.040466
 30
0.0
  0
VERTEX
  5
453
100
AcDbEntity
  8
トラップ
  6
CONTINUOUS
 62
     6
100
AcDbVertex
100
AcDb2dVertex
 10
1234.27359
 20
1056.396912
 30
0.0
  0
VERTEX
  5
454
100
AcDbEntity
  8
トラップ
  6
CONTINUOUS
 62
     6
100
AcDbVertex
100
AcDb2dVertex
 10
1234.07431
 20
1056.731384
 30
0.0
  0
VERTEX
  5
455
100
AcDbEntity
  8
トラップ
  6
CONTINUOUS
 62
     6
100
AcDbVertex
100
AcDb2dVertex
 10
1233.853516
 20
1057.041443
 30
0.0
  0
VERTEX
  5
456
100
AcDbEntity
  8
トラップ
  6
CONTINUOUS
 62
     6
100
AcDbVertex
100
AcDb2dVertex
 10
1233.612274
 20
1057.327087
 30
0.0
  0
VERTEX
  5
457
100
AcDbEntity
  8
トラップ
  6
CONTINUOUS
 62
     6
100
AcDbVertex
100
AcDb2dVertex
 10
1233.352417
 20
1057.583435
 30
0.0
  0
VERTEX
  5
458
100
AcDbEntity
  8
トラップ
  6
CONTINUOUS
 62
     6
100
AcDbVertex
100
AcDb2dVertex
 10
1233.077148
 20
1057.810486
 30
0.0
  0
VERTEX
  5
459
100
AcDbEntity
  8
トラップ
  6
CONTINUOUS
 62
     6
100
AcDbVertex
100
AcDb2dVertex
 10
1232.786926
 20
1058.005798
 30
0.0
  0
VERTEX
  5
45A
100
AcDbEntity
  8
トラップ
  6
CONTINUOUS
 62
     6
100
AcDbVertex
100
AcDb2dVertex
 10
1232.484802
 20
1058.166931
 30
0.0
  0
VERTEX
  5
45B
100
AcDbEntity
  8
トラップ
  6
CONTINUOUS
 62
     6
100
AcDbVertex
100
AcDb2dVertex
 10
1232.172455
 20
1058.293884
 30
0.0
  0
VERTEX
  5
45C
100
AcDbEntity
  8
トラップ
  6
CONTINUOUS
 62
     6
100
AcDbVertex
100
AcDb2dVertex
 10
1231.853088
 20
1058.384216
 30
0.0
  0
VERTEX
  5
45D
100
AcDbEntity
  8
トラップ
  6
CONTINUOUS
 62
     6
100
AcDbVertex
100
AcDb2dVertex
 10
1231.528839
 20
1058.440369
 30
0.0
  0
VERTEX
  5
45E
100
AcDbEntity
  8
トラップ
  6
CONTINUOUS
 62
     6
100
AcDbVertex
100
AcDb2dVertex
 10
1231.201691
 20
1058.4599
 30
0.0
  0
VERTEX
  5
45F
100
AcDbEntity
  8
トラップ
  6
CONTINUOUS
 62
     6
100
AcDbVertex
100
AcDb2dVertex
 10
1230.874847
 20
1058.440369
 30
0.0
  0
VERTEX
  5
460
100
AcDbEntity
  8
トラップ
  6
CONTINUOUS
 62
     6
100
AcDbVertex
100
AcDb2dVertex
 10
1230.550598
 20
1058.386658
 30
0.0
  0
VERTEX
  5
461
100
AcDbEntity
  8
トラップ
  6
CONTINUOUS
 62
     6
100
AcDbVertex
100
AcDb2dVertex
 10
1230.231079
 20
1058.293884
 30
0.0
  0
VERTEX
  5
462
100
AcDbEntity
  8
トラップ
  6
CONTINUOUS
 62
     6
100
AcDbVertex
100
AcDb2dVertex
 10
1229.919037
 20
1058.166931
 30
0.0
  0
VERTEX
  5
463
100
AcDbEntity
  8
トラップ
  6
CONTINUOUS
 62
     6
100
AcDbVertex
100
AcDb2dVertex
 10
1229.616913
 20
1058.005798
 30
0.0
  0
VERTEX
  5
464
100
AcDbEntity
  8
トラップ
  6
CONTINUOUS
 62
     6
100
AcDbVertex
100
AcDb2dVertex
 10
1229.326538
 20
1057.810486
 30
0.0
  0
VERTEX
  5
465
100
AcDbEntity
  8
トラップ
  6
CONTINUOUS
 62
     6
100
AcDbVertex
100
AcDb2dVertex
 10
1229.050659
 20
1057.583435
 30
0.0
  0
VERTEX
  5
466
100
AcDbEntity
  8
トラップ
  6
CONTINUOUS
 62
     6
100
AcDbVertex
100
AcDb2dVertex
 10
1228.791107
 20
1057.324646
 30
0.0
  0
VERTEX
  5
467
100
AcDbEntity
  8
トラップ
  6
CONTINUOUS
 62
     6
100
AcDbVertex
100
AcDb2dVertex
 10
1228.549713
 20
1057.041443
 30
0.0
  0
VERTEX
  5
468
100
AcDbEntity
  8
トラップ
  6
CONTINUOUS
 62
     6
100
AcDbVertex
100
AcDb2dVertex
 10
1228.328613
 20
1056.731384
 30
0.0
  0
VERTEX
  5
469
100
AcDbEntity
  8
トラップ
  6
CONTINUOUS
 62
     6
100
AcDbVertex
100
AcDb2dVertex
 10
1228.129334
 20
1056.39447
 30
0.0
  0
VERTEX
  5
46A
100
AcDbEntity
  8
トラップ
  6
CONTINUOUS
 62
     6
100
AcDbVertex
100
AcDb2dVertex
 10
1227.953705
 20
1056.040466
 30
0.0
  0
VERTEX
  5
46B
100
AcDbEntity
  8
トラップ
  6
CONTINUOUS
 62
     6
100
AcDbVertex
100
AcDb2dVertex
 10
1227.802643
 20
1055.666931
 30
0.0
  0
VERTEX
  5
46C
100
AcDbEntity
  8
トラップ
  6
CONTINUOUS
 62
     6
100
AcDbVertex
100
AcDb2dVertex
 10
1227.677368
 20
1055.276306
 30
0.0
  0
VERTEX
  5
46D
100
AcDbEntity
  8
トラップ
  6
CONTINUOUS
 62
     6
100
AcDbVertex
100
AcDb2dVertex
 10
1227.579102
 20
1054.871033
 30
0.0
  0
VERTEX
  5
46E
100
AcDbEntity
  8
トラップ
  6
CONTINUOUS
 62
     6
100
AcDbVertex
100
AcDb2dVertex
 10
1227.508301
 20
1054.458435
 30
0.0
  0
VERTEX
  5
46F
100
AcDbEntity
  8
トラップ
  6
CONTINUOUS
 62
     6
100
AcDbVertex
100
AcDb2dVertex
 10
1227.465424
 20
1054.038513
 30
0.0
  0
VERTEX
  5
470
100
AcDbEntity
  8
トラップ
  6
CONTINUOUS
 62
     6
100
AcDbVertex
100
AcDb2dVertex
 10
1227.451386
 20
1053.618591
 30
0.0
  0
VERTEX
  5
471
100
AcDbEntity
  8
トラップ
  6
CONTINUOUS
 62
     6
100
AcDbVertex
100
AcDb2dVertex
 10
1227.465729
 20
1053.196228
 30
0.0
  0
VERTEX
  5
472
100
AcDbEntity
  8
トラップ
  6
CONTINUOUS
 62
     6
100
AcDbVertex
100
AcDb2dVertex
 10
1227.508301
 20
1052.778748
 30
0.0
  0
VERTEX
  5
473
100
AcDbEntity
  8
トラップ
  6
CONTINUOUS
 62
     6
100
AcDbVertex
100
AcDb2dVertex
 10
1227.579102
 20
1052.36615
 30
0.0
  0
VERTEX
  5
474
100
AcDbEntity
  8
トラップ
  6
CONTINUOUS
 62
     6
100
AcDbVertex
100
AcDb2dVertex
 10
1227.677521
 20
1051.963318
 30
0.0
  0
VERTEX
  5
475
100
AcDbEntity
  8
トラップ
  6
CONTINUOUS
 62
     6
100
AcDbVertex
100
AcDb2dVertex
 10
1227.80249
 20
1051.572693
 30
0.0
  0
VERTEX
  5
476
100
AcDbEntity
  8
トラップ
  6
CONTINUOUS
 62
     6
100
AcDbVertex
100
AcDb2dVertex
 10
1227.953705
 20
1051.199158
 30
0.0
  0
VERTEX
  5
477
100
AcDbEntity
  8
トラップ
  6
CONTINUOUS
 62
     6
100
AcDbVertex
100
AcDb2dVertex
 10
1228.129486
 20
1050.842712
 30
0.0
  0
VERTEX
  5
478
100
AcDbEntity
  8
トラップ
  6
CONTINUOUS
 62
     6
100
AcDbVertex
100
AcDb2dVertex
 10
1228.328613
 20
1050.50824
 30
0.0
  0
VERTEX
  5
479
100
AcDbEntity
  8
トラップ
  6
CONTINUOUS
 62
     6
100
AcDbVertex
100
AcDb2dVertex
 10
1228.549713
 20
1050.19574
 30
0.0
  0
VERTEX
  5
47A
100
AcDbEntity
  8
トラップ
  6
CONTINUOUS
 62
     6
100
AcDbVertex
100
AcDb2dVertex
 10
1228.790955
 20
1049.910095
 30
0.0
  0
VERTEX
  5
47B
100
AcDbEntity
  8
トラップ
  6
CONTINUOUS
 62
     6
100
AcDbVertex
100
AcDb2dVertex
 10
1229.050354
 20
1049.653748
 30
0.0
  0
VERTEX
  5
47C
100
AcDbEntity
  8
トラップ
  6
CONTINUOUS
 62
     6
100
AcDbVertex
100
AcDb2dVertex
 10
1229.326538
 20
1049.426697
 30
0.0
  0
VERTEX
  5
47D
100
AcDbEntity
  8
トラップ
  6
CONTINUOUS
 62
     6
100
AcDbVertex
100
AcDb2dVertex
 10
1229.61676
 20
1049.231384
 30
0.0
  0
VERTEX
  5
47E
100
AcDbEntity
  8
トラップ
  6
CONTINUOUS
 62
     6
100
AcDbVertex
100
AcDb2dVertex
 10
1229.919037
 20
1049.070251
 30
0.0
  0
VERTEX
  5
47F
100
AcDbEntity
  8
トラップ
  6
CONTINUOUS
 62
     6
100
AcDbVertex
100
AcDb2dVertex
 10
1230.231079
 20
1048.943298
 30
0.0
  0
VERTEX
  5
480
100
AcDbEntity
  8
トラップ
  6
CONTINUOUS
 62
     6
100
AcDbVertex
100
AcDb2dVertex
 10
1230.550598
 20
1048.852966
 30
0.0
  0
VERTEX
  5
481
100
AcDbEntity
  8
トラップ
  6
CONTINUOUS
 62
     6
100
AcDbVertex
100
AcDb2dVertex
 10
1230.875
 20
1048.796814
 30
0.0
  0
VERTEX
  5
482
100
AcDbEntity
  8
トラップ
  6
CONTINUOUS
 62
     6
100
AcDbVertex
100
AcDb2dVertex
 10
1231.201843
 20
1048.777283
 30
0.0
  0
VERTEX
  5
483
100
AcDbEntity
  8
トラップ
  6
CONTINUOUS
 62
     6
100
AcDbVertex
100
AcDb2dVertex
 10
1231.528686
 20
1048.796814
 30
0.0
  0
VERTEX
  5
484
100
AcDbEntity
  8
トラップ
  6
CONTINUOUS
 62
     6
100
AcDbVertex
100
AcDb2dVertex
 10
1231.853241
 20
1048.850525
 30
0.0
  0
VERTEX
  5
485
100
AcDbEntity
  8
トラップ
  6
CONTINUOUS
 62
     6
100
AcDbVertex
100
AcDb2dVertex
 10
1232.172455
 20
1048.943298
 30
0.0
  0
VERTEX
  5
486
100
AcDbEntity
  8
トラップ
  6
CONTINUOUS
 62
     6
100
AcDbVertex
100
AcDb2dVertex
 10
1232.484497
 20
1049.070251
 30
0.0
  0
VERTEX
  5
487
100
AcDbEntity
  8
トラップ
  6
CONTINUOUS
 62
     6
100
AcDbVertex
100
AcDb2dVertex
 10
1232.786926
 20
1049.231384
 30
0.0
  0
SEQEND
  5
488
100
AcDbEntity
  8
トラップ
  6
CONTINUOUS
 62
     6
  0
POLYLINE
  5
489
100
AcDbEntity
  8
トラップ
  6
CONTINUOUS
 62
     6
100
AcDb2dPolyline
 66
     1
 10
0.0
 20
0.0
 30
0.0
 70
   128
  0
VERTEX
  5
48A
100
AcDbEntity
  8
トラップ
  6
CONTINUOUS
 62
     6
100
AcDbVertex
100
AcDb2dVertex
 10
1232.786926
 20
1049.231384
 30
0.0
  0
VERTEX
  5
48B
100
AcDbEntity
  8
トラップ
  6
CONTINUOUS
 62
     6
100
AcDbVertex
100
AcDb2dVertex
 10
1233.077148
 20
1049.426697
 30
0.0
  0
VERTEX
  5
48C
100
AcDbEntity
  8
トラップ
  6
CONTINUOUS
 62
     6
100
AcDbVertex
100
AcDb2dVertex
 10
1233.35318
 20
1049.653748
 30
0.0
  0
VERTEX
  5
48D
100
AcDbEntity
  8
トラップ
  6
CONTINUOUS
 62
     6
100
AcDbVertex
100
AcDb2dVertex
 10
1233.612884
 20
1049.912537
 30
0.0
  0
VERTEX
  5
48E
100
AcDbEntity
  8
トラップ
  6
CONTINUOUS
 62
     6
100
AcDbVertex
100
AcDb2dVertex
 10
1233.853516
 20
1050.19574
 30
0.0
  0
VERTEX
  5
48F
100
AcDbEntity
  8
トラップ
  6
CONTINUOUS
 62
     6
100
AcDbVertex
100
AcDb2dVertex
 10
1234.074463
 20
1050.505798
 30
0.0
  0
VERTEX
  5
490
100
AcDbEntity
  8
トラップ
  6
CONTINUOUS
 62
     6
100
AcDbVertex
100
AcDb2dVertex
 10
1234.273438
 20
1050.842712
 30
0.0
  0
VERTEX
  5
491
100
AcDbEntity
  8
トラップ
  6
CONTINUOUS
 62
     6
100
AcDbVertex
100
AcDb2dVertex
 10
1234.449524
 20
1051.199158
 30
0.0
  0
VERTEX
  5
492
100
AcDbEntity
  8
トラップ
  6
CONTINUOUS
 62
     6
100
AcDbVertex
100
AcDb2dVertex
 10
1234.600433
 20
1051.572693
 30
0.0
  0
VERTEX
  5
493
100
AcDbEntity
  8
トラップ
  6
CONTINUOUS
 62
     6
100
AcDbVertex
100
AcDb2dVertex
 10
1234.725555
 20
1051.963318
 30
0.0
  0
VERTEX
  5
494
100
AcDbEntity
  8
トラップ
  6
CONTINUOUS
 62
     6
100
AcDbVertex
100
AcDb2dVertex
 10
1234.82428
 20
1052.36615
 30
0.0
  0
SEQEND
  5
495
100
AcDbEntity
  8
トラップ
  6
CONTINUOUS
 62
     6
  0
POLYLINE
  5
496
100
AcDbEntity
  8
トラップ
  6
CONTINUOUS
 62
     6
100
AcDb2dPolyline
 66
     1
 10
0.0
 20
0.0
 30
0.0
 70
   128
  0
VERTEX
  5
497
100
AcDbEntity
  8
トラップ
  6
CONTINUOUS
 62
     6
100
AcDbVertex
100
AcDb2dVertex
 10
1234.82428
 20
1052.36615
 30
0.0
  0
VERTEX
  5
498
100
AcDbEntity
  8
トラップ
  6
CONTINUOUS
 62
     6
100
AcDbVertex
100
AcDb2dVertex
 10
1234.895081
 20
1052.778748
 30
0.0
  0
VERTEX
  5
499
100
AcDbEntity
  8
トラップ
  6
CONTINUOUS
 62
     6
100
AcDbVertex
100
AcDb2dVertex
 10
1234.937653
 20
1053.198669
 30
0.0
  0
VERTEX
  5
49A
100
AcDbEntity
  8
トラップ
  6
CONTINUOUS
 62
     6
100
AcDbVertex
100
AcDb2dVertex
 10
1234.951691
 20
1053.621033
 30
0.0
  0
SEQEND
  5
49B
100
AcDbEntity
  8
トラップ
  6
CONTINUOUS
 62
     6
  0
LINE
  5
49C
100
AcDbEntity
  8
トラップ
  6
CONTINUOUS
 62
     6
100
AcDbLine
 10
1198.113312
 20
1048.118103
 30
0.0
 11
1233.113312
 21
1048.118103
 31
0.0
  0
ARC
  5
49D
100
AcDbEntity
  8
トラップ
  6
CONTINUOUS
 62
     6
100
AcDbCircle
 10
1226.549286
 20
1053.618591
 30
0.0
 40
8.563983
100
AcDbArc
 50
320.037842
 51
39.962158
  0
LINE
  5
49E
100
AcDbEntity
  8
トラップ
  6
CONTINUOUS
 62
     6
100
AcDbLine
 10
1231.613373
 20
1065.620544
 30
0.0
 11
1231.613373
 21
1059.11908
 31
0.0
  0
LINE
  5
49F
100
AcDbEntity
  8
トラップ
  6
CONTINUOUS
 62
     6
100
AcDbLine
 10
1199.613251
 20
1065.620544
 30
0.0
 11
1199.613251
 21
1059.11908
 31
0.0
  0
ARC
  5
4A0
100
AcDbEntity
  8
トラップ
  6
CONTINUOUS
 62
     6
100
AcDbCircle
 10
1204.677338
 20
1002.295654
 30
0.0
 40
8.563983
100
AcDbArc
 50
140.037827
 51
219.962143
  0
LINE
  5
4A1
100
AcDbEntity
  8
トラップ
  6
CONTINUOUS
 62
     6
100
AcDbLine
 10
1198.113312
 20
996.795166
 30
0.0
 11
1233.113312
 21
996.795166
 31
0.0
  0
ARC
  5
4A2
100
AcDbEntity
  8
トラップ
  6
CONTINUOUS
 62
     6
100
AcDbCircle
 10
1226.549286
 20
1002.295654
 30
0.0
 40
8.563983
100
AcDbArc
 50
320.037842
 51
39.962158
  0
LINE
  5
4A3
100
AcDbEntity
  8
トラップ
  6
CONTINUOUS
 62
     6
100
AcDbLine
 10
1198.113312
 20
1007.796143
 30
0.0
 11
1233.113312
 21
1007.796143
 31
0.0
  0
POLYLINE
  5
4A4
100
AcDbEntity
  8
トラップ
  6
CONTINUOUS
 62
     6
100
AcDb2dPolyline
 66
     1
 10
0.0
 20
0.0
 30
0.0
 70
   128
  0
VERTEX
  5
4A5
100
AcDbEntity
  8
トラップ
  6
CONTINUOUS
 62
     6
100
AcDbVertex
100
AcDb2dVertex
 10
1203.776001
 20
1002.295654
 30
0.0
  0
VERTEX
  5
4A6
100
AcDbEntity
  8
トラップ
  6
CONTINUOUS
 62
     6
100
AcDbVertex
100
AcDb2dVertex
 10
1203.761658
 20
1002.718018
 30
0.0
  0
VERTEX
  5
4A7
100
AcDbEntity
  8
トラップ
  6
CONTINUOUS
 62
     6
100
AcDbVertex
100
AcDb2dVertex
 10
1203.718933
 20
1003.135498
 30
0.0
  0
VERTEX
  5
4A8
100
AcDbEntity
  8
トラップ
  6
CONTINUOUS
 62
     6
100
AcDbVertex
100
AcDb2dVertex
 10
1203.648438
 20
1003.548096
 30
0.0
  0
VERTEX
  5
4A9
100
AcDbEntity
  8
トラップ
  6
CONTINUOUS
 62
     6
100
AcDbVertex
100
AcDb2dVertex
 10
1203.550018
 20
1003.950928
 30
0.0
  0
VERTEX
  5
4AA
100
AcDbEntity
  8
トラップ
  6
CONTINUOUS
 62
     6
100
AcDbVertex
100
AcDb2dVertex
 10
1203.424896
 20
1004.341553
 30
0.0
  0
VERTEX
  5
4AB
100
AcDbEntity
  8
トラップ
  6
CONTINUOUS
 62
     6
100
AcDbVertex
100
AcDb2dVertex
 10
1203.273682
 20
1004.717529
 30
0.0
  0
VERTEX
  5
4AC
100
AcDbEntity
  8
トラップ
  6
CONTINUOUS
 62
     6
100
AcDbVertex
100
AcDb2dVertex
 10
1203.0979
 20
1005.073975
 30
0.0
  0
VERTEX
  5
4AD
100
AcDbEntity
  8
トラップ
  6
CONTINUOUS
 62
     6
100
AcDbVertex
100
AcDb2dVertex
 10
1202.898773
 20
1005.408447
 30
0.0
  0
VERTEX
  5
4AE
100
AcDbEntity
  8
トラップ
  6
CONTINUOUS
 62
     6
100
AcDbVertex
100
AcDb2dVertex
 10
1202.677673
 20
1005.718506
 30
0.0
  0
VERTEX
  5
4AF
100
AcDbEntity
  8
トラップ
  6
CONTINUOUS
 62
     6
100
AcDbVertex
100
AcDb2dVertex
 10
1202.436432
 20
1006.004151
 30
0.0
  0
VERTEX
  5
4B0
100
AcDbEntity
  8
トラップ
  6
CONTINUOUS
 62
     6
100
AcDbVertex
100
AcDb2dVertex
 10
1202.17688
 20
1006.260498
 30
0.0
  0
VERTEX
  5
4B1
100
AcDbEntity
  8
トラップ
  6
CONTINUOUS
 62
     6
100
AcDbVertex
100
AcDb2dVertex
 10
1201.900696
 20
1006.487549
 30
0.0
  0
VERTEX
  5
4B2
100
AcDbEntity
  8
トラップ
  6
CONTINUOUS
 62
     6
100
AcDbVertex
100
AcDb2dVertex
 10
1201.610474
 20
1006.682861
 30
0.0
  0
VERTEX
  5
4B3
100
AcDbEntity
  8
トラップ
  6
CONTINUOUS
 62
     6
100
AcDbVertex
100
AcDb2dVertex
 10
1201.308044
 20
1006.843994
 30
0.0
  0
VERTEX
  5
4B4
100
AcDbEntity
  8
トラップ
  6
CONTINUOUS
 62
     6
100
AcDbVertex
100
AcDb2dVertex
 10
1200.996155
 20
1006.970947
 30
0.0
  0
VERTEX
  5
4B5
100
AcDbEntity
  8
トラップ
  6
CONTINUOUS
 62
     6
100
AcDbVertex
100
AcDb2dVertex
 10
1200.676636
 20
1007.061279
 30
0.0
  0
VERTEX
  5
4B6
100
AcDbEntity
  8
トラップ
  6
CONTINUOUS
 62
     6
100
AcDbVertex
100
AcDb2dVertex
 10
1200.352234
 20
1007.117432
 30
0.0
  0
VERTEX
  5
4B7
100
AcDbEntity
  8
トラップ
  6
CONTINUOUS
 62
     6
100
AcDbVertex
100
AcDb2dVertex
 10
1200.025391
 20
1007.136963
 30
0.0
  0
VERTEX
  5
4B8
100
AcDbEntity
  8
トラップ
  6
CONTINUOUS
 62
     6
100
AcDbVertex
100
AcDb2dVertex
 10
1199.698395
 20
1007.117432
 30
0.0
  0
VERTEX
  5
4B9
100
AcDbEntity
  8
トラップ
  6
CONTINUOUS
 62
     6
100
AcDbVertex
100
AcDb2dVertex
 10
1199.373993
 20
1007.063721
 30
0.0
  0
VERTEX
  5
4BA
100
AcDbEntity
  8
トラップ
  6
CONTINUOUS
 62
     6
100
AcDbVertex
100
AcDb2dVertex
 10
1199.054626
 20
1006.970947
 30
0.0
  0
VERTEX
  5
4BB
100
AcDbEntity
  8
トラップ
  6
CONTINUOUS
 62
     6
100
AcDbVertex
100
AcDb2dVertex
 10
1198.742584
 20
1006.843994
 30
0.0
  0
VERTEX
  5
4BC
100
AcDbEntity
  8
トラップ
  6
CONTINUOUS
 62
     6
100
AcDbVertex
100
AcDb2dVertex
 10
1198.440155
 20
1006.682861
 30
0.0
  0
VERTEX
  5
4BD
100
AcDbEntity
  8
トラップ
  6
CONTINUOUS
 62
     6
100
AcDbVertex
100
AcDb2dVertex
 10
1198.150085
 20
1006.487549
 30
0.0
  0
VERTEX
  5
4BE
100
AcDbEntity
  8
トラップ
  6
CONTINUOUS
 62
     6
100
AcDbVertex
100
AcDb2dVertex
 10
1197.874054
 20
1006.260498
 30
0.0
  0
VERTEX
  5
4BF
100
AcDbEntity
  8
トラップ
  6
CONTINUOUS
 62
     6
100
AcDbVertex
100
AcDb2dVertex
 10
1197.614349
 20
1006.001709
 30
0.0
  0
VERTEX
  5
4C0
100
AcDbEntity
  8
トラップ
  6
CONTINUOUS
 62
     6
100
AcDbVertex
100
AcDb2dVertex
 10
1197.373718
 20
1005.718506
 30
0.0
  0
VERTEX
  5
4C1
100
AcDbEntity
  8
トラップ
  6
CONTINUOUS
 62
     6
100
AcDbVertex
100
AcDb2dVertex
 10
1197.152771
 20
1005.408447
 30
0.0
  0
VERTEX
  5
4C2
100
AcDbEntity
  8
トラップ
  6
CONTINUOUS
 62
     6
100
AcDbVertex
100
AcDb2dVertex
 10
1196.953796
 20
1005.071533
 30
0.0
  0
VERTEX
  5
4C3
100
AcDbEntity
  8
トラップ
  6
CONTINUOUS
 62
     6
100
AcDbVertex
100
AcDb2dVertex
 10
1196.77771
 20
1004.717529
 30
0.0
  0
VERTEX
  5
4C4
100
AcDbEntity
  8
トラップ
  6
CONTINUOUS
 62
     6
100
AcDbVertex
100
AcDb2dVertex
 10
1196.626648
 20
1004.343994
 30
0.0
  0
VERTEX
  5
4C5
100
AcDbEntity
  8
トラップ
  6
CONTINUOUS
 62
     6
100
AcDbVertex
100
AcDb2dVertex
 10
1196.501678
 20
1003.953369
 30
0.0
  0
VERTEX
  5
4C6
100
AcDbEntity
  8
トラップ
  6
CONTINUOUS
 62
     6
100
AcDbVertex
100
AcDb2dVertex
 10
1196.402954
 20
1003.548096
 30
0.0
  0
VERTEX
  5
4C7
100
AcDbEntity
  8
トラップ
  6
CONTINUOUS
 62
     6
100
AcDbVertex
100
AcDb2dVertex
 10
1196.332153
 20
1003.135498
 30
0.0
  0
VERTEX
  5
4C8
100
AcDbEntity
  8
トラップ
  6
CONTINUOUS
 62
     6
100
AcDbVertex
100
AcDb2dVertex
 10
1196.289581
 20
1002.715576
 30
0.0
  0
VERTEX
  5
4C9
100
AcDbEntity
  8
トラップ
  6
CONTINUOUS
 62
     6
100
AcDbVertex
100
AcDb2dVertex
 10
1196.27478
 20
1002.295654
 30
0.0
  0
VERTEX
  5
4CA
100
AcDbEntity
  8
トラップ
  6
CONTINUOUS
 62
     6
100
AcDbVertex
100
AcDb2dVertex
 10
1196.288971
 20
1001.873291
 30
0.0
  0
VERTEX
  5
4CB
100
AcDbEntity
  8
トラップ
  6
CONTINUOUS
 62
     6
100
AcDbVertex
100
AcDb2dVertex
 10
1196.331543
 20
1001.455811
 30
0.0
  0
VERTEX
  5
4CC
100
AcDbEntity
  8
トラップ
  6
CONTINUOUS
 62
     6
100
AcDbVertex
100
AcDb2dVertex
 10
1196.402954
 20
1001.043213
 30
0.0
  0
VERTEX
  5
4CD
100
AcDbEntity
  8
トラップ
  6
CONTINUOUS
 62
     6
100
AcDbVertex
100
AcDb2dVertex
 10
1196.501373
 20
1000.640381
 30
0.0
  0
VERTEX
  5
4CE
100
AcDbEntity
  8
トラップ
  6
CONTINUOUS
 62
     6
100
AcDbVertex
100
AcDb2dVertex
 10
1196.626801
 20
1000.249756
 30
0.0
  0
VERTEX
  5
4CF
100
AcDbEntity
  8
トラップ
  6
CONTINUOUS
 62
     6
100
AcDbVertex
100
AcDb2dVertex
 10
1196.77771
 20
999.876221
 30
0.0
  0
VERTEX
  5
4D0
100
AcDbEntity
  8
トラップ
  6
CONTINUOUS
 62
     6
100
AcDbVertex
100
AcDb2dVertex
 10
1196.953644
 20
999.519775
 30
0.0
  0
VERTEX
  5
4D1
100
AcDbEntity
  8
トラップ
  6
CONTINUOUS
 62
     6
100
AcDbVertex
100
AcDb2dVertex
 10
1197.152924
 20
999.185303
 30
0.0
  0
VERTEX
  5
4D2
100
AcDbEntity
  8
トラップ
  6
CONTINUOUS
 62
     6
100
AcDbVertex
100
AcDb2dVertex
 10
1197.373718
 20
998.872803
 30
0.0
  0
VERTEX
  5
4D3
100
AcDbEntity
  8
トラップ
  6
CONTINUOUS
 62
     6
100
AcDbVertex
100
AcDb2dVertex
 10
1197.61496
 20
998.587158
 30
0.0
  0
VERTEX
  5
4D4
100
AcDbEntity
  8
トラップ
  6
CONTINUOUS
 62
     6
100
AcDbVertex
100
AcDb2dVertex
 10
1197.874817
 20
998.330811
 30
0.0
  0
VERTEX
  5
4D5
100
AcDbEntity
  8
トラップ
  6
CONTINUOUS
 62
     6
100
AcDbVertex
100
AcDb2dVertex
 10
1198.150085
 20
998.10376
 30
0.0
  0
VERTEX
  5
4D6
100
AcDbEntity
  8
トラップ
  6
CONTINUOUS
 62
     6
100
AcDbVertex
100
AcDb2dVertex
 10
1198.440308
 20
997.908447
 30
0.0
  0
VERTEX
  5
4D7
100
AcDbEntity
  8
トラップ
  6
CONTINUOUS
 62
     6
100
AcDbVertex
100
AcDb2dVertex
 10
1198.742432
 20
997.747314
 30
0.0
  0
VERTEX
  5
4D8
100
AcDbEntity
  8
トラップ
  6
CONTINUOUS
 62
     6
100
AcDbVertex
100
AcDb2dVertex
 10
1199.054626
 20
997.620361
 30
0.0
  0
VERTEX
  5
4D9
100
AcDbEntity
  8
トラップ
  6
CONTINUOUS
 62
     6
100
AcDbVertex
100
AcDb2dVertex
 10
1199.373993
 20
997.530029
 30
0.0
  0
VERTEX
  5
4DA
100
AcDbEntity
  8
トラップ
  6
CONTINUOUS
 62
     6
100
AcDbVertex
100
AcDb2dVertex
 10
1199.698242
 20
997.473877
 30
0.0
  0
VERTEX
  5
4DB
100
AcDbEntity
  8
トラップ
  6
CONTINUOUS
 62
     6
100
AcDbVertex
100
AcDb2dVertex
 10
1200.025391
 20
997.454346
 30
0.0
  0
VERTEX
  5
4DC
100
AcDbEntity
  8
トラップ
  6
CONTINUOUS
 62
     6
100
AcDbVertex
100
AcDb2dVertex
 10
1200.352234
 20
997.473877
 30
0.0
  0
VERTEX
  5
4DD
100
AcDbEntity
  8
トラップ
  6
CONTINUOUS
 62
     6
100
AcDbVertex
100
AcDb2dVertex
 10
1200.676483
 20
997.527588
 30
0.0
  0
VERTEX
  5
4DE
100
AcDbEntity
  8
トラップ
  6
CONTINUOUS
 62
     6
100
AcDbVertex
100
AcDb2dVertex
 10
1200.996155
 20
997.620361
 30
0.0
  0
VERTEX
  5
4DF
100
AcDbEntity
  8
トラップ
  6
CONTINUOUS
 62
     6
100
AcDbVertex
100
AcDb2dVertex
 10
1201.308197
 20
997.747314
 30
0.0
  0
VERTEX
  5
4E0
100
AcDbEntity
  8
トラップ
  6
CONTINUOUS
 62
     6
100
AcDbVertex
100
AcDb2dVertex
 10
1201.610321
 20
997.908447
 30
0.0
  0
SEQEND
  5
4E1
100
AcDbEntity
  8
トラップ
  6
CONTINUOUS
 62
     6
  0
POLYLINE
  5
4E2
100
AcDbEntity
  8
トラップ
  6
CONTINUOUS
 62
     6
100
AcDb2dPolyline
 66
     1
 10
0.0
 20
0.0
 30
0.0
 70
   128
  0
VERTEX
  5
4E3
100
AcDbEntity
  8
トラップ
  6
CONTINUOUS
 62
     6
100
AcDbVertex
100
AcDb2dVertex
 10
1201.610321
 20
997.908447
 30
0.0
  0
VERTEX
  5
4E4
100
AcDbEntity
  8
トラップ
  6
CONTINUOUS
 62
     6
100
AcDbVertex
100
AcDb2dVertex
 10
1201.900696
 20
998.10376
 30
0.0
  0
VERTEX
  5
4E5
100
AcDbEntity
  8
トラップ
  6
CONTINUOUS
 62
     6
100
AcDbVertex
100
AcDb2dVertex
 10
1202.176575
 20
998.330811
 30
0.0
  0
VERTEX
  5
4E6
100
AcDbEntity
  8
トラップ
  6
CONTINUOUS
 62
     6
100
AcDbVertex
100
AcDb2dVertex
 10
1202.436127
 20
998.5896
 30
0.0
  0
VERTEX
  5
4E7
100
AcDbEntity
  8
トラップ
  6
CONTINUOUS
 62
     6
100
AcDbVertex
100
AcDb2dVertex
 10
1202.677673
 20
998.872803
 30
0.0
  0
VERTEX
  5
4E8
100
AcDbEntity
  8
トラップ
  6
CONTINUOUS
 62
     6
100
AcDbVertex
100
AcDb2dVertex
 10
1202.898773
 20
999.182861
 30
0.0
  0
VERTEX
  5
4E9
100
AcDbEntity
  8
トラップ
  6
CONTINUOUS
 62
     6
100
AcDbVertex
100
AcDb2dVertex
 10
1203.0979
 20
999.519775
 30
0.0
  0
VERTEX
  5
4EA
100
AcDbEntity
  8
トラップ
  6
CONTINUOUS
 62
     6
100
AcDbVertex
100
AcDb2dVertex
 10
1203.273682
 20
999.876221
 30
0.0
  0
VERTEX
  5
4EB
100
AcDbEntity
  8
トラップ
  6
CONTINUOUS
 62
     6
100
AcDbVertex
100
AcDb2dVertex
 10
1203.424744
 20
1000.249756
 30
0.0
  0
VERTEX
  5
4EC
100
AcDbEntity
  8
トラップ
  6
CONTINUOUS
 62
     6
100
AcDbVertex
100
AcDb2dVertex
 10
1203.550018
 20
1000.640381
 30
0.0
  0
VERTEX
  5
4ED
100
AcDbEntity
  8
トラップ
  6
CONTINUOUS
 62
     6
100
AcDbVertex
100
AcDb2dVertex
 10
1203.648438
 20
1001.043213
 30
0.0
  0
SEQEND
  5
4EE
100
AcDbEntity
  8
トラップ
  6
CONTINUOUS
 62
     6
  0
POLYLINE
  5
4EF
100
AcDbEntity
  8
トラップ
  6
CONTINUOUS
 62
     6
100
AcDb2dPolyline
 66
     1
 10
0.0
 20
0.0
 30
0.0
 70
   128
  0
VERTEX
  5
4F0
100
AcDbEntity
  8
トラップ
  6
CONTINUOUS
 62
     6
100
AcDbVertex
100
AcDb2dVertex
 10
1203.648438
 20
1001.043213
 30
0.0
  0
VERTEX
  5
4F1
100
AcDbEntity
  8
トラップ
  6
CONTINUOUS
 62
     6
100
AcDbVertex
100
AcDb2dVertex
 10
1203.719238
 20
1001.455811
 30
0.0
  0
VERTEX
  5
4F2
100
AcDbEntity
  8
トラップ
  6
CONTINUOUS
 62
     6
100
AcDbVertex
100
AcDb2dVertex
 10
1203.761963
 20
1001.875732
 30
0.0
  0
VERTEX
  5
4F3
100
AcDbEntity
  8
トラップ
  6
CONTINUOUS
 62
     6
100
AcDbVertex
100
AcDb2dVertex
 10
1203.776459
 20
1002.298096
 30
0.0
  0
SEQEND
  5
4F4
100
AcDbEntity
  8
トラップ
  6
CONTINUOUS
 62
     6
  0
POLYLINE
  5
4F5
100
AcDbEntity
  8
トラップ
  6
CONTINUOUS
 62
     6
100
AcDb2dPolyline
 66
     1
 10
0.0
 20
0.0
 30
0.0
 70
   128
  0
VERTEX
  5
4F6
100
AcDbEntity
  8
トラップ
  6
CONTINUOUS
 62
     6
100
AcDbVertex
100
AcDb2dVertex
 10
1223.112396
 20
1002.295654
 30
0.0
  0
VERTEX
  5
4F7
100
AcDbEntity
  8
トラップ
  6
CONTINUOUS
 62
     6
100
AcDbVertex
100
AcDb2dVertex
 10
1223.083862
 20
1002.718018
 30
0.0
  0
VERTEX
  5
4F8
100
AcDbEntity
  8
トラップ
  6
CONTINUOUS
 62
     6
100
AcDbVertex
100
AcDb2dVertex
 10
1222.998413
 20
1003.135498
 30
0.0
  0
VERTEX
  5
4F9
100
AcDbEntity
  8
トラップ
  6
CONTINUOUS
 62
     6
100
AcDbVertex
100
AcDb2dVertex
 10
1222.856659
 20
1003.548096
 30
0.0
  0
VERTEX
  5
4FA
100
AcDbEntity
  8
トラップ
  6
CONTINUOUS
 62
     6
100
AcDbVertex
100
AcDb2dVertex
 10
1222.659821
 20
1003.950928
 30
0.0
  0
VERTEX
  5
4FB
100
AcDbEntity
  8
トラップ
  6
CONTINUOUS
 62
     6
100
AcDbVertex
100
AcDb2dVertex
 10
1222.409271
 20
1004.341553
 30
0.0
  0
VERTEX
  5
4FC
100
AcDbEntity
  8
トラップ
  6
CONTINUOUS
 62
     6
100
AcDbVertex
100
AcDb2dVertex
 10
1222.107758
 20
1004.717529
 30
0.0
  0
VERTEX
  5
4FD
100
AcDbEntity
  8
トラップ
  6
CONTINUOUS
 62
     6
100
AcDbVertex
100
AcDb2dVertex
 10
1221.756195
 20
1005.073975
 30
0.0
  0
VERTEX
  5
4FE
100
AcDbEntity
  8
トラップ
  6
CONTINUOUS
 62
     6
100
AcDbVertex
100
AcDb2dVertex
 10
1221.358093
 20
1005.408447
 30
0.0
  0
VERTEX
  5
4FF
100
AcDbEntity
  8
トラップ
  6
CONTINUOUS
 62
     6
100
AcDbVertex
100
AcDb2dVertex
 10
1220.916046
 20
1005.718506
 30
0.0
  0
VERTEX
  5
500
100
AcDbEntity
  8
トラップ
  6
CONTINUOUS
 62
     6
100
AcDbVertex
100
AcDb2dVertex
 10
1220.433716
 20
1006.004151
 30
0.0
  0
VERTEX
  5
501
100
AcDbEntity
  8
トラップ
  6
CONTINUOUS
 62
     6
100
AcDbVertex
100
AcDb2dVertex
 10
1219.914764
 20
1006.260498
 30
0.0
  0
VERTEX
  5
502
100
AcDbEntity
  8
トラップ
  6
CONTINUOUS
 62
     6
100
AcDbVertex
100
AcDb2dVertex
 10
1219.362854
 20
1006.487549
 30
0.0
  0
VERTEX
  5
503
100
AcDbEntity
  8
トラップ
  6
CONTINUOUS
 62
     6
100
AcDbVertex
100
AcDb2dVertex
 10
1218.782562
 20
1006.682861
 30
0.0
  0
VERTEX
  5
504
100
AcDbEntity
  8
トラップ
  6
CONTINUOUS
 62
     6
100
AcDbVertex
100
AcDb2dVertex
 10
1218.178314
 20
1006.843994
 30
0.0
  0
VERTEX
  5
505
100
AcDbEntity
  8
トラップ
  6
CONTINUOUS
 62
     6
100
AcDbVertex
100
AcDb2dVertex
 10
1217.55423
 20
1006.970947
 30
0.0
  0
VERTEX
  5
506
100
AcDbEntity
  8
トラップ
  6
CONTINUOUS
 62
     6
100
AcDbVertex
100
AcDb2dVertex
 10
1216.915497
 20
1007.061279
 30
0.0
  0
VERTEX
  5
507
100
AcDbEntity
  8
トラップ
  6
CONTINUOUS
 62
     6
100
AcDbVertex
100
AcDb2dVertex
 10
1216.266693
 20
1007.117432
 30
0.0
  0
VERTEX
  5
508
100
AcDbEntity
  8
トラップ
  6
CONTINUOUS
 62
     6
100
AcDbVertex
100
AcDb2dVertex
 10
1215.613617
 20
1007.136963
 30
0.0
  0
VERTEX
  5
509
100
AcDbEntity
  8
トラップ
  6
CONTINUOUS
 62
     6
100
AcDbVertex
100
AcDb2dVertex
 10
1214.960083
 20
1007.117432
 30
0.0
  0
VERTEX
  5
50A
100
AcDbEntity
  8
トラップ
  6
CONTINUOUS
 62
     6
100
AcDbVertex
100
AcDb2dVertex
 10
1214.311432
 20
1007.063721
 30
0.0
  0
VERTEX
  5
50B
100
AcDbEntity
  8
トラップ
  6
CONTINUOUS
 62
     6
100
AcDbVertex
100
AcDb2dVertex
 10
1213.672852
 20
1006.970947
 30
0.0
  0
VERTEX
  5
50C
100
AcDbEntity
  8
トラップ
  6
CONTINUOUS
 62
     6
100
AcDbVertex
100
AcDb2dVertex
 10
1213.049072
 20
1006.843994
 30
0.0
  0
VERTEX
  5
50D
100
AcDbEntity
  8
トラップ
  6
CONTINUOUS
 62
     6
100
AcDbVertex
100
AcDb2dVertex
 10
1212.444824
 20
1006.682861
 30
0.0
  0
VERTEX
  5
50E
100
AcDbEntity
  8
トラップ
  6
CONTINUOUS
 62
     6
100
AcDbVertex
100
AcDb2dVertex
 10
1211.864227
 20
1006.487549
 30
0.0
  0
VERTEX
  5
50F
100
AcDbEntity
  8
トラップ
  6
CONTINUOUS
 62
     6
100
AcDbVertex
100
AcDb2dVertex
 10
1211.312622
 20
1006.260498
 30
0.0
  0
VERTEX
  5
510
100
AcDbEntity
  8
トラップ
  6
CONTINUOUS
 62
     6
100
AcDbVertex
100
AcDb2dVertex
 10
1210.793518
 20
1006.001709
 30
0.0
  0
VERTEX
  5
511
100
AcDbEntity
  8
トラップ
  6
CONTINUOUS
 62
     6
100
AcDbVertex
100
AcDb2dVertex
 10
1210.311035
 20
1005.718506
 30
0.0
  0
VERTEX
  5
512
100
AcDbEntity
  8
トラップ
  6
CONTINUOUS
 62
     6
100
AcDbVertex
100
AcDb2dVertex
 10
1209.869141
 20
1005.408447
 30
0.0
  0
VERTEX
  5
513
100
AcDbEntity
  8
トラップ
  6
CONTINUOUS
 62
     6
100
AcDbVertex
100
AcDb2dVertex
 10
1209.470886
 20
1005.071533
 30
0.0
  0
VERTEX
  5
514
100
AcDbEntity
  8
トラップ
  6
CONTINUOUS
 62
     6
100
AcDbVertex
100
AcDb2dVertex
 10
1209.119324
 20
1004.717529
 30
0.0
  0
VERTEX
  5
515
100
AcDbEntity
  8
トラップ
  6
CONTINUOUS
 62
     6
100
AcDbVertex
100
AcDb2dVertex
 10
1208.817352
 20
1004.343994
 30
0.0
  0
VERTEX
  5
516
100
AcDbEntity
  8
トラップ
  6
CONTINUOUS
 62
     6
100
AcDbVertex
100
AcDb2dVertex
 10
1208.566803
 20
1003.953369
 30
0.0
  0
VERTEX
  5
517
100
AcDbEntity
  8
トラップ
  6
CONTINUOUS
 62
     6
100
AcDbVertex
100
AcDb2dVertex
 10
1208.370422
 20
1003.548096
 30
0.0
  0
VERTEX
  5
518
100
AcDbEntity
  8
トラップ
  6
CONTINUOUS
 62
     6
100
AcDbVertex
100
AcDb2dVertex
 10
1208.228973
 20
1003.135498
 30
0.0
  0
VERTEX
  5
519
100
AcDbEntity
  8
トラップ
  6
CONTINUOUS
 62
     6
100
AcDbVertex
100
AcDb2dVertex
 10
1208.143677
 20
1002.715576
 30
0.0
  0
VERTEX
  5
51A
100
AcDbEntity
  8
トラップ
  6
CONTINUOUS
 62
     6
100
AcDbVertex
100
AcDb2dVertex
 10
1208.114685
 20
1002.295654
 30
0.0
  0
VERTEX
  5
51B
100
AcDbEntity
  8
トラップ
  6
CONTINUOUS
 62
     6
100
AcDbVertex
100
AcDb2dVertex
 10
1208.143219
 20
1001.873291
 30
0.0
  0
VERTEX
  5
51C
100
AcDbEntity
  8
トラップ
  6
CONTINUOUS
 62
     6
100
AcDbVertex
100
AcDb2dVertex
 10
1208.228668
 20
1001.455811
 30
0.0
  0
VERTEX
  5
51D
100
AcDbEntity
  8
トラップ
  6
CONTINUOUS
 62
     6
100
AcDbVertex
100
AcDb2dVertex
 10
1208.370422
 20
1001.043213
 30
0.0
  0
VERTEX
  5
51E
100
AcDbEntity
  8
トラップ
  6
CONTINUOUS
 62
     6
100
AcDbVertex
100
AcDb2dVertex
 10
1208.567261
 20
1000.640381
 30
0.0
  0
VERTEX
  5
51F
100
AcDbEntity
  8
トラップ
  6
CONTINUOUS
 62
     6
100
AcDbVertex
100
AcDb2dVertex
 10
1208.81781
 20
1000.249756
 30
0.0
  0
VERTEX
  5
520
100
AcDbEntity
  8
トラップ
  6
CONTINUOUS
 62
     6
100
AcDbVertex
100
AcDb2dVertex
 10
1209.119324
 20
999.876221
 30
0.0
  0
VERTEX
  5
521
100
AcDbEntity
  8
トラップ
  6
CONTINUOUS
 62
     6
100
AcDbVertex
100
AcDb2dVertex
 10
1209.470886
 20
999.519775
 30
0.0
  0
VERTEX
  5
522
100
AcDbEntity
  8
トラップ
  6
CONTINUOUS
 62
     6
100
AcDbVertex
100
AcDb2dVertex
 10
1209.868988
 20
999.185303
 30
0.0
  0
VERTEX
  5
523
100
AcDbEntity
  8
トラップ
  6
CONTINUOUS
 62
     6
100
AcDbVertex
100
AcDb2dVertex
 10
1210.311035
 20
998.872803
 30
0.0
  0
VERTEX
  5
524
100
AcDbEntity
  8
トラップ
  6
CONTINUOUS
 62
     6
100
AcDbVertex
100
AcDb2dVertex
 10
1210.793365
 20
998.587158
 30
0.0
  0
VERTEX
  5
525
100
AcDbEntity
  8
トラップ
  6
CONTINUOUS
 62
     6
100
AcDbVertex
100
AcDb2dVertex
 10
1211.312317
 20
998.330811
 30
0.0
  0
VERTEX
  5
526
100
AcDbEntity
  8
トラップ
  6
CONTINUOUS
 62
     6
100
AcDbVertex
100
AcDb2dVertex
 10
1211.864227
 20
998.10376
 30
0.0
  0
VERTEX
  5
527
100
AcDbEntity
  8
トラップ
  6
CONTINUOUS
 62
     6
100
AcDbVertex
100
AcDb2dVertex
 10
1212.444519
 20
997.908447
 30
0.0
  0
VERTEX
  5
528
100
AcDbEntity
  8
トラップ
  6
CONTINUOUS
 62
     6
100
AcDbVertex
100
AcDb2dVertex
 10
1213.048767
 20
997.747314
 30
0.0
  0
VERTEX
  5
529
100
AcDbEntity
  8
トラップ
  6
CONTINUOUS
 62
     6
100
AcDbVertex
100
AcDb2dVertex
 10
1213.672852
 20
997.620361
 30
0.0
  0
VERTEX
  5
52A
100
AcDbEntity
  8
トラップ
  6
CONTINUOUS
 62
     6
100
AcDbVertex
100
AcDb2dVertex
 10
1214.311584
 20
997.530029
 30
0.0
  0
VERTEX
  5
52B
100
AcDbEntity
  8
トラップ
  6
CONTINUOUS
 62
     6
100
AcDbVertex
100
AcDb2dVertex
 10
1214.960388
 20
997.473877
 30
0.0
  0
VERTEX
  5
52C
100
AcDbEntity
  8
トラップ
  6
CONTINUOUS
 62
     6
100
AcDbVertex
100
AcDb2dVertex
 10
1215.613617
 20
997.454346
 30
0.0
  0
VERTEX
  5
52D
100
AcDbEntity
  8
トラップ
  6
CONTINUOUS
 62
     6
100
AcDbVertex
100
AcDb2dVertex
 10
1216.267151
 20
997.473877
 30
0.0
  0
VERTEX
  5
52E
100
AcDbEntity
  8
トラップ
  6
CONTINUOUS
 62
     6
100
AcDbVertex
100
AcDb2dVertex
 10
1216.915802
 20
997.527588
 30
0.0
  0
VERTEX
  5
52F
100
AcDbEntity
  8
トラップ
  6
CONTINUOUS
 62
     6
100
AcDbVertex
100
AcDb2dVertex
 10
1217.55423
 20
997.620361
 30
0.0
  0
VERTEX
  5
530
100
AcDbEntity
  8
トラップ
  6
CONTINUOUS
 62
     6
100
AcDbVertex
100
AcDb2dVertex
 10
1218.178009
 20
997.747314
 30
0.0
  0
VERTEX
  5
531
100
AcDbEntity
  8
トラップ
  6
CONTINUOUS
 62
     6
100
AcDbVertex
100
AcDb2dVertex
 10
1218.782257
 20
997.908447
 30
0.0
  0
SEQEND
  5
532
100
AcDbEntity
  8
トラップ
  6
CONTINUOUS
 62
     6
  0
POLYLINE
  5
533
100
AcDbEntity
  8
トラップ
  6
CONTINUOUS
 62
     6
100
AcDb2dPolyline
 66
     1
 10
0.0
 20
0.0
 30
0.0
 70
   128
  0
VERTEX
  5
534
100
AcDbEntity
  8
トラップ
  6
CONTINUOUS
 62
     6
100
AcDbVertex
100
AcDb2dVertex
 10
1218.782257
 20
997.908447
 30
0.0
  0
VERTEX
  5
535
100
AcDbEntity
  8
トラップ
  6
CONTINUOUS
 62
     6
100
AcDbVertex
100
AcDb2dVertex
 10
1219.362854
 20
998.10376
 30
0.0
  0
VERTEX
  5
536
100
AcDbEntity
  8
トラップ
  6
CONTINUOUS
 62
     6
100
AcDbVertex
100
AcDb2dVertex
 10
1219.914459
 20
998.330811
 30
0.0
  0
VERTEX
  5
537
100
AcDbEntity
  8
トラップ
  6
CONTINUOUS
 62
     6
100
AcDbVertex
100
AcDb2dVertex
 10
1220.433563
 20
998.5896
 30
0.0
  0
VERTEX
  5
538
100
AcDbEntity
  8
トラップ
  6
CONTINUOUS
 62
     6
100
AcDbVertex
100
AcDb2dVertex
 10
1220.916046
 20
998.872803
 30
0.0
  0
VERTEX
  5
539
100
AcDbEntity
  8
トラップ
  6
CONTINUOUS
 62
     6
100
AcDbVertex
100
AcDb2dVertex
 10
1221.357941
 20
999.182861
 30
0.0
  0
VERTEX
  5
53A
100
AcDbEntity
  8
トラップ
  6
CONTINUOUS
 62
     6
100
AcDbVertex
100
AcDb2dVertex
 10
1221.756195
 20
999.519775
 30
0.0
  0
VERTEX
  5
53B
100
AcDbEntity
  8
トラップ
  6
CONTINUOUS
 62
     6
100
AcDbVertex
100
AcDb2dVertex
 10
1222.107758
 20
999.876221
 30
0.0
  0
VERTEX
  5
53C
100
AcDbEntity
  8
トラップ
  6
CONTINUOUS
 62
     6
100
AcDbVertex
100
AcDb2dVertex
 10
1222.409729
 20
1000.249756
 30
0.0
  0
VERTEX
  5
53D
100
AcDbEntity
  8
トラップ
  6
CONTINUOUS
 62
     6
100
AcDbVertex
100
AcDb2dVertex
 10
1222.660278
 20
1000.640381
 30
0.0
  0
VERTEX
  5
53E
100
AcDbEntity
  8
トラップ
  6
CONTINUOUS
 62
     6
100
AcDbVertex
100
AcDb2dVertex
 10
1222.856659
 20
1001.043213
 30
0.0
  0
SEQEND
  5
53F
100
AcDbEntity
  8
トラップ
  6
CONTINUOUS
 62
     6
  0
POLYLINE
  5
540
100
AcDbEntity
  8
トラップ
  6
CONTINUOUS
 62
     6
100
AcDb2dPolyline
 66
     1
 10
0.0
 20
0.0
 30
0.0
 70
   128
  0
VERTEX
  5
541
100
AcDbEntity
  8
トラップ
  6
CONTINUOUS
 62
     6
100
AcDbVertex
100
AcDb2dVertex
 10
1222.856659
 20
1001.043213
 30
0.0
  0
VERTEX
  5
542
100
AcDbEntity
  8
トラップ
  6
CONTINUOUS
 62
     6
100
AcDbVertex
100
AcDb2dVertex
 10
1222.998108
 20
1001.455811
 30
0.0
  0
VERTEX
  5
543
100
AcDbEntity
  8
トラップ
  6
CONTINUOUS
 62
     6
100
AcDbVertex
100
AcDb2dVertex
 10
1223.083405
 20
1001.875732
 30
0.0
  0
VERTEX
  5
544
100
AcDbEntity
  8
トラップ
  6
CONTINUOUS
 62
     6
100
AcDbVertex
100
AcDb2dVertex
 10
1223.111786
 20
1002.298096
 30
0.0
  0
SEQEND
  5
545
100
AcDbEntity
  8
トラップ
  6
CONTINUOUS
 62
     6
  0
POLYLINE
  5
546
100
AcDbEntity
  8
トラップ
  6
CONTINUOUS
 62
     6
100
AcDb2dPolyline
 66
     1
 10
0.0
 20
0.0
 30
0.0
 70
   128
  0
VERTEX
  5
547
100
AcDbEntity
  8
トラップ
  6
CONTINUOUS
 62
     6
100
AcDbVertex
100
AcDb2dVertex
 10
1234.951843
 20
1002.295654
 30
0.0
  0
VERTEX
  5
548
100
AcDbEntity
  8
トラップ
  6
CONTINUOUS
 62
     6
100
AcDbVertex
100
AcDb2dVertex
 10
1234.9375
 20
1002.718018
 30
0.0
  0
VERTEX
  5
549
100
AcDbEntity
  8
トラップ
  6
CONTINUOUS
 62
     6
100
AcDbVertex
100
AcDb2dVertex
 10
1234.894623
 20
1003.135498
 30
0.0
  0
VERTEX
  5
54A
100
AcDbEntity
  8
トラップ
  6
CONTINUOUS
 62
     6
100
AcDbVertex
100
AcDb2dVertex
 10
1234.82428
 20
1003.548096
 30
0.0
  0
VERTEX
  5
54B
100
AcDbEntity
  8
トラップ
  6
CONTINUOUS
 62
     6
100
AcDbVertex
100
AcDb2dVertex
 10
1234.725861
 20
1003.950928
 30
0.0
  0
VERTEX
  5
54C
100
AcDbEntity
  8
トラップ
  6
CONTINUOUS
 62
     6
100
AcDbVertex
100
AcDb2dVertex
 10
1234.600586
 20
1004.341553
 30
0.0
  0
VERTEX
  5
54D
100
AcDbEntity
  8
トラップ
  6
CONTINUOUS
 62
     6
100
AcDbVertex
100
AcDb2dVertex
 10
1234.449524
 20
1004.717529
 30
0.0
  0
VERTEX
  5
54E
100
AcDbEntity
  8
トラップ
  6
CONTINUOUS
 62
     6
100
AcDbVertex
100
AcDb2dVertex
 10
1234.27359
 20
1005.073975
 30
0.0
  0
VERTEX
  5
54F
100
AcDbEntity
  8
トラップ
  6
CONTINUOUS
 62
     6
100
AcDbVertex
100
AcDb2dVertex
 10
1234.07431
 20
1005.408447
 30
0.0
  0
VERTEX
  5
550
100
AcDbEntity
  8
トラップ
  6
CONTINUOUS
 62
     6
100
AcDbVertex
100
AcDb2dVertex
 10
1233.853516
 20
1005.718506
 30
0.0
  0
VERTEX
  5
551
100
AcDbEntity
  8
トラップ
  6
CONTINUOUS
 62
     6
100
AcDbVertex
100
AcDb2dVertex
 10
1233.612274
 20
1006.004151
 30
0.0
  0
VERTEX
  5
552
100
AcDbEntity
  8
トラップ
  6
CONTINUOUS
 62
     6
100
AcDbVertex
100
AcDb2dVertex
 10
1233.352417
 20
1006.260498
 30
0.0
  0
VERTEX
  5
553
100
AcDbEntity
  8
トラップ
  6
CONTINUOUS
 62
     6
100
AcDbVertex
100
AcDb2dVertex
 10
1233.077148
 20
1006.487549
 30
0.0
  0
VERTEX
  5
554
100
AcDbEntity
  8
トラップ
  6
CONTINUOUS
 62
     6
100
AcDbVertex
100
AcDb2dVertex
 10
1232.786926
 20
1006.682861
 30
0.0
  0
VERTEX
  5
555
100
AcDbEntity
  8
トラップ
  6
CONTINUOUS
 62
     6
100
AcDbVertex
100
AcDb2dVertex
 10
1232.484802
 20
1006.843994
 30
0.0
  0
VERTEX
  5
556
100
AcDbEntity
  8
トラップ
  6
CONTINUOUS
 62
     6
100
AcDbVertex
100
AcDb2dVertex
 10
1232.172455
 20
1006.970947
 30
0.0
  0
VERTEX
  5
557
100
AcDbEntity
  8
トラップ
  6
CONTINUOUS
 62
     6
100
AcDbVertex
100
AcDb2dVertex
 10
1231.853088
 20
1007.061279
 30
0.0
  0
VERTEX
  5
558
100
AcDbEntity
  8
トラップ
  6
CONTINUOUS
 62
     6
100
AcDbVertex
100
AcDb2dVertex
 10
1231.528839
 20
1007.117432
 30
0.0
  0
VERTEX
  5
559
100
AcDbEntity
  8
トラップ
  6
CONTINUOUS
 62
     6
100
AcDbVertex
100
AcDb2dVertex
 10
1231.201691
 20
1007.136963
 30
0.0
  0
VERTEX
  5
55A
100
AcDbEntity
  8
トラップ
  6
CONTINUOUS
 62
     6
100
AcDbVertex
100
AcDb2dVertex
 10
1230.874847
 20
1007.117432
 30
0.0
  0
VERTEX
  5
55B
100
AcDbEntity
  8
トラップ
  6
CONTINUOUS
 62
     6
100
AcDbVertex
100
AcDb2dVertex
 10
1230.550598
 20
1007.063721
 30
0.0
  0
VERTEX
  5
55C
100
AcDbEntity
  8
トラップ
  6
CONTINUOUS
 62
     6
100
AcDbVertex
100
AcDb2dVertex
 10
1230.231079
 20
1006.970947
 30
0.0
  0
VERTEX
  5
55D
100
AcDbEntity
  8
トラップ
  6
CONTINUOUS
 62
     6
100
AcDbVertex
100
AcDb2dVertex
 10
1229.919037
 20
1006.843994
 30
0.0
  0
VERTEX
  5
55E
100
AcDbEntity
  8
トラップ
  6
CONTINUOUS
 62
     6
100
AcDbVertex
100
AcDb2dVertex
 10
1229.616913
 20
1006.682861
 30
0.0
  0
VERTEX
  5
55F
100
AcDbEntity
  8
トラップ
  6
CONTINUOUS
 62
     6
100
AcDbVertex
100
AcDb2dVertex
 10
1229.326538
 20
1006.487549
 30
0.0
  0
VERTEX
  5
560
100
AcDbEntity
  8
トラップ
  6
CONTINUOUS
 62
     6
100
AcDbVertex
100
AcDb2dVertex
 10
1229.050659
 20
1006.260498
 30
0.0
  0
VERTEX
  5
561
100
AcDbEntity
  8
トラップ
  6
CONTINUOUS
 62
     6
100
AcDbVertex
100
AcDb2dVertex
 10
1228.791107
 20
1006.001709
 30
0.0
  0
VERTEX
  5
562
100
AcDbEntity
  8
トラップ
  6
CONTINUOUS
 62
     6
100
AcDbVertex
100
AcDb2dVertex
 10
1228.549713
 20
1005.718506
 30
0.0
  0
VERTEX
  5
563
100
AcDbEntity
  8
トラップ
  6
CONTINUOUS
 62
     6
100
AcDbVertex
100
AcDb2dVertex
 10
1228.328613
 20
1005.408447
 30
0.0
  0
VERTEX
  5
564
100
AcDbEntity
  8
トラップ
  6
CONTINUOUS
 62
     6
100
AcDbVertex
100
AcDb2dVertex
 10
1228.129334
 20
1005.071533
 30
0.0
  0
VERTEX
  5
565
100
AcDbEntity
  8
トラップ
  6
CONTINUOUS
 62
     6
100
AcDbVertex
100
AcDb2dVertex
 10
1227.953705
 20
1004.717529
 30
0.0
  0
VERTEX
  5
566
100
AcDbEntity
  8
トラップ
  6
CONTINUOUS
 62
     6
100
AcDbVertex
100
AcDb2dVertex
 10
1227.802643
 20
1004.343994
 30
0.0
  0
VERTEX
  5
567
100
AcDbEntity
  8
トラップ
  6
CONTINUOUS
 62
     6
100
AcDbVertex
100
AcDb2dVertex
 10
1227.677368
 20
1003.953369
 30
0.0
  0
VERTEX
  5
568
100
AcDbEntity
  8
トラップ
  6
CONTINUOUS
 62
     6
100
AcDbVertex
100
AcDb2dVertex
 10
1227.579102
 20
1003.548096
 30
0.0
  0
VERTEX
  5
569
100
AcDbEntity
  8
トラップ
  6
CONTINUOUS
 62
     6
100
AcDbVertex
100
AcDb2dVertex
 10
1227.508301
 20
1003.135498
 30
0.0
  0
VERTEX
  5
56A
100
AcDbEntity
  8
トラップ
  6
CONTINUOUS
 62
     6
100
AcDbVertex
100
AcDb2dVertex
 10
1227.465424
 20
1002.715576
 30
0.0
  0
VERTEX
  5
56B
100
AcDbEntity
  8
トラップ
  6
CONTINUOUS
 62
     6
100
AcDbVertex
100
AcDb2dVertex
 10
1227.451386
 20
1002.295654
 30
0.0
  0
VERTEX
  5
56C
100
AcDbEntity
  8
トラップ
  6
CONTINUOUS
 62
     6
100
AcDbVertex
100
AcDb2dVertex
 10
1227.465729
 20
1001.873291
 30
0.0
  0
VERTEX
  5
56D
100
AcDbEntity
  8
トラップ
  6
CONTINUOUS
 62
     6
100
AcDbVertex
100
AcDb2dVertex
 10
1227.508301
 20
1001.455811
 30
0.0
  0
VERTEX
  5
56E
100
AcDbEntity
  8
トラップ
  6
CONTINUOUS
 62
     6
100
AcDbVertex
100
AcDb2dVertex
 10
1227.579102
 20
1001.043213
 30
0.0
  0
VERTEX
  5
56F
100
AcDbEntity
  8
トラップ
  6
CONTINUOUS
 62
     6
100
AcDbVertex
100
AcDb2dVertex
 10
1227.677521
 20
1000.640381
 30
0.0
  0
VERTEX
  5
570
100
AcDbEntity
  8
トラップ
  6
CONTINUOUS
 62
     6
100
AcDbVertex
100
AcDb2dVertex
 10
1227.80249
 20
1000.249756
 30
0.0
  0
VERTEX
  5
571
100
AcDbEntity
  8
トラップ
  6
CONTINUOUS
 62
     6
100
AcDbVertex
100
AcDb2dVertex
 10
1227.953705
 20
999.876221
 30
0.0
  0
VERTEX
  5
572
100
AcDbEntity
  8
トラップ
  6
CONTINUOUS
 62
     6
100
AcDbVertex
100
AcDb2dVertex
 10
1228.129486
 20
999.519775
 30
0.0
  0
VERTEX
  5
573
100
AcDbEntity
  8
トラップ
  6
CONTINUOUS
 62
     6
100
AcDbVertex
100
AcDb2dVertex
 10
1228.328613
 20
999.185303
 30
0.0
  0
VERTEX
  5
574
100
AcDbEntity
  8
トラップ
  6
CONTINUOUS
 62
     6
100
AcDbVertex
100
AcDb2dVertex
 10
1228.549713
 20
998.872803
 30
0.0
  0
VERTEX
  5
575
100
AcDbEntity
  8
トラップ
  6
CONTINUOUS
 62
     6
100
AcDbVertex
100
AcDb2dVertex
 10
1228.790955
 20
998.587158
 30
0.0
  0
VERTEX
  5
576
100
AcDbEntity
  8
トラップ
  6
CONTINUOUS
 62
     6
100
AcDbVertex
100
AcDb2dVertex
 10
1229.050354
 20
998.330811
 30
0.0
  0
VERTEX
  5
577
100
AcDbEntity
  8
トラップ
  6
CONTINUOUS
 62
     6
100
AcDbVertex
100
AcDb2dVertex
 10
1229.326538
 20
998.10376
 30
0.0
  0
VERTEX
  5
578
100
AcDbEntity
  8
トラップ
  6
CONTINUOUS
 62
     6
100
AcDbVertex
100
AcDb2dVertex
 10
1229.61676
 20
997.908447
 30
0.0
  0
VERTEX
  5
579
100
AcDbEntity
  8
トラップ
  6
CONTINUOUS
 62
     6
100
AcDbVertex
100
AcDb2dVertex
 10
1229.919037
 20
997.747314
 30
0.0
  0
VERTEX
  5
57A
100
AcDbEntity
  8
トラップ
  6
CONTINUOUS
 62
     6
100
AcDbVertex
100
AcDb2dVertex
 10
1230.231079
 20
997.620361
 30
0.0
  0
VERTEX
  5
57B
100
AcDbEntity
  8
トラップ
  6
CONTINUOUS
 62
     6
100
AcDbVertex
100
AcDb2dVertex
 10
1230.550598
 20
997.530029
 30
0.0
  0
VERTEX
  5
57C
100
AcDbEntity
  8
トラップ
  6
CONTINUOUS
 62
     6
100
AcDbVertex
100
AcDb2dVertex
 10
1230.875
 20
997.473877
 30
0.0
  0
VERTEX
  5
57D
100
AcDbEntity
  8
トラップ
  6
CONTINUOUS
 62
     6
100
AcDbVertex
100
AcDb2dVertex
 10
1231.201843
 20
997.454346
 30
0.0
  0
VERTEX
  5
57E
100
AcDbEntity
  8
トラップ
  6
CONTINUOUS
 62
     6
100
AcDbVertex
100
AcDb2dVertex
 10
1231.528686
 20
997.473877
 30
0.0
  0
VERTEX
  5
57F
100
AcDbEntity
  8
トラップ
  6
CONTINUOUS
 62
     6
100
AcDbVertex
100
AcDb2dVertex
 10
1231.853241
 20
997.527588
 30
0.0
  0
VERTEX
  5
580
100
AcDbEntity
  8
トラップ
  6
CONTINUOUS
 62
     6
100
AcDbVertex
100
AcDb2dVertex
 10
1232.172455
 20
997.620361
 30
0.0
  0
VERTEX
  5
581
100
AcDbEntity
  8
トラップ
  6
CONTINUOUS
 62
     6
100
AcDbVertex
100
AcDb2dVertex
 10
1232.484497
 20
997.747314
 30
0.0
  0
VERTEX
  5
582
100
AcDbEntity
  8
トラップ
  6
CONTINUOUS
 62
     6
100
AcDbVertex
100
AcDb2dVertex
 10
1232.786926
 20
997.908447
 30
0.0
  0
SEQEND
  5
583
100
AcDbEntity
  8
トラップ
  6
CONTINUOUS
 62
     6
  0
POLYLINE
  5
584
100
AcDbEntity
  8
トラップ
  6
CONTINUOUS
 62
     6
100
AcDb2dPolyline
 66
     1
 10
0.0
 20
0.0
 30
0.0
 70
   128
  0
VERTEX
  5
585
100
AcDbEntity
  8
トラップ
  6
CONTINUOUS
 62
     6
100
AcDbVertex
100
AcDb2dVertex
 10
1232.786926
 20
997.908447
 30
0.0
  0
VERTEX
  5
586
100
AcDbEntity
  8
トラップ
  6
CONTINUOUS
 62
     6
100
AcDbVertex
100
AcDb2dVertex
 10
1233.077148
 20
998.10376
 30
0.0
  0
VERTEX
  5
587
100
AcDbEntity
  8
トラップ
  6
CONTINUOUS
 62
     6
100
AcDbVertex
100
AcDb2dVertex
 10
1233.35318
 20
998.330811
 30
0.0
  0
VERTEX
  5
588
100
AcDbEntity
  8
トラップ
  6
CONTINUOUS
 62
     6
100
AcDbVertex
100
AcDb2dVertex
 10
1233.612884
 20
998.5896
 30
0.0
  0
VERTEX
  5
589
100
AcDbEntity
  8
トラップ
  6
CONTINUOUS
 62
     6
100
AcDbVertex
100
AcDb2dVertex
 10
1233.853516
 20
998.872803
 30
0.0
  0
VERTEX
  5
58A
100
AcDbEntity
  8
トラップ
  6
CONTINUOUS
 62
     6
100
AcDbVertex
100
AcDb2dVertex
 10
1234.074463
 20
999.182861
 30
0.0
  0
VERTEX
  5
58B
100
AcDbEntity
  8
トラップ
  6
CONTINUOUS
 62
     6
100
AcDbVertex
100
AcDb2dVertex
 10
1234.273438
 20
999.519775
 30
0.0
  0
VERTEX
  5
58C
100
AcDbEntity
  8
トラップ
  6
CONTINUOUS
 62
     6
100
AcDbVertex
100
AcDb2dVertex
 10
1234.449524
 20
999.876221
 30
0.0
  0
VERTEX
  5
58D
100
AcDbEntity
  8
トラップ
  6
CONTINUOUS
 62
     6
100
AcDbVertex
100
AcDb2dVertex
 10
1234.600433
 20
1000.249756
 30
0.0
  0
VERTEX
  5
58E
100
AcDbEntity
  8
トラップ
  6
CONTINUOUS
 62
     6
100
AcDbVertex
100
AcDb2dVertex
 10
1234.725555
 20
1000.640381
 30
0.0
  0
VERTEX
  5
58F
100
AcDbEntity
  8
トラップ
  6
CONTINUOUS
 62
     6
100
AcDbVertex
100
AcDb2dVertex
 10
1234.82428
 20
1001.043213
 30
0.0
  0
SEQEND
  5
590
100
AcDbEntity
  8
トラップ
  6
CONTINUOUS
 62
     6
  0
POLYLINE
  5
591
100
AcDbEntity
  8
トラップ
  6
CONTINUOUS
 62
     6
100
AcDb2dPolyline
 66
     1
 10
0.0
 20
0.0
 30
0.0
 70
   128
  0
VERTEX
  5
592
100
AcDbEntity
  8
トラップ
  6
CONTINUOUS
 62
     6
100
AcDbVertex
100
AcDb2dVertex
 10
1234.82428
 20
1001.043213
 30
0.0
  0
VERTEX
  5
593
100
AcDbEntity
  8
トラップ
  6
CONTINUOUS
 62
     6
100
AcDbVertex
100
AcDb2dVertex
 10
1234.895081
 20
1001.455811
 30
0.0
  0
VERTEX
  5
594
100
AcDbEntity
  8
トラップ
  6
CONTINUOUS
 62
     6
100
AcDbVertex
100
AcDb2dVertex
 10
1234.937653
 20
1001.875732
 30
0.0
  0
VERTEX
  5
595
100
AcDbEntity
  8
トラップ
  6
CONTINUOUS
 62
     6
100
AcDbVertex
100
AcDb2dVertex
 10
1234.951691
 20
1002.298096
 30
0.0
  0
SEQEND
  5
596
100
AcDbEntity
  8
トラップ
  6
CONTINUOUS
 62
     6
  0
ARC
  5
597
100
AcDbEntity
  8
トラップ
  6
CONTINUOUS
 62
     6
100
AcDbCircle
 10
1215.613922
 20
885.296143
 30
0.0
 40
12.700043
100
AcDbArc
 50
180.000015
 51
0.0
  0
LINE
  5
598
100
AcDbEntity
  8
トラップ
  6
CONTINUOUS
 62
     6
100
AcDbLine
 10
1201.913818
 20
954.295166
 30
0.0
 11
1229.313721
 21
954.295166
 31
0.0
  0
LINE
  5
599
100
AcDbEntity
  8
トラップ
  6
CONTINUOUS
 62
     6
100
AcDbLine
 10
1201.913818
 20
954.202393
 30
0.0
 11
1201.913513
 21
996.795166
 31
0.0
  0
LINE
  5
59A
100
AcDbEntity
  8
トラップ
  6
CONTINUOUS
 62
     6
100
AcDbLine
 10
1202.913727
 20
950.471924
 30
0.0
 11
1201.913818
 21
954.202393
 31
0.0
  0
LINE
  5
59B
100
AcDbEntity
  8
トラップ
  6
CONTINUOUS
 62
     6
100
AcDbLine
 10
1202.913727
 20
950.471924
 30
0.0
 11
1202.914032
 21
885.296143
 31
0.0
  0
LINE
  5
59C
100
AcDbEntity
  8
トラップ
  6
CONTINUOUS
 62
     6
100
AcDbLine
 10
1228.313812
 20
950.471924
 30
0.0
 11
1228.314117
 21
885.296143
 31
0.0
  0
LINE
  5
59D
100
AcDbEntity
  8
トラップ
  6
CONTINUOUS
 62
     6
100
AcDbLine
 10
1228.313812
 20
950.471924
 30
0.0
 11
1229.313721
 21
954.204834
 31
0.0
  0
LINE
  5
59E
100
AcDbEntity
  8
トラップ
  6
CONTINUOUS
 62
     6
100
AcDbLine
 10
1229.313721
 20
954.204834
 30
0.0
 11
1229.313415
 21
996.795166
 31
0.0
  0
ARC
  5
59F
100
AcDbEntity
  8
トラップ
  6
CONTINUOUS
 62
     6
100
AcDbCircle
 10
1215.613617
 20
970.796631
 30
0.0
 40
29.999924
100
AcDbArc
 50
295.044739
 51
60.067902
  0
ARC
  5
5A0
100
AcDbEntity
  8
トラップ
  6
CONTINUOUS
 62
     6
100
AcDbCircle
 10
1215.613617
 20
970.796631
 30
0.0
 40
30.0
100
AcDbArc
 50
119.932098
 51
244.955627
  0
LINE
  5
5A1
100
AcDbEntity
  8
トラップ
  6
CONTINUOUS
 62
     6
100
AcDbLine
 10
1197.613739
 20
932.796143
 30
0.0
 11
1197.613739
 21
921.795166
 31
0.0
  0
LINE
  5
5A2
100
AcDbEntity
  8
トラップ
  6
CONTINUOUS
 62
     6
100
AcDbLine
 10
1233.6138
 20
932.796143
 30
0.0
 11
1233.6138
 21
921.795166
 31
0.0
  0
LINE
  5
5A3
100
AcDbEntity
  8
トラップ
  6
CONTINUOUS
 62
     6
100
AcDbLine
 10
1197.613739
 20
932.796143
 30
0.0
 11
1202.913879
 21
932.796143
 31
0.0
  0
LINE
  5
5A4
100
AcDbEntity
  8
トラップ
  6
CONTINUOUS
 62
     6
100
AcDbLine
 10
1228.313965
 20
932.796143
 30
0.0
 11
1233.6138
 21
932.796143
 31
0.0
  0
LINE
  5
5A5
100
AcDbEntity
  8
トラップ
  6
CONTINUOUS
 62
     6
100
AcDbLine
 10
1197.613739
 20
921.795166
 30
0.0
 11
1202.913879
 21
921.795166
 31
0.0
  0
LINE
  5
5A6
100
AcDbEntity
  8
トラップ
  6
CONTINUOUS
 62
     6
100
AcDbLine
 10
1228.313965
 20
921.795166
 30
0.0
 11
1233.6138
 21
921.795166
 31
0.0
  0
LINE
  5
5A7
100
AcDbEntity
  8
トラップ
  6
CONTINUOUS
 62
     6
100
AcDbLine
 10
1228.313965
 20
1007.796143
 30
0.0
 11
1228.313965
 21
1048.118103
 31
0.0
  0
LINE
  5
5A8
100
AcDbEntity
  8
トラップ
  6
CONTINUOUS
 62
     6
100
AcDbLine
 10
1202.913879
 20
1007.796143
 30
0.0
 11
1202.913879
 21
1048.118103
 31
0.0
  0
LINE
  5
5A9
100
AcDbEntity
  8
トラップ
  6
CONTINUOUS
 62
     6
100
AcDbLine
 10
1215.613617
 20
1020.796555
 30
0.0
 11
1215.613617
 21
986.796631
 31
0.0
  0
LINE
  5
5AA
100
AcDbEntity
  8
トラップ
  6
CONTINUOUS
 62
     6
100
AcDbLine
 10
1215.613617
 20
974.796631
 30
0.0
 11
1215.613617
 21
966.796631
 31
0.0
  0
LINE
  5
5AB
100
AcDbEntity
  8
トラップ
  6
CONTINUOUS
 62
     6
100
AcDbLine
 10
1215.613617
 20
954.796631
 30
0.0
 11
1215.613617
 21
825.0
 31
0.0
  0
TEXT
  5
5AC
100
AcDbEntity
  8
トラップ
  6
CONTINUOUS
 62
     2
100
AcDbText
 10
940.000016
 20
852.900063
 30
0.0
 40
40.0
  1
ＮＬ３１Ｐ
 41
0.8106
  7
EXCADSTD
 72
     5
 11
1133.000016
 21
852.900063
 31
0.0
100
AcDbText
  0
LINE
  5
5AD
100
AcDbEntity
  8
トラップ
  6
CONTINUOUS
 62
     6
100
AcDbLine
 10
939.524706
 20
849.400002
 30
0.0
 11
1130.000017
 21
849.400002
 31
0.0
  0
LEADER
  5
5AE
100
AcDbEntity
  8
トラップ
  6
CONTINUOUS
 62
     6
100
AcDbLeader
  3
STANDARD
 73
     3
 74
     1
 75
     0
 40
0.0
 76
     2
 10
1317.901371
 20
457.003083
 30
0.0
 10
1365.134017
 20
383.0
 30
0.0
 77
     6
1001
ACAD
1000
DSTYLE
1002
{
1070
    41
1040
35.0
1070
     5
1000
_EX_NORM
1070
     6
1000
_EX_NORM
1070
     7
1000
_EX_NORM
1070
   341
1005
2C
1002
}
  0
TEXT
  5
5AF
100
AcDbEntity
  8
トラップ
  6
CONTINUOUS
 62
     2
100
AcDbText
 10
921.486419
 20
579.500061
 30
0.0
 40
40.0
  1
ＮＬ２００Ｙ
 41
0.805
  7
EXCADSTD
 72
     5
 11
1151.486419
 21
579.500061
 31
0.0
100
AcDbText
  0
LINE
  5
5B0
100
AcDbEntity
  8
トラップ
  6
CONTINUOUS
 62
     6
100
AcDbLine
 10
922.0
 20
576.0
 30
0.0
 11
1144.48642
 21
576.0
 31
0.0
  0
LEADER
  5
5B1
100
AcDbEntity
  8
トラップ
  6
CONTINUOUS
 62
     6
100
AcDbLeader
  3
STANDARD
 73
     3
 74
     1
 75
     0
 40
0.0
 76
     2
 10
1297.113586
 20
656.0
 30
0.0
 10
1144.48642
 20
576.0
 30
0.0
 77
     6
1001
ACAD
1000
DSTYLE
1002
{
1070
    41
1040
35.0
1070
     5
1000
_EX_NORM
1070
     6
1000
_EX_NORM
1070
     7
1000
_EX_NORM
1070
   341
1005
2C
1002
}
  0
TEXT
  5
5B2
100
AcDbEntity
  8
トラップ
  6
CONTINUOUS
 62
     2
100
AcDbText
 10
922.636014
 20
670.758672
 30
0.0
 40
40.0
  1
ＮＬ３１Ｓ
 41
0.8106
  7
EXCADSTD
 72
     5
 11
1115.636013
 21
670.758672
 31
0.0
100
AcDbText
  0
LINE
  5
5B3
100
AcDbEntity
  8
トラップ
  6
CONTINUOUS
 62
     6
100
AcDbLine
 10
922.160703
 20
667.258611
 30
0.0
 11
1112.636014
 21
667.258611
 31
0.0
  0
LEADER
  5
5B4
100
AcDbEntity
  8
トラップ
  6
CONTINUOUS
 62
     6
100
AcDbLeader
  3
STANDARD
 73
     3
 74
     1
 75
     0
 40
0.0
 76
     2
 10
1167.913574
 20
723.0
 30
0.0
 10
1112.636014
 20
667.258611
 30
0.0
 77
     6
1001
ACAD
1000
DSTYLE
1002
{
1070
    41
1040
35.0
1070
     5
1000
_EX_NORM
1070
     6
1000
_EX_NORM
1070
     7
1000
_EX_NORM
1070
   341
1005
2C
1002
}
  0
ARC
  5
5B5
100
AcDbEntity
  8
トラップ
  6
CONTINUOUS
 62
     6
100
AcDbCircle
 10
1198.113679
 20
956.518615
 30
0.0
 40
4.800019
100
AcDbArc
 50
37.656777
 51
180.0
  0
LINE
  5
5B6
100
AcDbEntity
  8
トラップ
  6
EXLTYPE4
 62
     6
100
AcDbLine
 10
1193.31366
 20
476.796692
 30
0.0
 11
1193.31366
 21
956.518615
 31
0.0
  0
LINE
  5
5B7
100
AcDbEntity
  8
トラップ
  6
EXLTYPE4
 62
     6
100
AcDbLine
 10
1167.913574
 20
476.796692
 30
0.0
 11
1167.913574
 21
956.118528
 31
0.0
  0
LEADER
  5
5B8
100
AcDbEntity
  8
トラップ
  6
CONTINUOUS
 62
     6
100
AcDbLeader
  3
STANDARD
 73
     3
 74
     1
 75
     0
 40
0.0
 76
     2
 10
1193.31366
 20
448.296631
 30
0.0
 10
1235.499994
 20
382.2
 30
0.0
 77
     6
1001
ACAD
1000
DSTYLE
1002
{
1070
    41
1040
35.0
1070
     5
1000
_EX_NORM
1070
     6
1000
_EX_NORM
1070
     7
1000
_EX_NORM
1070
   341
1005
2C
1002
}
  0
LINE
  5
5B9
100
AcDbEntity
  8
トラップ
  6
EXLTYPE2
 62
     6
100
AcDbLine
 10
1150.613617
 20
460.796631
 30
0.0
 11
1150.613617
 21
462.796753
 31
0.0
  0
LINE
  5
5BA
100
AcDbEntity
  8
トラップ
  6
EXLTYPE2
 62
     6
100
AcDbLine
 10
1164.613556
 20
476.796692
 30
0.0
 11
1196.613678
 21
476.796692
 31
0.0
  0
ARC
  5
5BB
100
AcDbEntity
  8
トラップ
  6
EXLTYPE2
 62
     6
100
AcDbCircle
 10
1164.613556
 20
462.796753
 30
0.0
 40
13.999996
100
AcDbArc
 50
90.0
 51
180.0
  0
LINE
  5
5BC
100
AcDbEntity
  8
トラップ
  6
EXLTYPE2
 62
     6
100
AcDbLine
 10
1210.613617
 20
460.796631
 30
0.0
 11
1210.613617
 21
462.796753
 31
0.0
  0
ARC
  5
5BD
100
AcDbEntity
  8
トラップ
  6
EXLTYPE2
 62
     6
100
AcDbCircle
 10
1196.613678
 20
462.796753
 30
0.0
 40
13.999996
100
AcDbArc
 50
0.0
 51
90.0
  0
LINE
  5
5BE
100
AcDbEntity
  8
トラップ
  6
EXLTYPE2
 62
     6
100
AcDbLine
 10
1193.31366
 20
435.796631
 30
0.0
 11
1193.31366
 21
460.796631
 31
0.0
  0
LINE
  5
5BF
100
AcDbEntity
  8
トラップ
  6
EXLTYPE2
 62
     6
100
AcDbLine
 10
1167.913574
 20
435.796631
 30
0.0
 11
1193.31366
 21
435.796631
 31
0.0
  0
LINE
  5
5C0
100
AcDbEntity
  8
トラップ
  6
EXLTYPE2
 62
     6
100
AcDbLine
 10
1167.913574
 20
435.796631
 30
0.0
 11
1167.913574
 21
460.796631
 31
0.0
  0
TEXT
  5
5C1
100
AcDbEntity
  8
トラップ
  6
CONTINUOUS
 62
     2
100
AcDbText
 10
1235.499994
 20
385.700061
 30
0.0
 40
40.0
  1
２５
 41
0.861
  7
EXCADSTD
 72
     5
 11
1310.661194
 21
385.700061
 31
0.0
100
AcDbText
  0
LINE
  5
5C2
100
AcDbEntity
  8
トラップ
  6
CONTINUOUS
 62
     6
100
AcDbLine
 10
1235.499994
 20
382.2
 30
0.0
 11
1308.699304
 21
382.2
 31
0.0
  0
TEXT
  5
5C3
100
AcDbEntity
  8
寸法
  6
CONTINUOUS
 62
     2
100
AcDbText
 10
877.600372
 20
1036.296555
 30
0.0
 40
40.0
  1
２５０
 50
90.0
 41
0.833
  7
EXCADSTD
 72
     5
 11
877.600372
 21
1155.296554
 31
0.0
100
AcDbText
  0
LINE
  5
5C4
100
AcDbEntity
  8
寸法
  6
CONTINUOUS
 62
     3
100
AcDbLine
 10
881.100372
 20
1220.796478
 30
0.0
 11
881.100372
 21
970.796631
 31
0.0
  0
LINE
  5
5C5
100
AcDbEntity
  8
寸法
  6
CONTINUOUS
 62
     3
100
AcDbLine
 10
886.933706
 20
1185.796478
 30
0.0
 11
881.100372
 21
1220.796478
 31
0.0
  0
LINE
  5
5C6
100
AcDbEntity
  8
寸法
  6
CONTINUOUS
 62
     3
100
AcDbLine
 10
881.100372
 20
1220.796478
 30
0.0
 11
875.267039
 21
1185.796478
 31
0.0
  0
LINE
  5
5C7
100
AcDbEntity
  8
寸法
  6
CONTINUOUS
 62
     3
100
AcDbLine
 10
875.267039
 20
1005.796631
 30
0.0
 11
881.100372
 21
970.796631
 31
0.0
  0
LINE
  5
5C8
100
AcDbEntity
  8
寸法
  6
CONTINUOUS
 62
     3
100
AcDbLine
 10
881.100372
 20
970.796631
 30
0.0
 11
886.933706
 21
1005.796631
 31
0.0
  0
TEXT
  5
5C9
100
AcDbEntity
  8
寸法
  6
CONTINUOUS
 62
     2
100
AcDbText
 10
877.600372
 20
656.296631
 30
0.0
 40
40.0
  1
５１０
 50
90.0
 41
0.833
  7
EXCADSTD
 72
     5
 11
877.600372
 21
775.296631
 31
0.0
100
AcDbText
  0
LINE
  5
5CA
100
AcDbEntity
  8
寸法
  6
CONTINUOUS
 62
     3
100
AcDbLine
 10
881.100372
 20
970.796631
 30
0.0
 11
881.100372
 21
460.796631
 31
0.0
  0
LINE
  5
5CB
100
AcDbEntity
  8
寸法
  6
CONTINUOUS
 62
     3
100
AcDbLine
 10
886.933706
 20
935.796631
 30
0.0
 11
881.100372
 21
970.796631
 31
0.0
  0
LINE
  5
5CC
100
AcDbEntity
  8
寸法
  6
CONTINUOUS
 62
     3
100
AcDbLine
 10
881.100372
 20
970.796631
 30
0.0
 11
875.267039
 21
935.796631
 31
0.0
  0
LINE
  5
5CD
100
AcDbEntity
  8
寸法
  6
CONTINUOUS
 62
     3
100
AcDbLine
 10
875.267039
 20
495.796631
 30
0.0
 11
881.100372
 21
460.796631
 31
0.0
  0
LINE
  5
5CE
100
AcDbEntity
  8
寸法
  6
CONTINUOUS
 62
     3
100
AcDbLine
 10
881.100372
 20
460.796631
 30
0.0
 11
886.933706
 21
495.796631
 31
0.0
  0
POLYLINE
  5
5CF
100
AcDbEntity
  8
寸法
  6
CONTINUOUS
 62
     3
100
AcDb2dPolyline
 66
     1
 10
0.0
 20
0.0
 30
0.0
 70
   128
  0
VERTEX
  5
5D0
100
AcDbEntity
  8
寸法
  6
CONTINUOUS
 62
     3
100
AcDbVertex
100
AcDb2dVertex
 10
1273.806213
 20
915.941315
 30
0.0
  0
VERTEX
  5
5D1
100
AcDbEntity
  8
寸法
  6
CONTINUOUS
 62
     3
100
AcDbVertex
100
AcDb2dVertex
 10
1307.613586
 20
925.0
 30
0.0
  0
VERTEX
  5
5D2
100
AcDbEntity
  8
寸法
  6
CONTINUOUS
 62
     3
100
AcDbVertex
100
AcDb2dVertex
 10
1273.806213
 20
934.058685
 30
0.0
  0
SEQEND
  5
5D3
100
AcDbEntity
  8
寸法
  6
CONTINUOUS
 62
     3
  0
POLYLINE
  5
5D4
100
AcDbEntity
  8
寸法
  6
CONTINUOUS
 62
     3
100
AcDb2dPolyline
 66
     1
 10
0.0
 20
0.0
 30
0.0
 70
   128
  0
VERTEX
  5
5D5
100
AcDbEntity
  8
寸法
  6
CONTINUOUS
 62
     3
100
AcDbVertex
100
AcDb2dVertex
 10
1414.42099
 20
934.058685
 30
0.0
  0
VERTEX
  5
5D6
100
AcDbEntity
  8
寸法
  6
CONTINUOUS
 62
     3
100
AcDbVertex
100
AcDb2dVertex
 10
1380.613617
 20
925.0
 30
0.0
  0
VERTEX
  5
5D7
100
AcDbEntity
  8
寸法
  6
CONTINUOUS
 62
     3
100
AcDbVertex
100
AcDb2dVertex
 10
1414.42099
 20
915.941315
 30
0.0
  0
SEQEND
  5
5D8
100
AcDbEntity
  8
寸法
  6
CONTINUOUS
 62
     3
  0
LINE
  5
5D9
100
AcDbEntity
  8
寸法
  6
CONTINUOUS
 62
     3
100
AcDbLine
 10
1262.613586
 20
925.0
 30
0.0
 11
1425.613617
 21
925.0
 31
0.0
  0
POLYLINE
  5
5DA
100
AcDbEntity
  8
寸法
  6
CONTINUOUS
 62
     3
100
AcDb2dPolyline
 66
     1
 10
0.0
 20
0.0
 30
0.0
 70
   128
  0
VERTEX
  5
5DB
100
AcDbEntity
  8
寸法
  6
CONTINUOUS
 62
     3
100
AcDbVertex
100
AcDb2dVertex
 10
1438.35669
 20
494.604004
 30
0.0
  0
VERTEX
  5
5DC
100
AcDbEntity
  8
寸法
  6
CONTINUOUS
 62
     3
100
AcDbVertex
100
AcDb2dVertex
 10
1447.415375
 20
460.796631
 30
0.0
  0
VERTEX
  5
5DD
100
AcDbEntity
  8
寸法
  6
CONTINUOUS
 62
     3
100
AcDbVertex
100
AcDb2dVertex
 10
1456.47406
 20
494.604004
 30
0.0
  0
SEQEND
  5
5DE
100
AcDbEntity
  8
寸法
  6
CONTINUOUS
 62
     3
  0
POLYLINE
  5
5DF
100
AcDbEntity
  8
寸法
  6
CONTINUOUS
 62
     3
100
AcDb2dPolyline
 66
     1
 10
0.0
 20
0.0
 30
0.0
 70
   128
  0
VERTEX
  5
5E0
100
AcDbEntity
  8
寸法
  6
CONTINUOUS
 62
     3
100
AcDbVertex
100
AcDb2dVertex
 10
1456.47406
 20
976.989258
 30
0.0
  0
VERTEX
  5
5E1
100
AcDbEntity
  8
寸法
  6
CONTINUOUS
 62
     3
100
AcDbVertex
100
AcDb2dVertex
 10
1447.415375
 20
1010.796631
 30
0.0
  0
VERTEX
  5
5E2
100
AcDbEntity
  8
寸法
  6
CONTINUOUS
 62
     3
100
AcDbVertex
100
AcDb2dVertex
 10
1438.35669
 20
976.989258
 30
0.0
  0
SEQEND
  5
5E3
100
AcDbEntity
  8
寸法
  6
CONTINUOUS
 62
     3
  0
LINE
  5
5E4
100
AcDbEntity
  8
寸法
  6
CONTINUOUS
 62
     3
100
AcDbLine
 10
1447.415375
 20
460.796631
 30
0.0
 11
1447.415375
 21
1010.796631
 31
0.0
  0
LINE
  5
5E5
100
AcDbEntity
  8
寸法
  6
CONTINUOUS
 62
     3
100
AcDbLine
 10
1467.415375
 20
460.796631
 30
0.0
 11
1385.613617
 21
460.796631
 31
0.0
  0
POLYLINE
  5
5E6
100
AcDbEntity
  8
寸法
  6
CONTINUOUS
 62
     3
100
AcDb2dPolyline
 66
     1
 10
0.0
 20
0.0
 30
0.0
 70
   128
  0
VERTEX
  5
5E7
100
AcDbEntity
  8
寸法
  6
CONTINUOUS
 62
     3
100
AcDbVertex
100
AcDb2dVertex
 10
812.041687
 20
494.604004
 30
0.0
  0
VERTEX
  5
5E8
100
AcDbEntity
  8
寸法
  6
CONTINUOUS
 62
     3
100
AcDbVertex
100
AcDb2dVertex
 10
821.100372
 20
460.796631
 30
0.0
  0
VERTEX
  5
5E9
100
AcDbEntity
  8
寸法
  6
CONTINUOUS
 62
     3
100
AcDbVertex
100
AcDb2dVertex
 10
830.159058
 20
494.604004
 30
0.0
  0
SEQEND
  5
5EA
100
AcDbEntity
  8
寸法
  6
CONTINUOUS
 62
     3
  0
POLYLINE
  5
5EB
100
AcDbEntity
  8
寸法
  6
CONTINUOUS
 62
     3
100
AcDb2dPolyline
 66
     1
 10
0.0
 20
0.0
 30
0.0
 70
   128
  0
VERTEX
  5
5EC
100
AcDbEntity
  8
寸法
  6
CONTINUOUS
 62
     3
100
AcDbVertex
100
AcDb2dVertex
 10
830.159058
 20
1186.989105
 30
0.0
  0
VERTEX
  5
5ED
100
AcDbEntity
  8
寸法
  6
CONTINUOUS
 62
     3
100
AcDbVertex
100
AcDb2dVertex
 10
821.100372
 20
1220.796478
 30
0.0
  0
VERTEX
  5
5EE
100
AcDbEntity
  8
寸法
  6
CONTINUOUS
 62
     3
100
AcDbVertex
100
AcDb2dVertex
 10
812.041687
 20
1186.989105
 30
0.0
  0
SEQEND
  5
5EF
100
AcDbEntity
  8
寸法
  6
CONTINUOUS
 62
     3
  0
LINE
  5
5F0
100
AcDbEntity
  8
寸法
  6
CONTINUOUS
 62
     3
100
AcDbLine
 10
821.100372
 20
460.796631
 30
0.0
 11
821.100372
 21
1220.796478
 31
0.0
  0
LINE
  5
5F1
100
AcDbEntity
  8
寸法
  6
CONTINUOUS
 62
     3
100
AcDbLine
 10
1266.316589
 20
1010.796631
 30
0.0
 11
1467.415375
 21
1010.796631
 31
0.0
  0
TEXT
  5
5F2
100
AcDbEntity
  8
寸法
  6
CONTINUOUS
 62
     2
100
AcDbText
 10
1443.915466
 20
677.7966
 30
0.0
 40
40.0
  1
５５０
 50
90.0
 41
0.833
  7
EXCADSTD
 72
     5
 11
1443.915466
 21
796.7966
 31
0.0
100
AcDbText
  0
TEXT
  5
5F3
100
AcDbEntity
  8
寸法
  6
CONTINUOUS
 62
     2
100
AcDbText
 10
1306.113495
 20
928.500061
 30
0.0
 40
40.0
  1
７３
 41
0.861
  7
EXCADSTD
 72
     5
 11
1381.274695
 21
928.500061
 31
0.0
100
AcDbText
  0
TEXT
  5
5F4
100
AcDbEntity
  8
寸法
  6
CONTINUOUS
 62
     2
100
AcDbText
 10
817.600311
 20
782.7966
 30
0.0
 40
40.0
  1
７６０
 50
90.0
 41
0.833
  7
EXCADSTD
 72
     5
 11
817.600311
 21
901.7966
 31
0.0
100
AcDbText
  0
LINE
  5
5F5
100
AcDbEntity
  8
寸法
  6
CONTINUOUS
 62
     6
100
AcDbLine
 10
861.100372
 20
970.796631
 30
0.0
 11
1199.613617
 21
970.796631
 31
0.0
  0
LINE
  5
5F6
100
AcDbEntity
  8
寸法
  6
CONTINUOUS
 62
     6
100
AcDbLine
 10
1211.613617
 20
970.796631
 30
0.0
 11
1219.613617
 21
970.796631
 31
0.0
  0
LINE
  5
5F7
100
AcDbEntity
  8
寸法
  6
CONTINUOUS
 62
     6
100
AcDbLine
 10
1231.613617
 20
970.796631
 30
0.0
 11
1265.613541
 21
970.796631
 31
0.0
  0
ARC
  5
5F8
100
AcDbEntity
  8
寸法
  6
EXLTYPE4
 62
     6
100
AcDbCircle
 10
1198.11368
 20
956.118528
 30
0.0
 40
30.200106
100
AcDbArc
 50
82.771634
 51
180.0
  0
LINE
  5
5F9
100
AcDbEntity
  8
器具明細表
  6
CONTINUOUS
 62
     6
100
AcDbLine
 10
739.0
 20
2493.936035
 30
0.0
 11
1439.0
 21
2493.936035
 31
0.0
  0
LINE
  5
5FA
100
AcDbEntity
  8
器具明細表
  6
CONTINUOUS
 62
     6
100
AcDbLine
 10
739.0
 20
2623.936035
 30
0.0
 11
1439.0
 21
2623.936035
 31
0.0
  0
LINE
  5
5FB
100
AcDbEntity
  8
器具明細表
  6
CONTINUOUS
 62
     6
100
AcDbLine
 10
739.0
 20
2688.936035
 30
0.0
 11
1439.0
 21
2688.936035
 31
0.0
  0
LINE
  5
5FC
100
AcDbEntity
  8
器具明細表
  6
CONTINUOUS
 62
     6
100
AcDbLine
 10
739.0
 20
2753.936035
 30
0.0
 11
1439.0
 21
2753.936035
 31
0.0
  0
LINE
  5
5FD
100
AcDbEntity
  8
器具明細表
  6
CONTINUOUS
 62
     6
100
AcDbLine
 10
739.0
 20
2818.936035
 30
0.0
 11
1439.0
 21
2818.936035
 31
0.0
  0
TEXT
  5
5FE
100
AcDbEntity
  8
器具明細表
  6
CONTINUOUS
 62
     2
100
AcDbText
 10
756.400207
 20
2826.370117
 30
0.0
 40
60.0
  1
器具明細
 41
1.54
  7
EXCADSTD
 72
     5
 11
1196.400207
 21
2826.370117
 31
0.0
100
AcDbText
  0
TEXT
  5
5FF
100
AcDbEntity
  8
器具明細表
  6
CONTINUOUS
 62
     2
100
AcDbText
 10
796.000001
 20
2758.936035
 30
0.0
 40
55.0
  1
品　　番
 41
0.830455
  7
EXCADSTD
 72
     5
 11
1013.500001
 21
2758.936035
 31
0.0
100
AcDbText
  0
TEXT
  5
600
100
AcDbEntity
  8
器具明細表
  6
CONTINUOUS
 62
     2
100
AcDbText
 10
1350.0
 20
2758.936035
 30
0.0
 40
55.0
  1
個数
 41
0.664364
  7
EXCADSTD
 72
     5
 11
1429.7442
 21
2758.936035
 31
0.0
100
AcDbText
  0
TEXT
  5
601
100
AcDbEntity
  8
器具明細表
  6
CONTINUOUS
 62
     2
100
AcDbText
 10
1372.5
 20
2697.436034
 30
0.0
 40
48.0
  1
１
 41
0.88795
  7
EXCADSTD
 72
     5
 11
1413.091999
 21
2697.436034
 31
0.0
100
AcDbText
  0
TEXT
  5
602
100
AcDbEntity
  8
器具明細表
  6
CONTINUOUS
 62
     2
100
AcDbText
 10
1372.5
 20
2632.436034
 30
0.0
 40
48.0
  1
１
 41
0.88795
  7
EXCADSTD
 72
     5
 11
1413.091999
 21
2632.436034
 31
0.0
100
AcDbText
  0
TEXT
  5
603
100
AcDbEntity
  8
器具明細表
  6
CONTINUOUS
 62
     2
100
AcDbText
 10
1372.5
 20
2567.436034
 30
0.0
 40
48.0
  1
１
 41
0.88795
  7
EXCADSTD
 72
     5
 11
1413.091999
 21
2567.436034
 31
0.0
100
AcDbText
  0
TEXT
  5
604
100
AcDbEntity
  8
器具明細表
  6
CONTINUOUS
 62
     2
100
AcDbText
 10
1372.5
 20
2502.436034
 30
0.0
 40
48.0
  1
１
 41
0.88795
  7
EXCADSTD
 72
     5
 11
1413.091999
 21
2502.436034
 31
0.0
100
AcDbText
  0
TEXT
  5
605
100
AcDbEntity
  8
器具明細表
  6
CONTINUOUS
 62
     2
100
AcDbText
 10
1119.0
 20
2758.936035
 30
0.0
 40
55.0
  1
品　　名
 41
0.687273
  7
EXCADSTD
 72
     5
 11
1299.0
 21
2758.936035
 31
0.0
100
AcDbText
  0
TEXT
  5
606
100
AcDbEntity
  8
器具明細表
  6
CONTINUOUS
 62
     2
100
AcDbText
 10
745.342163
 20
2696.436035
 30
0.0
 40
50.0
  1
Ｌ８１０
 41
0.6552
  7
EXCADSTD
 72
     5
 11
901.342163
 21
2696.436035
 31
0.0
100
AcDbText
  0
TEXT
  5
607
100
AcDbEntity
  8
器具明細表
  6
CONTINUOUS
 62
     2
100
AcDbText
 10
745.342163
 20
2501.436035
 30
0.0
 40
50.0
  1
ＮＬ３１Ｐ
 41
0.64848
  7
EXCADSTD
 72
     5
 11
938.342163
 21
2501.436035
 31
0.0
100
AcDbText
  0
TEXT
  5
608
100
AcDbEntity
  8
器具明細表
  6
CONTINUOUS
 62
     2
100
AcDbText
 10
1076.90329
 20
2693.936035
 30
0.0
 40
50.0
  1
手洗器
 41
0.6664
  7
EXCADSTD
 72
     5
 11
1195.90329
 21
2693.936035
 31
0.0
100
AcDbText
  0
TEXT
  5
609
100
AcDbEntity
  8
器具明細表
  6
CONTINUOUS
 62
     2
100
AcDbText
 10
1076.90329
 20
2628.936035
 30
0.0
 40
50.0
  1
立水栓
 41
0.6664
  7
EXCADSTD
 72
     5
 11
1195.90329
 21
2628.936035
 31
0.0
100
AcDbText
  0
INSERT
  5
60A
100
AcDbEntity
  8
器具明細表
  6
CONTINUOUS
 62
     0
100
AcDbBlockReference
  2
NC510LSK
 10
1318.537353
 20
2654.023926
 30
0.0
 41
10.0
 42
10.0
  0
LINE
  5
60B
100
AcDbEntity
  8
器具明細表
  6
CONTINUOUS
 62
     6
100
AcDbLine
 10
739.0
 20
2558.936035
 30
0.0
 11
1439.0
 21
2558.936035
 31
0.0
  0
TEXT
  5
60C
100
AcDbEntity
  8
器具明細表
  6
CONTINUOUS
 62
     2
100
AcDbText
 10
1076.90329
 20
2498.936035
 30
0.0
 40
50.0
  1
Ｐトラップ
 41
0.64848
  7
EXCADSTD
 72
     5
 11
1269.903289
 21
2498.936035
 31
0.0
100
AcDbText
  0
TEXT
  5
60D
100
AcDbEntity
  8
器具明細表
  6
CONTINUOUS
 62
     2
100
AcDbText
 10
1076.90329
 20
2433.936035
 30
0.0
 40
50.0
  1
化粧頭付木ねじ
 41
0.6408
  7
EXCADSTD
 72
     5
 11
1343.903289
 21
2433.936035
 31
0.0
100
AcDbText
  0
TEXT
  5
60E
100
AcDbEntity
  8
器具明細表
  6
CONTINUOUS
 62
     2
100
AcDbText
 10
1076.90329
 20
2563.936035
 30
0.0
 40
45.0
  1
アングル形止水栓（共用形）
 41
0.406359
  7
EXCADSTD
 72
     5
 11
1359.903277
 21
2563.936035
 31
0.0
100
AcDbText
  0
TEXT
  5
60F
100
AcDbEntity
  8
器具明細表
  6
CONTINUOUS
 62
     2
100
AcDbText
 10
745.342163
 20
2566.436035
 30
0.0
 40
50.0
  1
ＮＬ２Ｙ
 41
0.6552
  7
EXCADSTD
 72
     5
 11
901.342163
 21
2566.436035
 31
0.0
100
AcDbText
  0
TEXT
  5
610
100
AcDbEntity
  8
器具明細表
  6
CONTINUOUS
 62
     2
100
AcDbText
 10
745.342163
 20
2631.436035
 30
0.0
 40
50.0
  1
ＮＬ１
 41
0.6664
  7
EXCADSTD
 72
     5
 11
864.342163
 21
2631.436035
 31
0.0
100
AcDbText
  0
TEXT
  5
611
100
AcDbEntity
  8
器具明細表
  6
CONTINUOUS
 62
     2
100
AcDbText
 10
745.342163
 20
2436.436035
 30
0.0
 40
50.0
  1
ＮＴ７Ａ（４）
 41
0.6408
  7
EXCADSTD
 72
     5
 11
1012.342162
 21
2436.436035
 31
0.0
100
AcDbText
  0
TEXT
  5
612
100
AcDbEntity
  8
器具明細表
  6
CONTINUOUS
 62
     2
100
AcDbText
 10
1372.5
 20
2437.436034
 30
0.0
 40
48.0
  1
１
 41
0.88795
  7
EXCADSTD
 72
     5
 11
1413.091999
 21
2437.436034
 31
0.0
100
AcDbText
  0
LINE
  5
613
100
AcDbEntity
  8
器具明細表
  6
CONTINUOUS
 62
     6
100
AcDbLine
 10
739.0
 20
2428.936035
 30
0.0
 11
1439.0
 21
2428.936035
 31
0.0
  0
LINE
  5
614
100
AcDbEntity
  8
器具明細表
  6
CONTINUOUS
 62
     6
100
AcDbLine
 10
739.0
 20
2428.936035
 30
0.0
 11
739.0
 21
2818.936035
 31
0.0
  0
LINE
  5
615
100
AcDbEntity
  8
器具明細表
  6
CONTINUOUS
 62
     6
100
AcDbLine
 10
1069.0
 20
2428.936035
 30
0.0
 11
1069.0
 21
2818.936035
 31
0.0
  0
LINE
  5
616
100
AcDbEntity
  8
器具明細表
  6
CONTINUOUS
 62
     6
100
AcDbLine
 10
1349.0
 20
2428.936035
 30
0.0
 11
1349.0
 21
2818.936035
 31
0.0
  0
LINE
  5
617
100
AcDbEntity
  8
器具明細表
  6
CONTINUOUS
 62
     6
100
AcDbLine
 10
1439.0
 20
2428.936035
 30
0.0
 11
1439.0
 21
2818.936035
 31
0.0
  0
TEXT
  5
618
100
AcDbEntity
  8
器具明細表
  6
CONTINUOUS
 62
     2
100
AcDbText
 10
741.983856
 20
2371.416199
 30
0.0
 40
50.0
  1
Ｓトラップの場合
 41
0.693
  7
EXCADSTD
 72
     5
 11
1071.983856
 21
2371.416199
 31
0.0
100
AcDbText
  0
LINE
  5
619
100
AcDbEntity
  8
器具明細表
  6
CONTINUOUS
 62
     6
100
AcDbLine
 10
739.0
 20
2298.93634
 30
0.0
 11
1439.0
 21
2298.93634
 31
0.0
  0
LINE
  5
61A
100
AcDbEntity
  8
器具明細表
  6
CONTINUOUS
 62
     6
100
AcDbLine
 10
739.0
 20
2363.936035
 30
0.0
 11
1439.0
 21
2363.936035
 31
0.0
  0
TEXT
  5
61B
100
AcDbEntity
  8
器具明細表
  6
CONTINUOUS
 62
     2
100
AcDbText
 10
1374.0
 20
2306.402161
 30
0.0
 40
47.5
  1
１
 41
0.834695
  7
EXCADSTD
 72
     5
 11
1411.759998
 21
2306.402161
 31
0.0
100
AcDbText
  0
LINE
  5
61C
100
AcDbEntity
  8
器具明細表
  6
CONTINUOUS
 62
     6
100
AcDbLine
 10
739.0
 20
2363.936035
 30
0.0
 11
739.0
 21
2298.93634
 31
0.0
  0
LINE
  5
61D
100
AcDbEntity
  8
器具明細表
  6
CONTINUOUS
 62
     6
100
AcDbLine
 10
1069.0
 20
2363.936035
 30
0.0
 11
1069.0
 21
2298.93634
 31
0.0
  0
LINE
  5
61E
100
AcDbEntity
  8
器具明細表
  6
CONTINUOUS
 62
     6
100
AcDbLine
 10
1349.0
 20
2363.936035
 30
0.0
 11
1349.0
 21
2298.93634
 31
0.0
  0
LINE
  5
61F
100
AcDbEntity
  8
器具明細表
  6
CONTINUOUS
 62
     6
100
AcDbLine
 10
1439.0
 20
2363.936035
 30
0.0
 11
1439.0
 21
2298.93634
 31
0.0
  0
TEXT
  5
620
100
AcDbEntity
  8
器具明細表
  6
CONTINUOUS
 62
     2
100
AcDbText
 10
1072.918457
 20
2304.714844
 30
0.0
 40
50.0
  1
Ｓトラップ
 41
0.64848
  7
EXCADSTD
 72
     5
 11
1265.918457
 21
2304.714844
 31
0.0
100
AcDbText
  0
TEXT
  5
621
100
AcDbEntity
  8
器具明細表
  6
CONTINUOUS
 62
     2
100
AcDbText
 10
741.983856
 20
2306.415588
 30
0.0
 40
50.0
  1
ＮＬ３１Ｓ
 41
0.7056
  7
EXCADSTD
 72
     5
 11
951.983856
 21
2306.415588
 31
0.0
100
AcDbText
  0
TEXT
  5
622
100
AcDbEntity
  8
器具明細表
  6
CONTINUOUS
 62
     2
100
AcDbText
 10
741.983856
 20
2241.416199
 30
0.0
 40
50.0
  1
ストレート止水栓の場合
 41
0.687273
  7
EXCADSTD
 72
     5
 11
1191.983856
 21
2241.416199
 31
0.0
100
AcDbText
  0
LINE
  5
623
100
AcDbEntity
  8
器具明細表
  6
CONTINUOUS
 62
     6
100
AcDbLine
 10
739.0
 20
2168.93634
 30
0.0
 11
739.0
 21
2233.93634
 31
0.0
  0
TEXT
  5
624
100
AcDbEntity
  8
器具明細表
  6
CONTINUOUS
 62
     2
100
AcDbText
 10
745.342163
 20
2176.43634
 30
0.0
 40
50.0
  1
ＮＬ２００Ｙ
 41
0.644
  7
EXCADSTD
 72
     5
 11
975.342163
 21
2176.43634
 31
0.0
100
AcDbText
  0
LINE
  5
625
100
AcDbEntity
  8
器具明細表
  6
CONTINUOUS
 62
     6
100
AcDbLine
 10
739.0
 20
2168.93634
 30
0.0
 11
1439.0
 21
2168.93634
 31
0.0
  0
LINE
  5
626
100
AcDbEntity
  8
器具明細表
  6
CONTINUOUS
 62
     6
100
AcDbLine
 10
739.0
 20
2233.93634
 30
0.0
 11
1439.0
 21
2233.93634
 31
0.0
  0
TEXT
  5
627
100
AcDbEntity
  8
器具明細表
  6
CONTINUOUS
 62
     2
100
AcDbText
 10
1076.90329
 20
2173.93634
 30
0.0
 40
45.0
  1
ストレート形止水栓（共用形）
 41
0.368
  7
EXCADSTD
 72
     5
 11
1352.903303
 21
2173.93634
 31
0.0
100
AcDbText
  0
TEXT
  5
628
100
AcDbEntity
  8
器具明細表
  6
CONTINUOUS
 62
     2
100
AcDbText
 10
1372.5
 20
2177.436339
 30
0.0
 40
48.0
  1
１
 41
0.88795
  7
EXCADSTD
 72
     5
 11
1413.091999
 21
2177.436339
 31
0.0
100
AcDbText
  0
LINE
  5
629
100
AcDbEntity
  8
器具明細表
  6
CONTINUOUS
 62
     6
100
AcDbLine
 10
1349.0
 20
2168.93634
 30
0.0
 11
1349.0
 21
2233.93634
 31
0.0
  0
LINE
  5
62A
100
AcDbEntity
  8
器具明細表
  6
CONTINUOUS
 62
     6
100
AcDbLine
 10
1439.0
 20
2168.93634
 30
0.0
 11
1439.0
 21
2233.93634
 31
0.0
  0
LINE
  5
62B
100
AcDbEntity
  8
器具明細表
  6
CONTINUOUS
 62
     6
100
AcDbLine
 10
1069.0
 20
2168.93634
 30
0.0
 11
1069.0
 21
2233.93634
 31
0.0
  0
ENDSEC
  0
SECTION
  2
OBJECTS
  0
DICTIONARY
  5
19
100
AcDbDictionary
  3
ACAD_GROUP
350
1A
  3
ACAD_MLINESTYLE
350
1B
  0
DICTIONARY
  5
1A
102
{ACAD_REACTORS
330
19
102
}
100
AcDbDictionary
  0
DICTIONARY
  5
1B
102
{ACAD_REACTORS
330
19
102
}
100
AcDbDictionary
  3
STANDARD
350
1C
  0
MLINESTYLE
  5
1C
102
{ACAD_REACTORS
330
1B
102
}
100
AcDbMlineStyle
  2
Standard
 70
     0
  3

 62
     0
 51
90.0
 52
90.0
 71
     2
 49
0.5
 62
   256
  6
ByLayer
 49
-0.5
 62
   256
  6
ByLayer
  0
ENDSEC
  0
EOF
