  0
SECTION
  2
HEADER
  9
$ACADVER
  1
AC1014
  9
$ACADMAINTVER
 70
     9
  9
$DWGCODEPAGE
  3
ANSI_932
  9
$INSBASE
 10
0.0
 20
0.0
 30
0.0
  9
$EXTMIN
 10
0.7000000000000084
 20
8.5
 30
0.0
  9
$EXTMAX
 10
200.0
 20
288.5
 30
0.0
  9
$LIMMIN
 10
0.0
 20
0.0
  9
$LIMMAX
 10
210.0
 20
297.0
  9
$ORTHOMODE
 70
     0
  9
$REGENMODE
 70
     1
  9
$FILLMODE
 70
     1
  9
$QTEXTMODE
 70
     0
  9
$MIRRTEXT
 70
     1
  9
$DRAGMODE
 70
     2
  9
$LTSCALE
 40
1.0
  9
$OSMODE
 70
    37
  9
$ATTMODE
 70
     1
  9
$TEXTSIZE
 40
2.5
  9
$TRACEWID
 40
1.0
  9
$TEXTSTYLE
  7
STANDARD
  9
$CLAYER
  8
1
  9
$CELTYPE
  6
BYLAYER
  9
$CECOLOR
 62
   256
  9
$CELTSCALE
 40
1.0
  9
$DELOBJ
 70
     1
  9
$DISPSILH
 70
     0
  9
$DIMSCALE
 40
1.0
  9
$DIMASZ
 40
2.5
  9
$DIMEXO
 40
0.625
  9
$DIMDLI
 40
3.75
  9
$DIMRND
 40
0.0
  9
$DIMDLE
 40
0.0
  9
$DIMEXE
 40
1.25
  9
$DIMTP
 40
0.0
  9
$DIMTM
 40
0.0
  9
$DIMTXT
 40
2.5
  9
$DIMCEN
 40
2.5
  9
$DIMTSZ
 40
0.0
  9
$DIMTOL
 70
     0
  9
$DIMLIM
 70
     0
  9
$DIMTIH
 70
     0
  9
$DIMTOH
 70
     0
  9
$DIMSE1
 70
     0
  9
$DIMSE2
 70
     0
  9
$DIMTAD
 70
     1
  9
$DIMZIN
 70
     8
  9
$DIMBLK
  1

  9
$DIMASO
 70
     1
  9
$DIMSHO
 70
     1
  9
$DIMPOST
  1

  9
$DIMAPOST
  1

  9
$DIMALT
 70
     0
  9
$DIMALTD
 70
     3
  9
$DIMALTF
 40
0.03937007874016
  9
$DIMLFAC
 40
1.0
  9
$DIMTOFL
 70
     1
  9
$DIMTVP
 40
0.0
  9
$DIMTIX
 70
     0
  9
$DIMSOXD
 70
     0
  9
$DIMSAH
 70
     0
  9
$DIMBLK1
  1

  9
$DIMBLK2
  1

  9
$DIMSTYLE
  2
ISO-25
  9
$DIMCLRD
 70
     0
  9
$DIMCLRE
 70
     0
  9
$DIMCLRT
 70
     0
  9
$DIMTFAC
 40
1.0
  9
$DIMGAP
 40
0.625
  9
$DIMJUST
 70
     0
  9
$DIMSD1
 70
     0
  9
$DIMSD2
 70
     0
  9
$DIMTOLJ
 70
     0
  9
$DIMTZIN
 70
     8
  9
$DIMALTZ
 70
     0
  9
$DIMALTTZ
 70
     0
  9
$DIMFIT
 70
     3
  9
$DIMUPT
 70
     0
  9
$DIMUNIT
 70
     2
  9
$DIMDEC
 70
     2
  9
$DIMTDEC
 70
     2
  9
$DIMALTU
 70
     2
  9
$DIMALTTD
 70
     3
  9
$DIMTXSTY
  7
STANDARD
  9
$DIMAUNIT
 70
     0
  9
$LUNITS
 70
     2
  9
$LUPREC
 70
     4
  9
$SKETCHINC
 40
1.0
  9
$FILLETRAD
 40
10.0
  9
$AUNITS
 70
     0
  9
$AUPREC
 70
     0
  9
$MENU
  1
.
  9
$ELEVATION
 40
0.0
  9
$PELEVATION
 40
0.0
  9
$THICKNESS
 40
0.0
  9
$LIMCHECK
 70
     0
  9
$CHAMFERA
 40
10.0
  9
$CHAMFERB
 40
10.0
  9
$CHAMFERC
 40
20.0
  9
$CHAMFERD
 40
0.0
  9
$SKPOLY
 70
     0
  9
$TDCREATE
 40
2458438.899226238
  9
$TDUPDATE
 40
2458438.899226597
  9
$TDINDWG
 40
0.0000000116
  9
$TDUSRTIMER
 40
0.0000000116
  9
$USRTIMER
 70
     1
  9
$ANGBASE
 50
0.0
  9
$ANGDIR
 70
     0
  9
$PDMODE
 70
     0
  9
$PDSIZE
 40
0.0
  9
$PLINEWID
 40
0.0
  9
$COORDS
 70
     1
  9
$SPLFRAME
 70
     0
  9
$SPLINETYPE
 70
     6
  9
$SPLINESEGS
 70
     8
  9
$ATTDIA
 70
     0
  9
$ATTREQ
 70
     1
  9
$HANDLING
 70
     1
  9
$HANDSEED
  5
3F7
  9
$SURFTAB1
 70
     6
  9
$SURFTAB2
 70
     6
  9
$SURFTYPE
 70
     6
  9
$SURFU
 70
     6
  9
$SURFV
 70
     6
  9
$UCSNAME
  2

  9
$UCSORG
 10
0.0
 20
0.0
 30
0.0
  9
$UCSXDIR
 10
1.0
 20
0.0
 30
0.0
  9
$UCSYDIR
 10
0.0
 20
1.0
 30
0.0
  9
$PUCSNAME
  2

  9
$PUCSORG
 10
0.0
 20
0.0
 30
0.0
  9
$PUCSXDIR
 10
1.0
 20
0.0
 30
0.0
  9
$PUCSYDIR
 10
0.0
 20
1.0
 30
0.0
  9
$USERI1
 70
     0
  9
$USERI2
 70
     0
  9
$USERI3
 70
     0
  9
$USERI4
 70
     0
  9
$USERI5
 70
     0
  9
$USERR1
 40
0.0
  9
$USERR2
 40
0.0
  9
$USERR3
 40
0.0
  9
$USERR4
 40
0.0
  9
$USERR5
 40
0.0
  9
$WORLDVIEW
 70
     1
  9
$SHADEDGE
 70
     3
  9
$SHADEDIF
 70
    70
  9
$TILEMODE
 70
     1
  9
$MAXACTVP
 70
    64
  9
$PINSBASE
 10
0.0
 20
0.0
 30
0.0
  9
$PLIMCHECK
 70
     0
  9
$PEXTMIN
 10
1.000000000000000E+20
 20
1.000000000000000E+20
 30
1.000000000000000E+20
  9
$PEXTMAX
 10
-1.000000000000000E+20
 20
-1.000000000000000E+20
 30
-1.000000000000000E+20
  9
$PLIMMIN
 10
0.0
 20
0.0
  9
$PLIMMAX
 10
420.0
 20
297.0
  9
$UNITMODE
 70
     0
  9
$VISRETAIN
 70
     1
  9
$PLINEGEN
 70
     0
  9
$PSLTSCALE
 70
     1
  9
$TREEDEPTH
 70
  3020
  9
$PICKSTYLE
 70
     1
  9
$CMLSTYLE
  2
STANDARD
  9
$CMLJUST
 70
     0
  9
$CMLSCALE
 40
20.0
  9
$PROXYGRAPHICS
 70
     1
  9
$MEASUREMENT
 70
     1
  0
ENDSEC
  0
SECTION
  2
CLASSES
  0
CLASS
  1
ACDBDICTIONARYWDFLT
  2
AcDbDictionaryWithDefault
  3
ObjectDBX Classes
 90
        0
280
     0
281
     0
  0
CLASS
  1
VISUALSTYLE
  2
AcDbVisualStyle
  3
ObjectDBX Classes
 90
     4095
280
     0
281
     0
  0
CLASS
  1
MATERIAL
  2
AcDbMaterial
  3
ObjectDBX Classes
 90
     1153
280
     0
281
     0
  0
CLASS
  1
SUN
  2
AcDbSun
  3
SCENEOE
 90
     1024
280
     0
281
     0
  0
CLASS
  1
DICTIONARYVAR
  2
AcDbDictionaryVar
  3
ObjectDBX Classes
 90
        0
280
     0
281
     0
  0
CLASS
  1
XRECORD
  2
AcDbXrecord
  3
AutoCAD 2000
 90
        0
280
     0
281
     0
  0
CLASS
  1
LWPOLYLINE
  2
AcDbPolyline
  3
AutoCAD 2000
 90
        0
280
     0
281
     1
  0
CLASS
  1
HATCH
  2
AcDbHatch
  3
AutoCAD 2000
 90
        0
280
     0
281
     1
  0
CLASS
  1
ACDBPLACEHOLDER
  2
AcDbPlaceHolder
  3
ObjectDBX Classes
 90
        0
280
     0
281
     0
  0
CLASS
  1
LAYOUT
  2
AcDbLayout
  3
ObjectDBX Classes
 90
        0
280
     0
281
     0
  0
ENDSEC
  0
SECTION
  2
TABLES
  0
TABLE
  2
VPORT
  5
8
330
0
100
AcDbSymbolTable
 70
     1
  0
VPORT
  5
29
330
8
100
AcDbSymbolTableRecord
100
AcDbViewportTableRecord
  2
*ACTIVE
 70
     0
 10
0.0
 20
0.0
 11
1.0
 21
1.0
 12
100.35
 22
148.5
 13
0.0
 23
0.0
 14
10.0
 24
10.0
 15
10.0
 25
10.0
 16
0.0
 26
0.0
 36
1.0
 17
0.0
 27
0.0
 37
0.0
 40
280.0
 41
0.7117857142857144
 42
50.0
 43
0.0
 44
0.0
 50
0.0
 51
0.0
 71
     0
 72
  1000
 73
     1
 74
     3
 75
     0
 76
     0
 77
     0
 78
     0
  0
ENDTAB
  0
TABLE
  2
LTYPE
  5
5
330
0
100
AcDbSymbolTable
 70
     7
  0
LTYPE
  5
14
330
5
100
AcDbSymbolTableRecord
100
AcDbLinetypeTableRecord
  2
BYBLOCK
 70
     0
  3

 72
    65
 73
     0
 40
0.0
  0
LTYPE
  5
15
330
5
100
AcDbSymbolTableRecord
100
AcDbLinetypeTableRecord
  2
BYLAYER
 70
     0
  3

 72
    65
 73
     0
 40
0.0
  0
LTYPE
  5
16
330
5
100
AcDbSymbolTableRecord
100
AcDbLinetypeTableRecord
  2
CONTINUOUS
 70
     0
  3
Solid line
 72
    65
 73
     0
 40
0.0
  0
LTYPE
  5
40
330
5
100
AcDbSymbolTableRecord
100
AcDbLinetypeTableRecord
  2
EXLTYPE1
 70
     0
  3
破線
 72
    65
 73
     2
 40
3.0
 49
2.0
 74
     0
 49
-1.0
 74
     0
  0
LTYPE
  5
41
330
5
100
AcDbSymbolTableRecord
100
AcDbLinetypeTableRecord
  2
EXLTYPE2
 70
     0
  3
点線
 72
    65
 73
     2
 40
2.0
 49
1.0
 74
     0
 49
-1.0
 74
     0
  0
LTYPE
  5
42
330
5
100
AcDbSymbolTableRecord
100
AcDbLinetypeTableRecord
  2
EXLTYPE3
 70
     0
  3
一点鎖線
 72
    65
 73
     4
 40
10.0
 49
7.0
 74
     0
 49
-1.0
 74
     0
 49
1.0
 74
     0
 49
-1.0
 74
     0
  0
LTYPE
  5
43
330
5
100
AcDbSymbolTableRecord
100
AcDbLinetypeTableRecord
  2
EXLTYPE4
 70
     0
  3
二点鎖線
 72
    65
 73
     6
 40
12.0
 49
7.0
 74
     0
 49
-1.0
 74
     0
 49
1.0
 74
     0
 49
-1.0
 74
     0
 49
1.0
 74
     0
 49
-1.0
 74
     0
  0
LTYPE
  5
44
330
5
100
AcDbSymbolTableRecord
100
AcDbLinetypeTableRecord
  2
EXLTYPE5
 70
     0
  3
三点鎖線
 72
    65
 73
     8
 40
37.0
 49
30.0
 74
     0
 49
-1.0
 74
     0
 49
1.0
 74
     0
 49
-1.0
 74
     0
 49
1.0
 74
     0
 49
-1.0
 74
     0
 49
1.0
 74
     0
 49
-1.0
 74
     0
  0
LTYPE
  5
45
330
5
100
AcDbSymbolTableRecord
100
AcDbLinetypeTableRecord
  2
EXLTYPE6
 70
     0
  3
四点鎖線
 72
    65
 73
    10
 40
39.0
 49
30.0
 74
     0
 49
-1.0
 74
     0
 49
1.0
 74
     0
 49
-1.0
 74
     0
 49
1.0
 74
     0
 49
-1.0
 74
     0
 49
1.0
 74
     0
 49
-1.0
 74
     0
 49
1.0
 74
     0
 49
-1.0
 74
     0
  0
ENDTAB
  0
TABLE
  2
LAYER
  5
2
330
0
100
AcDbSymbolTable
 70
     4
  0
LAYER
  5
10
330
2
100
AcDbSymbolTableRecord
100
AcDbLayerTableRecord
  2
0
 70
     0
 62
     7
  6
CONTINUOUS
  0
LAYER
  5
48
330
2
100
AcDbSymbolTableRecord
100
AcDbLayerTableRecord
  2
1
 70
     0
 62
     7
  6
CONTINUOUS
  0
LAYER
  5
49
330
2
100
AcDbSymbolTableRecord
100
AcDbLayerTableRecord
  2
2
 70
     0
 62
     7
  6
CONTINUOUS
  0
LAYER
  5
4A
330
2
100
AcDbSymbolTableRecord
100
AcDbLayerTableRecord
  2
LAY-4
 70
     0
 62
     7
  6
CONTINUOUS
  0
ENDTAB
  0
TABLE
  2
STYLE
  5
3
330
0
100
AcDbSymbolTable
 70
     3
  0
STYLE
  5
11
330
3
100
AcDbSymbolTableRecord
100
AcDbTextStyleTableRecord
  2
STANDARD
 70
     0
 40
0.0
 41
1.0
 50
0.0
 71
     0
 42
2.5
  3
monotxt
  4
extfont
  0
STYLE
  5
46
330
3
100
AcDbSymbolTableRecord
100
AcDbTextStyleTableRecord
  2
EXCADSTD
 70
     0
 40
0.0
 41
1.0
 50
0.0
 71
     0
 42
0.2
  3
monotxt
  4
extfont
  0
STYLE
  5
47
330
3
100
AcDbSymbolTableRecord
100
AcDbTextStyleTableRecord
  2
EXCADVERT
 70
     4
 40
0.0
 41
1.0
 50
0.0
 71
     0
 42
0.286885
  3
monotxt
  4
extfont
  0
ENDTAB
  0
TABLE
  2
VIEW
  5
6
330
0
100
AcDbSymbolTable
 70
     0
  0
ENDTAB
  0
TABLE
  2
UCS
  5
7
330
0
100
AcDbSymbolTable
 70
     0
  0
ENDTAB
  0
TABLE
  2
APPID
  5
9
330
0
100
AcDbSymbolTable
 70
     1
  0
APPID
  5
12
330
9
100
AcDbSymbolTableRecord
100
AcDbRegAppTableRecord
  2
ACAD
 70
     0
  0
ENDTAB
  0
TABLE
  2
DIMSTYLE
  5
A
330
0
100
AcDbSymbolTable
 70
     1
  0
DIMSTYLE
105
27
330
A
100
AcDbSymbolTableRecord
100
AcDbDimStyleTableRecord
  2
ISO-25
 70
     0
  3

  4

  5

  6

  7

 40
1.0
 41
2.5
 42
0.625
 43
3.75
 44
1.25
 45
0.0
 46
0.0
 47
0.0
 48
0.0
140
2.5
141
2.5
142
0.0
143
0.03937007874016
144
1.0
145
0.0
146
1.0
147
0.625
 71
     0
 72
     0
 73
     0
 74
     0
 75
     0
 76
     0
 77
     1
 78
     8
170
     0
171
     3
172
     1
173
     0
174
     0
175
     0
176
     0
177
     0
178
     0
270
     2
271
     2
272
     2
273
     2
274
     3
340
11
275
     0
280
     0
281
     0
282
     0
283
     0
284
     8
285
     0
286
     0
287
     5
288
     0
  0
ENDTAB
  0
TABLE
  2
BLOCK_RECORD
  5
1
330
0
100
AcDbSymbolTable
 70
    15
  0
BLOCK_RECORD
  5
1F
330
1
100
AcDbSymbolTableRecord
100
AcDbBlockTableRecord
  2
*MODEL_SPACE
  0
BLOCK_RECORD
  5
1B
330
1
100
AcDbSymbolTableRecord
100
AcDbBlockTableRecord
  2
*PAPER_SPACE
  0
BLOCK_RECORD
  5
4B
330
1
100
AcDbSymbolTableRecord
100
AcDbBlockTableRecord
  2
EX_NORM
  0
BLOCK_RECORD
  5
4E
330
1
100
AcDbSymbolTableRecord
100
AcDbBlockTableRecord
  2
EX_BNORM
  0
BLOCK_RECORD
  5
51
330
1
100
AcDbSymbolTableRecord
100
AcDbBlockTableRecord
  2
EX_BCIR
  0
BLOCK_RECORD
  5
54
330
1
100
AcDbSymbolTableRecord
100
AcDbBlockTableRecord
  2
EX_RCIVIL
  0
BLOCK_RECORD
  5
57
330
1
100
AcDbSymbolTableRecord
100
AcDbBlockTableRecord
  2
EX_SLANT
  0
BLOCK_RECORD
  5
5A
330
1
100
AcDbSymbolTableRecord
100
AcDbBlockTableRecord
  2
EX_NONE
  0
BLOCK_RECORD
  5
5D
330
1
100
AcDbSymbolTableRecord
100
AcDbBlockTableRecord
  2
EX_CIVIL
  0
BLOCK_RECORD
  5
60
330
1
100
AcDbSymbolTableRecord
100
AcDbBlockTableRecord
  2
EX_WCIR
  0
BLOCK_RECORD
  5
63
330
1
100
AcDbSymbolTableRecord
100
AcDbBlockTableRecord
  2
EX_WCIR2
  0
BLOCK_RECORD
  5
66
330
1
100
AcDbSymbolTableRecord
100
AcDbBlockTableRecord
  2
EX_WNORM
  0
BLOCK_RECORD
  5
69
330
1
100
AcDbSymbolTableRecord
100
AcDbBlockTableRecord
  2
EX_NNORM
  0
BLOCK_RECORD
  5
6C
330
1
100
AcDbSymbolTableRecord
100
AcDbBlockTableRecord
  2
EX_BBOX
  0
BLOCK_RECORD
  5
6F
330
1
100
AcDbSymbolTableRecord
100
AcDbBlockTableRecord
  2
EX_WBOX
  0
BLOCK_RECORD
  5
72
330
1
100
AcDbSymbolTableRecord
100
AcDbBlockTableRecord
  2
EX_INTEGRAL
  0
ENDTAB
  0
ENDSEC
  0
SECTION
  2
BLOCKS
  0
BLOCK
  5
20
330
1F
100
AcDbEntity
  8
0
100
AcDbBlockBegin
  2
*MODEL_SPACE
 70
     0
 10
0.0
 20
0.0
 30
0.0
  3
*MODEL_SPACE
  1

  0
ENDBLK
  5
21
330
1F
100
AcDbEntity
  8
0
100
AcDbBlockEnd
  0
BLOCK
  5
1C
330
1B
100
AcDbEntity
 67
     1
  8
0
100
AcDbBlockBegin
  2
*PAPER_SPACE
 70
     0
 10
0.0
 20
0.0
 30
0.0
  3
*PAPER_SPACE
  1

  0
ENDBLK
  5
1D
330
1B
100
AcDbEntity
 67
     1
  8
0
100
AcDbBlockEnd
  0
BLOCK
  5
4C
330
4B
100
AcDbEntity
  8
0
100
AcDbBlockBegin
  2
EX_NORM
 70
     0
 10
0.0
 20
0.0
 30
0.0
  3
EX_NORM
  1

  0
LINE
  5
75
330
4B
100
AcDbEntity
  8
0
  6
CONTINUOUS
 62
     0
100
AcDbLine
 10
0.0
 20
0.0
 30
0.0
 11
-1.0
 21
0.0
 31
0.0
  0
LINE
  5
76
330
4B
100
AcDbEntity
  8
0
  6
CONTINUOUS
 62
     0
100
AcDbLine
 10
0.0
 20
0.0
 30
0.0
 11
-1.0
 21
0.166666667
 31
0.0
  0
LINE
  5
77
330
4B
100
AcDbEntity
  8
0
  6
CONTINUOUS
 62
     0
100
AcDbLine
 10
0.0
 20
0.0
 30
0.0
 11
-1.0
 21
-0.166666667
 31
0.0
  0
ENDBLK
  5
4D
330
4B
100
AcDbEntity
  8
0
100
AcDbBlockEnd
  0
BLOCK
  5
4F
330
4E
100
AcDbEntity
  8
0
100
AcDbBlockBegin
  2
EX_BNORM
 70
     0
 10
0.0
 20
0.0
 30
0.0
  3
EX_BNORM
  1

  0
LINE
  5
78
330
4E
100
AcDbEntity
  8
0
  6
CONTINUOUS
 62
     0
100
AcDbLine
 10
0.0
 20
0.0
 30
0.0
 11
-1.0
 21
0.0
 31
0.0
  0
LINE
  5
79
330
4E
100
AcDbEntity
  8
0
  6
CONTINUOUS
 62
     0
100
AcDbLine
 10
0.0
 20
0.0
 30
0.0
 11
-1.0
 21
0.166666667
 31
0.0
  0
LINE
  5
7A
330
4E
100
AcDbEntity
  8
0
  6
CONTINUOUS
 62
     0
100
AcDbLine
 10
0.0
 20
0.0
 30
0.0
 11
-1.0
 21
-0.166666667
 31
0.0
  0
LINE
  5
7B
330
4E
100
AcDbEntity
  8
0
  6
CONTINUOUS
 62
     0
100
AcDbLine
 10
0.0
 20
0.0
 30
0.0
 11
-1.0
 21
0.083333333
 31
0.0
  0
LINE
  5
7C
330
4E
100
AcDbEntity
  8
0
  6
CONTINUOUS
 62
     0
100
AcDbLine
 10
0.0
 20
0.0
 30
0.0
 11
-1.0
 21
-0.083333333
 31
0.0
  0
LINE
  5
7D
330
4E
100
AcDbEntity
  8
0
  6
CONTINUOUS
 62
     0
100
AcDbLine
 10
-1.0
 20
0.166666667
 30
0.0
 11
-1.0
 21
-0.166666667
 31
0.0
  0
ENDBLK
  5
50
330
4E
100
AcDbEntity
  8
0
100
AcDbBlockEnd
  0
BLOCK
  5
52
330
51
100
AcDbEntity
  8
0
100
AcDbBlockBegin
  2
EX_BCIR
 70
     0
 10
0.0
 20
0.0
 30
0.0
  3
EX_BCIR
  1

  0
LINE
  5
7E
330
51
100
AcDbEntity
  8
0
  6
CONTINUOUS
 62
     0
100
AcDbLine
 10
0.0
 20
0.0
 30
0.0
 11
-1.0
 21
0.0
 31
0.0
  0
CIRCLE
  5
7F
330
51
100
AcDbEntity
  8
0
  6
CONTINUOUS
 62
     0
100
AcDbCircle
 10
0.0
 20
0.0
 30
0.0
 40
0.5
  0
CIRCLE
  5
80
330
51
100
AcDbEntity
  8
0
  6
CONTINUOUS
 62
     0
100
AcDbCircle
 10
0.0
 20
0.0
 30
0.0
 40
0.25
  0
ENDBLK
  5
53
330
51
100
AcDbEntity
  8
0
100
AcDbBlockEnd
  0
BLOCK
  5
55
330
54
100
AcDbEntity
  8
0
100
AcDbBlockBegin
  2
EX_RCIVIL
 70
     0
 10
0.0
 20
0.0
 30
0.0
  3
EX_RCIVIL
  1

  0
LINE
  5
81
330
54
100
AcDbEntity
  8
0
  6
CONTINUOUS
 62
     0
100
AcDbLine
 10
0.0
 20
0.0
 30
0.0
 11
-1.0
 21
0.0
 31
0.0
  0
LINE
  5
82
330
54
100
AcDbEntity
  8
0
  6
CONTINUOUS
 62
     0
100
AcDbLine
 10
-1.0
 20
-0.25
 30
0.0
 11
0.0
 21
-0.25
 31
0.0
  0
LINE
  5
83
330
54
100
AcDbEntity
  8
0
  6
CONTINUOUS
 62
     0
100
AcDbLine
 10
-1.0
 20
-0.125
 30
0.0
 11
0.0
 21
-0.125
 31
0.0
  0
ENDBLK
  5
56
330
54
100
AcDbEntity
  8
0
100
AcDbBlockEnd
  0
BLOCK
  5
58
330
57
100
AcDbEntity
  8
0
100
AcDbBlockBegin
  2
EX_SLANT
 70
     0
 10
0.0
 20
0.0
 30
0.0
  3
EX_SLANT
  1

  0
LINE
  5
84
330
57
100
AcDbEntity
  8
0
  6
CONTINUOUS
 62
     0
100
AcDbLine
 10
0.0
 20
0.0
 30
0.0
 11
-1.0
 21
0.0
 31
0.0
  0
LINE
  5
85
330
57
100
AcDbEntity
  8
0
  6
CONTINUOUS
 62
     0
100
AcDbLine
 10
0.707106781
 20
0.707106781
 30
0.0
 11
-0.707106781
 21
-0.707106781
 31
0.0
  0
ENDBLK
  5
59
330
57
100
AcDbEntity
  8
0
100
AcDbBlockEnd
  0
BLOCK
  5
5B
330
5A
100
AcDbEntity
  8
0
100
AcDbBlockBegin
  2
EX_NONE
 70
     0
 10
0.0
 20
0.0
 30
0.0
  3
EX_NONE
  1

  0
LINE
  5
86
330
5A
100
AcDbEntity
  8
0
  6
CONTINUOUS
 62
     0
100
AcDbLine
 10
0.0
 20
0.0
 30
0.0
 11
-1.0
 21
0.0
 31
0.0
  0
ENDBLK
  5
5C
330
5A
100
AcDbEntity
  8
0
100
AcDbBlockEnd
  0
BLOCK
  5
5E
330
5D
100
AcDbEntity
  8
0
100
AcDbBlockBegin
  2
EX_CIVIL
 70
     0
 10
0.0
 20
0.0
 30
0.0
  3
EX_CIVIL
  1

  0
LINE
  5
87
330
5D
100
AcDbEntity
  8
0
  6
CONTINUOUS
 62
     0
100
AcDbLine
 10
0.0
 20
0.0
 30
0.0
 11
-1.0
 21
0.0
 31
0.0
  0
LINE
  5
88
330
5D
100
AcDbEntity
  8
0
  6
CONTINUOUS
 62
     0
100
AcDbLine
 10
-1.0
 20
0.25
 30
0.0
 11
0.0
 21
0.25
 31
0.0
  0
LINE
  5
89
330
5D
100
AcDbEntity
  8
0
  6
CONTINUOUS
 62
     0
100
AcDbLine
 10
-1.0
 20
0.125
 30
0.0
 11
0.0
 21
0.125
 31
0.0
  0
ENDBLK
  5
5F
330
5D
100
AcDbEntity
  8
0
100
AcDbBlockEnd
  0
BLOCK
  5
61
330
60
100
AcDbEntity
  8
0
100
AcDbBlockBegin
  2
EX_WCIR
 70
     0
 10
0.0
 20
0.0
 30
0.0
  3
EX_WCIR
  1

  0
LINE
  5
8A
330
60
100
AcDbEntity
  8
0
  6
CONTINUOUS
 62
     0
100
AcDbLine
 10
0.0
 20
0.0
 30
0.0
 11
-1.0
 21
0.0
 31
0.0
  0
CIRCLE
  5
8B
330
60
100
AcDbEntity
  8
0
  6
CONTINUOUS
 62
     0
100
AcDbCircle
 10
0.0
 20
0.0
 30
0.0
 40
0.5
  0
ENDBLK
  5
62
330
60
100
AcDbEntity
  8
0
100
AcDbBlockEnd
  0
BLOCK
  5
64
330
63
100
AcDbEntity
  8
0
100
AcDbBlockBegin
  2
EX_WCIR2
 70
     0
 10
0.0
 20
0.0
 30
0.0
  3
EX_WCIR2
  1

  0
LINE
  5
8C
330
63
100
AcDbEntity
  8
0
  6
CONTINUOUS
 62
     0
100
AcDbLine
 10
-0.5
 20
0.0
 30
0.0
 11
-1.0
 21
0.0
 31
0.0
  0
CIRCLE
  5
8D
330
63
100
AcDbEntity
  8
0
  6
CONTINUOUS
 62
     0
100
AcDbCircle
 10
0.0
 20
0.0
 30
0.0
 40
0.5
  0
ENDBLK
  5
65
330
63
100
AcDbEntity
  8
0
100
AcDbBlockEnd
  0
BLOCK
  5
67
330
66
100
AcDbEntity
  8
0
100
AcDbBlockBegin
  2
EX_WNORM
 70
     0
 10
0.0
 20
0.0
 30
0.0
  3
EX_WNORM
  1

  0
LINE
  5
8E
330
66
100
AcDbEntity
  8
0
  6
CONTINUOUS
 62
     0
100
AcDbLine
 10
-1.0
 20
0.0
 30
0.0
 11
-1.0
 21
0.0
 31
0.0
  0
LINE
  5
8F
330
66
100
AcDbEntity
  8
0
  6
CONTINUOUS
 62
     0
100
AcDbLine
 10
0.0
 20
0.0
 30
0.0
 11
-1.0
 21
0.166666667
 31
0.0
  0
LINE
  5
90
330
66
100
AcDbEntity
  8
0
  6
CONTINUOUS
 62
     0
100
AcDbLine
 10
0.0
 20
0.0
 30
0.0
 11
-1.0
 21
-0.166666667
 31
0.0
  0
LINE
  5
91
330
66
100
AcDbEntity
  8
0
  6
CONTINUOUS
 62
     0
100
AcDbLine
 10
-1.0
 20
0.166666667
 30
0.0
 11
-1.0
 21
-0.166666667
 31
0.0
  0
ENDBLK
  5
68
330
66
100
AcDbEntity
  8
0
100
AcDbBlockEnd
  0
BLOCK
  5
6A
330
69
100
AcDbEntity
  8
0
100
AcDbBlockBegin
  2
EX_NNORM
 70
     0
 10
0.0
 20
0.0
 30
0.0
  3
EX_NNORM
  1

  0
LINE
  5
92
330
69
100
AcDbEntity
  8
0
  6
CONTINUOUS
 62
     0
100
AcDbLine
 10
0.0
 20
0.0
 30
0.0
 11
-1.0
 21
0.0
 31
0.0
  0
LINE
  5
93
330
69
100
AcDbEntity
  8
0
  6
CONTINUOUS
 62
     0
100
AcDbLine
 10
0.0
 20
0.0
 30
0.0
 11
-1.0
 21
0.166666667
 31
0.0
  0
LINE
  5
94
330
69
100
AcDbEntity
  8
0
  6
CONTINUOUS
 62
     0
100
AcDbLine
 10
0.0
 20
0.0
 30
0.0
 11
-1.0
 21
-0.166666667
 31
0.0
  0
LINE
  5
95
330
69
100
AcDbEntity
  8
0
  6
CONTINUOUS
 62
     0
100
AcDbLine
 10
-1.0
 20
0.166666667
 30
0.0
 11
-1.0
 21
-0.166666667
 31
0.0
  0
ENDBLK
  5
6B
330
69
100
AcDbEntity
  8
0
100
AcDbBlockEnd
  0
BLOCK
  5
6D
330
6C
100
AcDbEntity
  8
0
100
AcDbBlockBegin
  2
EX_BBOX
 70
     0
 10
0.0
 20
0.0
 30
0.0
  3
EX_BBOX
  1

  0
LINE
  5
96
330
6C
100
AcDbEntity
  8
0
  6
CONTINUOUS
 62
     0
100
AcDbLine
 10
0.0
 20
0.0
 30
0.0
 11
-1.0
 21
0.0
 31
0.0
  0
LINE
  5
97
330
6C
100
AcDbEntity
  8
0
  6
CONTINUOUS
 62
     0
100
AcDbLine
 10
-0.5
 20
0.5
 30
0.0
 11
0.5
 21
0.5
 31
0.0
  0
LINE
  5
98
330
6C
100
AcDbEntity
  8
0
  6
CONTINUOUS
 62
     0
100
AcDbLine
 10
0.5
 20
0.5
 30
0.0
 11
0.5
 21
-0.5
 31
0.0
  0
LINE
  5
99
330
6C
100
AcDbEntity
  8
0
  6
CONTINUOUS
 62
     0
100
AcDbLine
 10
0.5
 20
-0.5
 30
0.0
 11
-0.5
 21
-0.5
 31
0.0
  0
LINE
  5
9A
330
6C
100
AcDbEntity
  8
0
  6
CONTINUOUS
 62
     0
100
AcDbLine
 10
-0.5
 20
-0.5
 30
0.0
 11
-0.5
 21
0.5
 31
0.0
  0
LINE
  5
9B
330
6C
100
AcDbEntity
  8
0
  6
CONTINUOUS
 62
     0
100
AcDbLine
 10
-0.25
 20
0.25
 30
0.0
 11
0.25
 21
0.25
 31
0.0
  0
LINE
  5
9C
330
6C
100
AcDbEntity
  8
0
  6
CONTINUOUS
 62
     0
100
AcDbLine
 10
0.25
 20
0.25
 30
0.0
 11
0.25
 21
-0.25
 31
0.0
  0
LINE
  5
9D
330
6C
100
AcDbEntity
  8
0
  6
CONTINUOUS
 62
     0
100
AcDbLine
 10
0.25
 20
-0.25
 30
0.0
 11
-0.25
 21
-0.25
 31
0.0
  0
LINE
  5
9E
330
6C
100
AcDbEntity
  8
0
  6
CONTINUOUS
 62
     0
100
AcDbLine
 10
-0.25
 20
-0.25
 30
0.0
 11
-0.25
 21
0.25
 31
0.0
  0
ENDBLK
  5
6E
330
6C
100
AcDbEntity
  8
0
100
AcDbBlockEnd
  0
BLOCK
  5
70
330
6F
100
AcDbEntity
  8
0
100
AcDbBlockBegin
  2
EX_WBOX
 70
     0
 10
0.0
 20
0.0
 30
0.0
  3
EX_WBOX
  1

  0
LINE
  5
9F
330
6F
100
AcDbEntity
  8
0
  6
CONTINUOUS
 62
     0
100
AcDbLine
 10
-0.5
 20
0.0
 30
0.0
 11
-1.0
 21
0.0
 31
0.0
  0
LINE
  5
A0
330
6F
100
AcDbEntity
  8
0
  6
CONTINUOUS
 62
     0
100
AcDbLine
 10
-0.5
 20
0.5
 30
0.0
 11
0.5
 21
0.5
 31
0.0
  0
LINE
  5
A1
330
6F
100
AcDbEntity
  8
0
  6
CONTINUOUS
 62
     0
100
AcDbLine
 10
0.5
 20
0.5
 30
0.0
 11
0.5
 21
-0.5
 31
0.0
  0
LINE
  5
A2
330
6F
100
AcDbEntity
  8
0
  6
CONTINUOUS
 62
     0
100
AcDbLine
 10
0.5
 20
-0.5
 30
0.0
 11
-0.5
 21
-0.5
 31
0.0
  0
LINE
  5
A3
330
6F
100
AcDbEntity
  8
0
  6
CONTINUOUS
 62
     0
100
AcDbLine
 10
-0.5
 20
-0.5
 30
0.0
 11
-0.5
 21
0.5
 31
0.0
  0
ENDBLK
  5
71
330
6F
100
AcDbEntity
  8
0
100
AcDbBlockEnd
  0
BLOCK
  5
73
330
72
100
AcDbEntity
  8
0
100
AcDbBlockBegin
  2
EX_INTEGRAL
 70
     0
 10
0.0
 20
0.0
 30
0.0
  3
EX_INTEGRAL
  1

  0
LINE
  5
A4
330
72
100
AcDbEntity
  8
0
  6
CONTINUOUS
 62
     0
100
AcDbLine
 10
0.0
 20
0.0
 30
0.0
 11
-1.0
 21
0.0
 31
0.0
  0
ARC
  5
A5
330
72
100
AcDbEntity
  8
0
  6
CONTINUOUS
 62
     0
100
AcDbCircle
 10
0.542115
 20
0.164992
 30
0.0
 40
0.56667
100
AcDbArc
 50
73.07249033629006
 51
196.9275130221199
  0
ARC
  5
A6
330
72
100
AcDbEntity
  8
0
  6
CONTINUOUS
 62
     0
100
AcDbCircle
 10
-0.542115
 20
-0.164992
 30
0.0
 40
0.56667
100
AcDbArc
 50
253.0724869220464
 51
16.9275130559125
  0
ENDBLK
  5
74
330
72
100
AcDbEntity
  8
0
100
AcDbBlockEnd
  0
ENDSEC
  0
SECTION
  2
ENTITIES
  0
LINE
  5
A7
330
1F
100
AcDbEntity
  8
0
  6
CONTINUOUS
 62
     7
100
AcDbLine
 10
18.0
 20
8.5
 30
0.0
 11
200.0
 21
8.5
 31
0.0
  0
LINE
  5
A8
330
1F
100
AcDbEntity
  8
0
  6
CONTINUOUS
 62
     7
100
AcDbLine
 10
200.0
 20
8.5
 30
0.0
 11
200.0
 21
288.5
 31
0.0
  0
LINE
  5
A9
330
1F
100
AcDbEntity
  8
0
  6
CONTINUOUS
 62
     7
100
AcDbLine
 10
18.0
 20
8.5
 30
0.0
 11
18.0
 21
288.5
 31
0.0
  0
LINE
  5
AA
330
1F
100
AcDbEntity
  8
0
  6
CONTINUOUS
 62
     7
100
AcDbLine
 10
18.0
 20
288.5
 30
0.0
 11
200.0
 21
288.5
 31
0.0
  0
LINE
  5
AB
330
1F
100
AcDbEntity
  8
0
  6
CONTINUOUS
 62
     7
100
AcDbLine
 10
18.0
 20
30.5
 30
0.0
 11
200.0
 21
30.5
 31
0.0
  0
LINE
  5
AC
330
1F
100
AcDbEntity
  8
0
  6
CONTINUOUS
 62
     6
100
AcDbLine
 10
88.0
 20
282.5
 30
0.0
 11
200.0
 21
282.5
 31
0.0
  0
LINE
  5
AD
330
1F
100
AcDbEntity
  8
0
  6
CONTINUOUS
 62
     6
100
AcDbLine
 10
200.0
 20
18.5
 30
0.0
 11
75.0
 21
18.5
 31
0.0
  0
LINE
  5
AE
330
1F
100
AcDbEntity
  8
0
  6
CONTINUOUS
 62
     6
100
AcDbLine
 10
186.0
 20
30.5
 30
0.0
 11
186.0
 21
18.5
 31
0.0
  0
LINE
  5
AF
330
1F
100
AcDbEntity
  8
0
  6
CONTINUOUS
 62
     6
100
AcDbLine
 10
181.0
 20
30.5
 30
0.0
 11
181.0
 21
18.5
 31
0.0
  0
LINE
  5
B0
330
1F
100
AcDbEntity
  8
0
  6
CONTINUOUS
 62
     6
100
AcDbLine
 10
144.0
 20
30.5
 30
0.0
 11
144.0
 21
8.5
 31
0.0
  0
LINE
  5
B1
330
1F
100
AcDbEntity
  8
0
  6
CONTINUOUS
 62
     6
100
AcDbLine
 10
139.0
 20
30.5
 30
0.0
 11
139.0
 21
8.5
 31
0.0
  0
LINE
  5
B2
330
1F
100
AcDbEntity
  8
0
  6
CONTINUOUS
 62
     6
100
AcDbLine
 10
80.0
 20
30.5
 30
0.0
 11
80.0
 21
18.5
 31
0.0
  0
LINE
  5
B3
330
1F
100
AcDbEntity
  8
0
  6
CONTINUOUS
 62
     6
100
AcDbLine
 10
75.0
 20
30.5
 30
0.0
 11
75.0
 21
8.5
 31
0.0
  0
LINE
  5
B4
330
1F
100
AcDbEntity
  8
0
  6
CONTINUOUS
 62
     6
100
AcDbLine
 10
62.0
 20
30.5
 30
0.0
 11
62.0
 21
8.5
 31
0.0
  0
LINE
  5
B5
330
1F
100
AcDbEntity
  8
0
  6
CONTINUOUS
 62
     6
100
AcDbLine
 10
49.0
 20
30.5
 30
0.0
 11
49.0
 21
8.5
 31
0.0
  0
LINE
  5
B6
330
1F
100
AcDbEntity
  8
0
  6
CONTINUOUS
 62
     6
100
AcDbLine
 10
33.5
 20
30.5
 30
0.0
 11
33.5
 21
8.5
 31
0.0
  0
LINE
  5
B7
330
1F
100
AcDbEntity
  8
0
  6
CONTINUOUS
 62
     6
100
AcDbLine
 10
18.0
 20
25.5
 30
0.0
 11
75.0
 21
25.5
 31
0.0
  0
LINE
  5
B8
330
1F
100
AcDbEntity
  8
0
  6
EXLTYPE2
 62
     6
100
AcDbLine
 10
18.0
 20
13.5
 30
0.0
 11
49.0
 21
13.5
 31
0.0
  0
CIRCLE
  5
B9
330
1F
100
AcDbEntity
  8
0
  6
CONTINUOUS
 62
     6
100
AcDbCircle
 10
23.0
 20
11.0
 30
0.0
 40
0.10000002
  0
CIRCLE
  5
BA
330
1F
100
AcDbEntity
  8
0
  6
CONTINUOUS
 62
     6
100
AcDbCircle
 10
28.0
 20
11.0
 30
0.0
 40
0.10000002
  0
CIRCLE
  5
BB
330
1F
100
AcDbEntity
  8
0
  6
CONTINUOUS
 62
     6
100
AcDbCircle
 10
38.5
 20
11.0
 30
0.0
 40
0.10000002
  0
CIRCLE
  5
BC
330
1F
100
AcDbEntity
  8
0
  6
CONTINUOUS
 62
     6
100
AcDbCircle
 10
43.5
 20
11.0
 30
0.0
 40
0.10000002
  0
LINE
  5
BD
330
1F
100
AcDbEntity
  8
0
  6
CONTINUOUS
 62
     6
100
AcDbLine
 10
88.0
 20
270.0
 30
0.0
 11
200.0
 21
270.0
 31
0.0
  0
LINE
  5
BE
330
1F
100
AcDbEntity
  8
0
  6
CONTINUOUS
 62
     6
100
AcDbLine
 10
88.0
 20
263.75
 30
0.0
 11
200.0
 21
263.75
 31
0.0
  0
LINE
  5
BF
330
1F
100
AcDbEntity
  8
0
  6
CONTINUOUS
 62
     6
100
AcDbLine
 10
88.0
 20
276.25
 30
0.0
 11
200.0
 21
276.25
 31
0.0
  0
LINE
  5
C0
330
1F
100
AcDbEntity
  8
0
  6
CONTINUOUS
 62
     6
100
AcDbLine
 10
88.0
 20
288.5
 30
0.0
 11
88.0
 21
257.5
 31
0.0
  0
LINE
  5
C1
330
1F
100
AcDbEntity
  8
0
  6
CONTINUOUS
 62
     6
100
AcDbLine
 10
99.0
 20
288.5
 30
0.0
 11
99.0
 21
257.5
 31
0.0
  0
LINE
  5
C2
330
1F
100
AcDbEntity
  8
0
  6
CONTINUOUS
 62
     6
100
AcDbLine
 10
129.0
 20
288.5
 30
0.0
 11
129.0
 21
257.5
 31
0.0
  0
LINE
  5
C3
330
1F
100
AcDbEntity
  8
0
  6
CONTINUOUS
 62
     6
100
AcDbLine
 10
159.0
 20
288.5
 30
0.0
 11
159.0
 21
257.5
 31
0.0
  0
LINE
  5
C4
330
1F
100
AcDbEntity
  8
0
  6
CONTINUOUS
 62
     6
100
AcDbLine
 10
170.0
 20
288.5
 30
0.0
 11
170.0
 21
257.5
 31
0.0
  0
TEXT
  5
C5
330
1F
100
AcDbEntity
  8
0
  6
CONTINUOUS
 62
     2
100
AcDbText
 10
88.65000000596046
 20
282.875
 30
0.0
 40
5.25
  1
番号
 41
1.077699392614942
  7
EXCADSTD
 72
     5
 11
97.54101999503374
 21
282.875
 31
0.0
100
AcDbText
  0
TEXT
  5
C6
330
1F
100
AcDbEntity
  8
0
  6
CONTINUOUS
 62
     2
100
AcDbText
 10
159.6500000059605
 20
282.875
 30
0.0
 40
5.25
  1
個数
 41
1.077699392614942
  7
EXCADSTD
 72
     5
 11
168.5410199950337
 21
282.875
 31
0.0
100
AcDbText
  0
TEXT
  5
C7
330
1F
100
AcDbEntity
  8
0
  6
CONTINUOUS
 62
     2
100
AcDbText
 10
105.0
 20
282.875
 30
0.0
 40
5.25
  1
品名
 41
1.999854545454546
  7
EXCADSTD
 72
     5
 11
121.4988
 21
282.875
 31
0.0
100
AcDbText
  0
TEXT
  5
C8
330
1F
100
AcDbEntity
  8
0
  6
CONTINUOUS
 62
     2
100
AcDbText
 10
135.0
 20
282.875
 30
0.0
 40
5.25
  1
材質
 41
1.999854545454544
  7
EXCADSTD
 72
     5
 11
151.4988
 21
282.875
 31
0.0
100
AcDbText
  0
TEXT
  5
C9
330
1F
100
AcDbEntity
  8
0
  6
CONTINUOUS
 62
     2
100
AcDbText
 10
176.0
 20
282.875
 30
0.0
 40
5.25
  1
備考
 41
1.999854545454544
  7
EXCADSTD
 72
     5
 11
192.4988
 21
282.875
 31
0.0
100
AcDbText
  0
TEXT
  5
CA
330
1F
100
AcDbEntity
  8
0
  6
CONTINUOUS
 62
     2
100
AcDbText
 10
91.0
 20
276.875
 30
0.0
 40
5.0
  1
１
 41
1.12
  7
EXCADSTD
 72
     5
 11
95.0
 21
276.875
 31
0.0
100
AcDbText
  0
TEXT
  5
CB
330
1F
100
AcDbEntity
  8
0
  6
CONTINUOUS
 62
     2
100
AcDbText
 10
91.0
 20
270.625
 30
0.0
 40
5.0
  1
２
 41
1.12
  7
EXCADSTD
 72
     5
 11
95.0
 21
270.625
 31
0.0
100
AcDbText
  0
TEXT
  5
CC
330
1F
100
AcDbEntity
  8
0
  6
CONTINUOUS
 62
     2
100
AcDbText
 10
91.0
 20
264.375
 30
0.0
 40
5.0
  1
３
 41
1.12
  7
EXCADSTD
 72
     5
 11
95.0
 21
264.375
 31
0.0
100
AcDbText
  0
TEXT
  5
CD
330
1F
100
AcDbEntity
  8
0
  6
CONTINUOUS
 62
     2
100
AcDbText
 10
99.0
 20
276.75
 30
0.0
 40
5.25
  1
ブラケット（右用）
 41
0.7949685750517456
  7
EXCADSTD
 72
     5
 11
130.6000008583069
 21
276.75
 31
0.0
100
AcDbText
  0
TEXT
  5
CE
330
1F
100
AcDbEntity
  8
0
  6
CONTINUOUS
 62
     2
100
AcDbText
 10
99.0
 20
264.25
 30
0.0
 40
5.25
  1
パイプ
 41
1.050980399636661
  7
EXCADSTD
 72
     5
 11
112.4000000953674
 21
264.25
 31
0.0
100
AcDbText
  0
TEXT
  5
CF
330
1F
100
AcDbEntity
  8
0
  6
CONTINUOUS
 62
     2
100
AcDbText
 10
129.0
 20
276.75
 30
0.0
 40
5.25
  1
合成樹脂
 41
1.020289863365284
  7
EXCADSTD
 72
     5
 11
146.6000001430511
 21
276.75
 31
0.0
100
AcDbText
  0
TEXT
  5
D0
330
1F
100
AcDbEntity
  8
0
  6
CONTINUOUS
 62
     2
100
AcDbText
 10
129.0
 20
264.25
 30
0.0
 40
5.25
  1
ステンレス
 41
1.002298859344132
  7
EXCADSTD
 72
     5
 11
150.8000001907349
 21
264.25
 31
0.0
100
AcDbText
  0
TEXT
  5
D1
330
1F
100
AcDbEntity
  8
0
  6
CONTINUOUS
 62
     2
100
AcDbText
 10
162.125
 20
276.9500000476837
 30
0.0
 40
4.849999904632568
  1
１
 41
1.096907238063761
  7
EXCADSTD
 72
     5
 11
165.925
 21
276.9500000476837
 31
0.0
100
AcDbText
  0
TEXT
  5
D2
330
1F
100
AcDbEntity
  8
0
  6
CONTINUOUS
 62
     2
100
AcDbText
 10
162.125
 20
264.4500000476837
 30
0.0
 40
4.849999904632568
  1
１
 41
1.096907238063761
  7
EXCADSTD
 72
     5
 11
165.925
 21
264.4500000476837
 31
0.0
100
AcDbText
  0
TEXT
  5
D3
330
1F
100
AcDbEntity
  8
0
  6
CONTINUOUS
 62
     2
100
AcDbText
 10
170.0
 20
276.9500000476837
 30
0.0
 40
4.849999904632568
  1
カラー対応
 41
1.022751528580109
  7
EXCADSTD
 72
     5
 11
190.5499999523163
 21
276.9500000476837
 31
0.0
100
AcDbText
  0
TEXT
  5
D4
330
1F
100
AcDbEntity
  8
0
  6
CONTINUOUS
 62
     2
100
AcDbText
 10
20.25
 20
25.75
 30
0.0
 40
4.5
  1
製図
 41
1.425822222222222
  7
EXCADSTD
 72
     5
 11
30.3326
 21
25.75
 31
0.0
100
AcDbText
  0
TEXT
  5
D5
330
1F
100
AcDbEntity
  8
0
  6
CONTINUOUS
 62
     2
100
AcDbText
 10
35.75
 20
25.75
 30
0.0
 40
4.5
  1
写図
 41
1.425822222222222
  7
EXCADSTD
 72
     5
 11
45.8326
 21
25.75
 31
0.0
100
AcDbText
  0
TEXT
  5
D6
330
1F
100
AcDbEntity
  8
0
  6
CONTINUOUS
 62
     2
100
AcDbText
 10
50.5
 20
25.75
 30
0.0
 40
4.5
  1
検図
 41
1.29620202020202
  7
EXCADSTD
 72
     5
 11
59.666
 21
25.75
 31
0.0
100
AcDbText
  0
TEXT
  5
D7
330
1F
100
AcDbEntity
  8
0
  6
CONTINUOUS
 62
     2
100
AcDbText
 10
63.5
 20
25.75
 30
0.0
 40
4.5
  1
承認
 41
1.29620202020202
  7
EXCADSTD
 72
     5
 11
72.666
 21
25.75
 31
0.0
100
AcDbText
  0
TEXT
  5
D8
330
1F
100
AcDbEntity
  8
0
  6
CONTINUOUS
 62
     2
100
AcDbText
 10
77.5
 20
29.5
 30
0.0
 40
3.818181818181818
  1
品名
  7
EXCADVERT
 72
     3
 11
77.5
 21
19.5
 31
0.0
100
AcDbText
  0
TEXT
  5
D9
330
1F
100
AcDbEntity
  8
0
  6
CONTINUOUS
 62
     2
100
AcDbText
 10
141.5
 20
29.5
 30
0.0
 40
3.818181818181818
  1
品番
  7
EXCADVERT
 72
     3
 11
141.5
 21
19.5
 31
0.0
100
AcDbText
  0
TEXT
  5
DA
330
1F
100
AcDbEntity
  8
0
  6
CONTINUOUS
 62
     2
100
AcDbText
 10
183.5
 20
29.5
 30
0.0
 40
3.818181818181818
  1
尺度
  7
EXCADVERT
 72
     3
 11
183.5
 21
19.5
 31
0.0
100
AcDbText
  0
TEXT
  5
DB
330
1F
100
AcDbEntity
  8
0
  6
CONTINUOUS
 62
     2
100
AcDbText
 10
141.5
 20
18.0
 30
0.0
 40
3.436363636363637
  1
図番
  7
EXCADVERT
 72
     3
 11
141.5
 21
9.0
 31
0.0
100
AcDbText
  0
LINE
  5
DC
330
1F
100
AcDbEntity
  8
0
  6
CONTINUOUS
 62
     6
100
AcDbLine
 10
88.0
 20
257.5
 30
0.0
 11
200.0
 21
257.5
 31
0.0
  0
TEXT
  5
DD
330
1F
100
AcDbEntity
  8
0
  6
CONTINUOUS
 62
     2
100
AcDbText
 10
91.0
 20
258.125
 30
0.0
 40
5.0
  1
４
 41
1.12
  7
EXCADSTD
 72
     5
 11
95.0
 21
258.125
 31
0.0
100
AcDbText
  0
TEXT
  5
DE
330
1F
100
AcDbEntity
  8
0
  6
CONTINUOUS
 62
     2
100
AcDbText
 10
99.0
 20
258.0
 30
0.0
 40
5.25
  1
タッピンねじ
 41
0.9904761995588031
  7
EXCADSTD
 72
     5
 11
125.0000002384186
 21
258.0
 31
0.0
100
AcDbText
  0
TEXT
  5
DF
330
1F
100
AcDbEntity
  8
0
  6
CONTINUOUS
 62
     2
100
AcDbText
 10
129.0
 20
258.0
 30
0.0
 40
5.25
  1
ステンレス
 41
1.002298859344132
  7
EXCADSTD
 72
     5
 11
150.8000001907349
 21
258.0
 31
0.0
100
AcDbText
  0
TEXT
  5
E0
330
1F
100
AcDbEntity
  8
0
  6
CONTINUOUS
 62
     2
100
AcDbText
 10
162.125
 20
258.2000000476837
 30
0.0
 40
4.849999904632568
  1
４
 41
1.096907238063761
  7
EXCADSTD
 72
     5
 11
165.925
 21
258.2000000476837
 31
0.0
100
AcDbText
  0
TEXT
  5
E1
330
1F
100
AcDbEntity
  8
0
  6
CONTINUOUS
 62
     2
100
AcDbText
 10
170.0
 20
258.2000000476837
 30
0.0
 40
4.849999904632568
  1
皿
 41
1.096907238063761
  7
EXCADSTD
 72
     5
 11
173.8
 21
258.2000000476837
 31
0.0
100
AcDbText
  0
TEXT
  5
E2
330
1F
100
AcDbEntity
  8
0
  6
CONTINUOUS
 62
     2
100
AcDbText
 10
99.0
 20
270.5
 30
0.0
 40
5.25
  1
ブラケット（左用）
 41
0.7949685750517456
  7
EXCADSTD
 72
     5
 11
130.6000008583069
 21
270.5
 31
0.0
100
AcDbText
  0
TEXT
  5
E3
330
1F
100
AcDbEntity
  8
0
  6
CONTINUOUS
 62
     2
100
AcDbText
 10
129.0
 20
270.5
 30
0.0
 40
5.25
  1
合成樹脂
 41
1.020289863365284
  7
EXCADSTD
 72
     5
 11
146.6000001430511
 21
270.5
 31
0.0
100
AcDbText
  0
TEXT
  5
E4
330
1F
100
AcDbEntity
  8
0
  6
CONTINUOUS
 62
     2
100
AcDbText
 10
162.125
 20
270.7000000476837
 30
0.0
 40
4.849999904632568
  1
１
 41
1.096907238063761
  7
EXCADSTD
 72
     5
 11
165.925
 21
270.7000000476837
 31
0.0
100
AcDbText
  0
TEXT
  5
E5
330
1F
100
AcDbEntity
  8
0
  6
CONTINUOUS
 62
     2
100
AcDbText
 10
170.0
 20
270.7000000476837
 30
0.0
 40
4.849999904632568
  1
カラー対応
 41
1.022751528580109
  7
EXCADSTD
 72
     5
 11
190.5499999523163
 21
270.7000000476837
 31
0.0
100
AcDbText
  0
TEXT
  5
E6
330
1F
100
AcDbEntity
  8
0
  6
CONTINUOUS
 62
     2
100
AcDbText
 10
189.2200000059605
 20
22.1
 30
0.0
 40
4.5
  1
ＮＳ
 41
1.062885655020463
  7
EXCADSTD
 72
     5
 11
196.7361199950337
 21
22.1
 31
0.0
100
AcDbText
  0
LINE
  5
E7
330
1F
100
AcDbEntity
  8
0
  6
CONTINUOUS
 62
     3
100
AcDbLine
 10
83.3447754
 20
15.12879944
 30
0.0
 11
82.53840943
 21
15.12879944
 31
0.0
  0
LINE
  5
E8
330
1F
100
AcDbEntity
  8
0
  6
CONTINUOUS
 62
     3
100
AcDbLine
 10
83.3447754
 20
15.93519592
 30
0.0
 11
83.3447754
 21
15.12879944
 31
0.0
  0
LINE
  5
E9
330
1F
100
AcDbEntity
  8
0
  6
CONTINUOUS
 62
     3
100
AcDbLine
 10
82.53840943
 20
15.93519592
 30
0.0
 11
83.3447754
 21
15.93519592
 31
0.0
  0
LINE
  5
EA
330
1F
100
AcDbEntity
  8
0
  6
CONTINUOUS
 62
     3
100
AcDbLine
 10
82.53840943
 20
15.93519592
 30
0.0
 11
82.53840943
 21
15.12879944
 31
0.0
  0
LINE
  5
EB
330
1F
100
AcDbEntity
  8
0
  6
CONTINUOUS
 62
     3
100
AcDbLine
 10
82.23591919
 20
15.12879944
 30
0.0
 11
81.42955323
 21
15.12879944
 31
0.0
  0
LINE
  5
EC
330
1F
100
AcDbEntity
  8
0
  6
CONTINUOUS
 62
     3
100
AcDbLine
 10
82.23591919
 20
15.93519592
 30
0.0
 11
82.23591919
 21
15.12879944
 31
0.0
  0
LINE
  5
ED
330
1F
100
AcDbEntity
  8
0
  6
CONTINUOUS
 62
     3
100
AcDbLine
 10
81.42955323
 20
15.93519592
 30
0.0
 11
82.23591919
 21
15.93519592
 31
0.0
  0
LINE
  5
EE
330
1F
100
AcDbEntity
  8
0
  6
CONTINUOUS
 62
     3
100
AcDbLine
 10
81.42955323
 20
15.93519592
 30
0.0
 11
81.42955323
 21
15.12879944
 31
0.0
  0
LINE
  5
EF
330
1F
100
AcDbEntity
  8
0
  6
CONTINUOUS
 62
     3
100
AcDbLine
 10
80.58873291
 20
11.5
 30
0.0
 11
77.7
 21
11.5
 31
0.0
  0
ARC
  5
F0
330
1F
100
AcDbEntity
  8
0
  6
CONTINUOUS
 62
     3
100
AcDbCircle
 10
80.58873291
 20
13.31440735
 30
0.0
 40
1.81439972
100
AcDbArc
 50
270.0000305200002
 51
334.0001373300001
  0
LINE
  5
F1
330
1F
100
AcDbEntity
  8
0
  6
CONTINUOUS
 62
     3
100
AcDbLine
 10
83.3447754
 20
14.82640076
 30
0.0
 11
82.21930237
 21
12.51901245
 31
0.0
  0
LINE
  5
F2
330
1F
100
AcDbEntity
  8
0
  6
CONTINUOUS
 62
     3
100
AcDbLine
 10
82.11122437
 20
14.82640076
 30
0.0
 11
83.3447754
 21
14.82640076
 31
0.0
  0
LINE
  5
F3
330
1F
100
AcDbEntity
  8
0
  6
CONTINUOUS
 62
     3
100
AcDbLine
 10
81.201297
 20
12.96090698
 30
0.0
 11
82.11122437
 21
14.82640076
 31
0.0
  0
ARC
  5
F4
330
1F
100
AcDbEntity
  8
0
  6
CONTINUOUS
 62
     3
100
AcDbCircle
 10
80.4765503
 20
13.31440735
 30
0.0
 40
0.8064000000000001
100
AcDbArc
 50
270.0000305200002
 51
333.9985504200004
  0
LINE
  5
F5
330
1F
100
AcDbEntity
  8
0
  6
CONTINUOUS
 62
     3
100
AcDbLine
 10
77.7
 20
12.50799561
 30
0.0
 11
80.4765503
 21
12.50799561
 31
0.0
  0
LINE
  5
F6
330
1F
100
AcDbEntity
  8
0
  6
CONTINUOUS
 62
     3
100
AcDbLine
 10
77.7
 20
12.50799561
 30
0.0
 11
77.7
 21
11.5
 31
0.0
  0
LINE
  5
F7
330
1F
100
AcDbEntity
  8
0
  6
CONTINUOUS
 62
     3
100
AcDbLine
 10
80.52249451
 20
13.81838989
 30
0.0
 11
77.7
 21
13.81838989
 31
0.0
  0
LINE
  5
F8
330
1F
100
AcDbEntity
  8
0
  6
CONTINUOUS
 62
     3
100
AcDbLine
 10
80.52249451
 20
14.7256012
 30
0.0
 11
80.52249451
 21
13.81838989
 31
0.0
  0
LINE
  5
F9
330
1F
100
AcDbEntity
  8
0
  6
CONTINUOUS
 62
     3
100
AcDbLine
 10
77.7
 20
14.7256012
 30
0.0
 11
80.52249451
 21
14.7256012
 31
0.0
  0
LINE
  5
FA
330
1F
100
AcDbEntity
  8
0
  6
CONTINUOUS
 62
     3
100
AcDbLine
 10
77.7
 20
14.7256012
 30
0.0
 11
77.7
 21
13.81838989
 31
0.0
  0
LINE
  5
FB
330
1F
100
AcDbEntity
  8
0
  6
CONTINUOUS
 62
     3
100
AcDbLine
 10
80.52249451
 20
15.02799988
 30
0.0
 11
77.7
 21
15.02799988
 31
0.0
  0
LINE
  5
FC
330
1F
100
AcDbEntity
  8
0
  6
CONTINUOUS
 62
     3
100
AcDbLine
 10
80.52249451
 20
15.93519592
 30
0.0
 11
80.52249451
 21
15.02799988
 31
0.0
  0
LINE
  5
FD
330
1F
100
AcDbEntity
  8
0
  6
CONTINUOUS
 62
     3
100
AcDbLine
 10
77.7
 20
15.93519592
 30
0.0
 11
80.52249451
 21
15.93519592
 31
0.0
  0
LINE
  5
FE
330
1F
100
AcDbEntity
  8
0
  6
CONTINUOUS
 62
     3
100
AcDbLine
 10
77.7
 20
15.93519592
 30
0.0
 11
77.7
 21
15.02799988
 31
0.0
  0
LINE
  5
FF
330
1F
100
AcDbEntity
  8
0
  6
CONTINUOUS
 62
     3
100
AcDbLine
 10
83.64726563
 20
14.82640076
 30
0.0
 11
83.64726563
 21
14.12078858
 31
0.0
  0
LINE
  5
100
330
1F
100
AcDbEntity
  8
0
  6
CONTINUOUS
 62
     3
100
AcDbLine
 10
83.64726563
 20
14.82640076
 30
0.0
 11
84.56540223
 21
14.82640076
 31
0.0
  0
LINE
  5
101
330
1F
100
AcDbEntity
  8
0
  6
CONTINUOUS
 62
     3
100
AcDbLine
 10
84.4536316
 20
15.53199768
 30
0.0
 11
84.56540223
 21
14.82640076
 31
0.0
  0
LINE
  5
102
330
1F
100
AcDbEntity
  8
0
  6
CONTINUOUS
 62
     3
100
AcDbLine
 10
84.4536316
 20
15.53199768
 30
0.0
 11
85.57623597
 21
15.53199768
 31
0.0
  0
LINE
  5
103
330
1F
100
AcDbEntity
  8
0
  6
CONTINUOUS
 62
     3
100
AcDbLine
 10
85.57623597
 20
15.53199768
 30
0.0
 11
85.68799134
 21
14.82640076
 31
0.0
  0
LINE
  5
104
330
1F
100
AcDbEntity
  8
0
  6
CONTINUOUS
 62
     3
100
AcDbLine
 10
85.68799134
 20
14.82640076
 30
0.0
 11
88.48567505
 21
14.82640076
 31
0.0
  0
LINE
  5
105
330
1F
100
AcDbEntity
  8
0
  6
CONTINUOUS
 62
     3
100
AcDbLine
 10
88.48567505
 20
14.82640076
 30
0.0
 11
87.89731141
 21
13.50505066
 31
0.0
  0
ARC
  5
106
330
1F
100
AcDbEntity
  8
0
  6
CONTINUOUS
 62
     3
100
AcDbCircle
 10
86.51610108
 20
14.1200409
 30
0.0
 40
1.51201057
100
AcDbArc
 50
263.4657745200003
 51
335.9987792800001
  0
LINE
  5
107
330
1F
100
AcDbEntity
  8
0
  6
CONTINUOUS
 62
     3
100
AcDbLine
 10
86.34384461
 20
12.61785889
 30
0.0
 11
86.23370667
 21
13.31440735
 31
0.0
  0
ARC
  5
108
330
1F
100
AcDbEntity
  8
0
  6
CONTINUOUS
 62
     3
100
AcDbCircle
 10
86.2058136
 20
13.91920471
 30
0.0
 40
0.60480058
100
AcDbArc
 50
272.6237487800003
 51
336.0065307700002
  0
LINE
  5
109
330
1F
100
AcDbEntity
  8
0
  6
CONTINUOUS
 62
     3
100
AcDbLine
 10
86.7585022
 20
13.67320252
 30
0.0
 11
86.9576294
 21
14.12078858
 31
0.0
  0
LINE
  5
10A
330
1F
100
AcDbEntity
  8
0
  6
CONTINUOUS
 62
     3
100
AcDbLine
 10
86.9576294
 20
14.12078858
 30
0.0
 11
85.79976197
 21
14.12078858
 31
0.0
  0
LINE
  5
10B
330
1F
100
AcDbEntity
  8
0
  6
CONTINUOUS
 62
     3
100
AcDbLine
 10
85.79976197
 20
14.12078858
 30
0.0
 11
86.21484681
 21
11.5
 31
0.0
  0
LINE
  5
10C
330
1F
100
AcDbEntity
  8
0
  6
CONTINUOUS
 62
     3
100
AcDbLine
 10
86.21484681
 20
11.5
 30
0.0
 11
85.09224244
 21
11.5
 31
0.0
  0
LINE
  5
10D
330
1F
100
AcDbEntity
  8
0
  6
CONTINUOUS
 62
     3
100
AcDbLine
 10
85.09224244
 20
11.5
 30
0.0
 11
84.67717286
 21
14.12078858
 31
0.0
  0
LINE
  5
10E
330
1F
100
AcDbEntity
  8
0
  6
CONTINUOUS
 62
     3
100
AcDbLine
 10
84.67717286
 20
14.12078858
 30
0.0
 11
83.64726563
 21
14.12078858
 31
0.0
  0
LINE
  5
10F
330
1F
100
AcDbEntity
  8
0
  6
CONTINUOUS
 62
     3
100
AcDbLine
 10
88.38476868
 20
11.5
 30
0.0
 11
88.38476868
 21
12.50799561
 31
0.0
  0
LINE
  5
110
330
1F
100
AcDbEntity
  8
0
  6
CONTINUOUS
 62
     3
100
AcDbLine
 10
88.38476868
 20
12.50799561
 30
0.0
 11
94.02954407
 21
12.50799561
 31
0.0
  0
LINE
  5
111
330
1F
100
AcDbEntity
  8
0
  6
CONTINUOUS
 62
     3
100
AcDbLine
 10
94.02954407
 20
12.50799561
 30
0.0
 11
94.02954407
 21
11.5
 31
0.0
  0
LINE
  5
112
330
1F
100
AcDbEntity
  8
0
  6
CONTINUOUS
 62
     3
100
AcDbLine
 10
94.02954407
 20
11.5
 30
0.0
 11
88.38476868
 21
11.5
 31
0.0
  0
LINE
  5
113
330
1F
100
AcDbEntity
  8
0
  6
CONTINUOUS
 62
     3
100
AcDbLine
 10
88.78795166
 20
15.93519592
 30
0.0
 11
88.78795166
 21
14.92720032
 31
0.0
  0
LINE
  5
114
330
1F
100
AcDbEntity
  8
0
  6
CONTINUOUS
 62
     3
100
AcDbLine
 10
88.78795166
 20
15.93519592
 30
0.0
 11
93.62636109
 21
15.93519592
 31
0.0
  0
LINE
  5
115
330
1F
100
AcDbEntity
  8
0
  6
CONTINUOUS
 62
     3
100
AcDbLine
 10
93.62636109
 20
15.93519592
 30
0.0
 11
93.62636109
 21
14.92720032
 31
0.0
  0
LINE
  5
116
330
1F
100
AcDbEntity
  8
0
  6
CONTINUOUS
 62
     3
100
AcDbLine
 10
93.62636109
 20
14.92720032
 30
0.0
 11
88.78795166
 21
14.92720032
 31
0.0
  0
LINE
  5
117
330
1F
100
AcDbEntity
  8
0
  6
CONTINUOUS
 62
     3
100
AcDbLine
 10
94.73521729
 20
15.93519592
 30
0.0
 11
94.73521729
 21
14.92720032
 31
0.0
  0
LINE
  5
118
330
1F
100
AcDbEntity
  8
0
  6
CONTINUOUS
 62
     3
100
AcDbLine
 10
94.73521729
 20
15.93519592
 30
0.0
 11
99.9768097
 21
15.93519592
 31
0.0
  0
LINE
  5
119
330
1F
100
AcDbEntity
  8
0
  6
CONTINUOUS
 62
     3
100
AcDbLine
 10
99.9768097
 20
15.93519592
 30
0.0
 11
98.40509339
 21
13.77189636
 31
0.0
  0
LINE
  5
11A
330
1F
100
AcDbEntity
  8
0
  6
CONTINUOUS
 62
     3
100
AcDbLine
 10
98.40509339
 20
13.77189636
 30
0.0
 11
100.37999268
 21
11.5
 31
0.0
  0
LINE
  5
11B
330
1F
100
AcDbEntity
  8
0
  6
CONTINUOUS
 62
     3
100
AcDbLine
 10
100.37999268
 20
11.5
 30
0.0
 11
98.91081543
 21
11.5
 31
0.0
  0
LINE
  5
11C
330
1F
100
AcDbEntity
  8
0
  6
CONTINUOUS
 62
     3
100
AcDbLine
 10
98.91081543
 20
11.5
 30
0.0
 11
97.73613282
 21
12.85127258
 31
0.0
  0
LINE
  5
11D
330
1F
100
AcDbEntity
  8
0
  6
CONTINUOUS
 62
     3
100
AcDbLine
 10
97.73613282
 20
12.85127258
 30
0.0
 11
97.29788514
 21
12.24792481
 31
0.0
  0
ARC
  5
11E
330
1F
100
AcDbEntity
  8
0
  6
CONTINUOUS
 62
     3
100
AcDbCircle
 10
95.82992859
 20
13.31440735
 30
0.0
 40
1.81439972
100
AcDbArc
 50
270.0000305200002
 51
324.0011596700001
  0
LINE
  5
11F
330
1F
100
AcDbEntity
  8
0
  6
CONTINUOUS
 62
     3
100
AcDbLine
 10
95.82992859
 20
11.5
 30
0.0
 11
94.33203431
 21
11.5
 31
0.0
  0
LINE
  5
120
330
1F
100
AcDbEntity
  8
0
  6
CONTINUOUS
 62
     3
100
AcDbLine
 10
94.33203431
 20
11.5
 30
0.0
 11
94.33203431
 21
12.50799561
 31
0.0
  0
LINE
  5
121
330
1F
100
AcDbEntity
  8
0
  6
CONTINUOUS
 62
     3
100
AcDbLine
 10
94.33203431
 20
12.50799561
 30
0.0
 11
95.60270997
 21
12.50799561
 31
0.0
  0
ARC
  5
122
330
1F
100
AcDbEntity
  8
0
  6
CONTINUOUS
 62
     3
100
AcDbCircle
 10
95.60270997
 20
13.51599121
 30
0.0
 40
1.00799942
100
AcDbArc
 50
270.0000305200002
 51
323.9965972900001
  0
LINE
  5
123
330
1F
100
AcDbEntity
  8
0
  6
CONTINUOUS
 62
     3
100
AcDbLine
 10
96.41809388
 20
12.92350769
 30
0.0
 11
97.8739502
 21
14.92720032
 31
0.0
  0
LINE
  5
124
330
1F
100
AcDbEntity
  8
0
  6
CONTINUOUS
 62
     3
100
AcDbLine
 10
97.8739502
 20
14.92720032
 30
0.0
 11
94.73521729
 21
14.92720032
 31
0.0
  0
LINE
  5
125
330
1F
100
AcDbEntity
  8
0
  6
CONTINUOUS
 62
     3
100
AcDbLine
 10
101.58955689
 20
15.93519592
 30
0.0
 11
101.58955689
 21
15.229599
 31
0.0
  0
LINE
  5
126
330
1F
100
AcDbEntity
  8
0
  6
CONTINUOUS
 62
     3
100
AcDbLine
 10
101.58955689
 20
15.93519592
 30
0.0
 11
106.83113404
 21
15.93519592
 31
0.0
  0
LINE
  5
127
330
1F
100
AcDbEntity
  8
0
  6
CONTINUOUS
 62
     3
100
AcDbLine
 10
106.83113404
 20
15.93519592
 30
0.0
 11
106.83113404
 21
15.229599
 31
0.0
  0
LINE
  5
128
330
1F
100
AcDbEntity
  8
0
  6
CONTINUOUS
 62
     3
100
AcDbLine
 10
106.83113404
 20
15.229599
 30
0.0
 11
104.76477356
 21
15.229599
 31
0.0
  0
LINE
  5
129
330
1F
100
AcDbEntity
  8
0
  6
CONTINUOUS
 62
     3
100
AcDbLine
 10
104.76477356
 20
15.229599
 30
0.0
 11
104.76477356
 21
12.30641174
 31
0.0
  0
LINE
  5
12A
330
1F
100
AcDbEntity
  8
0
  6
CONTINUOUS
 62
     3
100
AcDbLine
 10
104.76477356
 20
12.30641174
 30
0.0
 11
107.03273316
 21
12.30641174
 31
0.0
  0
LINE
  5
12B
330
1F
100
AcDbEntity
  8
0
  6
CONTINUOUS
 62
     3
100
AcDbLine
 10
107.03273316
 20
12.30641174
 30
0.0
 11
107.03273316
 21
11.5
 31
0.0
  0
LINE
  5
12C
330
1F
100
AcDbEntity
  8
0
  6
CONTINUOUS
 62
     3
100
AcDbLine
 10
107.03273316
 20
11.5
 30
0.0
 11
101.38795777
 21
11.5
 31
0.0
  0
LINE
  5
12D
330
1F
100
AcDbEntity
  8
0
  6
CONTINUOUS
 62
     3
100
AcDbLine
 10
101.38795777
 20
11.5
 30
0.0
 11
101.38795777
 21
12.30641174
 31
0.0
  0
LINE
  5
12E
330
1F
100
AcDbEntity
  8
0
  6
CONTINUOUS
 62
     3
100
AcDbLine
 10
101.38795777
 20
12.30641174
 30
0.0
 11
103.65591736
 21
12.30641174
 31
0.0
  0
LINE
  5
12F
330
1F
100
AcDbEntity
  8
0
  6
CONTINUOUS
 62
     3
100
AcDbLine
 10
103.65591736
 20
12.30641174
 30
0.0
 11
103.65591736
 21
15.229599
 31
0.0
  0
LINE
  5
130
330
1F
100
AcDbEntity
  8
0
  6
CONTINUOUS
 62
     3
100
AcDbLine
 10
103.65591736
 20
15.229599
 30
0.0
 11
101.58955689
 21
15.229599
 31
0.0
  0
LINE
  5
131
330
1F
100
AcDbEntity
  8
0
  6
CONTINUOUS
 62
     3
100
AcDbLine
 10
107.13362427
 20
15.33039856
 30
0.0
 11
107.13362427
 21
14.86671448
 31
0.0
  0
LINE
  5
132
330
1F
100
AcDbEntity
  8
0
  6
CONTINUOUS
 62
     3
100
AcDbLine
 10
107.13362427
 20
15.33039856
 30
0.0
 11
108.00931092
 21
15.33039856
 31
0.0
  0
LINE
  5
133
330
1F
100
AcDbEntity
  8
0
  6
CONTINUOUS
 62
     3
100
AcDbLine
 10
108.00931092
 20
15.33039856
 30
0.0
 11
107.53682251
 21
15.93519592
 31
0.0
  0
LINE
  5
134
330
1F
100
AcDbEntity
  8
0
  6
CONTINUOUS
 62
     3
100
AcDbLine
 10
107.53682251
 20
15.93519592
 30
0.0
 11
108.432193
 21
15.93519592
 31
0.0
  0
LINE
  5
135
330
1F
100
AcDbEntity
  8
0
  6
CONTINUOUS
 62
     3
100
AcDbLine
 10
108.432193
 20
15.93519592
 30
0.0
 11
108.9046814
 21
15.33039856
 31
0.0
  0
LINE
  5
136
330
1F
100
AcDbEntity
  8
0
  6
CONTINUOUS
 62
     3
100
AcDbLine
 10
108.9046814
 20
15.33039856
 30
0.0
 11
109.09930726
 21
15.33039856
 31
0.0
  0
LINE
  5
137
330
1F
100
AcDbEntity
  8
0
  6
CONTINUOUS
 62
     3
100
AcDbLine
 10
109.09930726
 20
15.33039856
 30
0.0
 11
109.09930726
 21
15.93519592
 31
0.0
  0
LINE
  5
138
330
1F
100
AcDbEntity
  8
0
  6
CONTINUOUS
 62
     3
100
AcDbLine
 10
109.09930726
 20
15.93519592
 30
0.0
 11
109.80476685
 21
15.93519592
 31
0.0
  0
LINE
  5
139
330
1F
100
AcDbEntity
  8
0
  6
CONTINUOUS
 62
     3
100
AcDbLine
 10
109.80476685
 20
15.93519592
 30
0.0
 11
109.80476685
 21
15.33039856
 31
0.0
  0
LINE
  5
13A
330
1F
100
AcDbEntity
  8
0
  6
CONTINUOUS
 62
     3
100
AcDbLine
 10
109.80476685
 20
15.33039856
 30
0.0
 11
110.10725708
 21
15.33039856
 31
0.0
  0
LINE
  5
13B
330
1F
100
AcDbEntity
  8
0
  6
CONTINUOUS
 62
     3
100
AcDbLine
 10
110.10725708
 20
15.33039856
 30
0.0
 11
110.10725708
 21
15.93519592
 31
0.0
  0
LINE
  5
13C
330
1F
100
AcDbEntity
  8
0
  6
CONTINUOUS
 62
     3
100
AcDbLine
 10
110.10725708
 20
15.93519592
 30
0.0
 11
110.81273194
 21
15.93519592
 31
0.0
  0
LINE
  5
13D
330
1F
100
AcDbEntity
  8
0
  6
CONTINUOUS
 62
     3
100
AcDbLine
 10
110.81273194
 20
15.93519592
 30
0.0
 11
110.81273194
 21
15.33039856
 31
0.0
  0
LINE
  5
13E
330
1F
100
AcDbEntity
  8
0
  6
CONTINUOUS
 62
     3
100
AcDbLine
 10
110.81273194
 20
15.33039856
 30
0.0
 11
111.00735779
 21
15.33039856
 31
0.0
  0
LINE
  5
13F
330
1F
100
AcDbEntity
  8
0
  6
CONTINUOUS
 62
     3
100
AcDbLine
 10
111.00735779
 20
15.33039856
 30
0.0
 11
111.4798462
 21
15.93519592
 31
0.0
  0
LINE
  5
140
330
1F
100
AcDbEntity
  8
0
  6
CONTINUOUS
 62
     3
100
AcDbLine
 10
111.4798462
 20
15.93519592
 30
0.0
 11
112.37521668
 21
15.93519592
 31
0.0
  0
LINE
  5
141
330
1F
100
AcDbEntity
  8
0
  6
CONTINUOUS
 62
     3
100
AcDbLine
 10
112.37521668
 20
15.93519592
 30
0.0
 11
111.90272828
 21
15.33039856
 31
0.0
  0
LINE
  5
142
330
1F
100
AcDbEntity
  8
0
  6
CONTINUOUS
 62
     3
100
AcDbLine
 10
111.90272828
 20
15.33039856
 30
0.0
 11
112.77839966
 21
15.33039856
 31
0.0
  0
LINE
  5
143
330
1F
100
AcDbEntity
  8
0
  6
CONTINUOUS
 62
     3
100
AcDbLine
 10
112.77839966
 20
15.33039856
 30
0.0
 11
112.77839966
 21
14.86671448
 31
0.0
  0
LINE
  5
144
330
1F
100
AcDbEntity
  8
0
  6
CONTINUOUS
 62
     3
100
AcDbLine
 10
112.77839966
 20
14.86671448
 30
0.0
 11
111.71609803
 21
14.86671448
 31
0.0
  0
LINE
  5
145
330
1F
100
AcDbEntity
  8
0
  6
CONTINUOUS
 62
     3
100
AcDbLine
 10
111.71609803
 20
14.86671448
 30
0.0
 11
111.53276368
 21
14.36273194
 31
0.0
  0
LINE
  5
146
330
1F
100
AcDbEntity
  8
0
  6
CONTINUOUS
 62
     3
100
AcDbLine
 10
111.53276368
 20
14.36273194
 30
0.0
 11
112.77839966
 21
14.36273194
 31
0.0
  0
LINE
  5
147
330
1F
100
AcDbEntity
  8
0
  6
CONTINUOUS
 62
     3
100
AcDbLine
 10
112.77839966
 20
14.36273194
 30
0.0
 11
112.77839966
 21
13.89904785
 31
0.0
  0
LINE
  5
148
330
1F
100
AcDbEntity
  8
0
  6
CONTINUOUS
 62
     3
100
AcDbLine
 10
112.77839966
 20
13.89904785
 30
0.0
 11
110.45999451
 21
13.89904785
 31
0.0
  0
LINE
  5
149
330
1F
100
AcDbEntity
  8
0
  6
CONTINUOUS
 62
     3
100
AcDbLine
 10
110.45999451
 20
13.89904785
 30
0.0
 11
110.45999451
 21
13.66720581
 31
0.0
  0
LINE
  5
14A
330
1F
100
AcDbEntity
  8
0
  6
CONTINUOUS
 62
     3
100
AcDbLine
 10
110.45999451
 20
13.66720581
 30
0.0
 11
112.77839966
 21
13.66720581
 31
0.0
  0
LINE
  5
14B
330
1F
100
AcDbEntity
  8
0
  6
CONTINUOUS
 62
     3
100
AcDbLine
 10
112.77839966
 20
13.66720581
 30
0.0
 11
112.77839966
 21
13.20352173
 31
0.0
  0
LINE
  5
14C
330
1F
100
AcDbEntity
  8
0
  6
CONTINUOUS
 62
     3
100
AcDbLine
 10
112.77839966
 20
13.20352173
 30
0.0
 11
110.45999451
 21
13.20352173
 31
0.0
  0
LINE
  5
14D
330
1F
100
AcDbEntity
  8
0
  6
CONTINUOUS
 62
     3
100
AcDbLine
 10
110.45999451
 20
13.20352173
 30
0.0
 11
110.45999451
 21
12.97167969
 31
0.0
  0
LINE
  5
14E
330
1F
100
AcDbEntity
  8
0
  6
CONTINUOUS
 62
     3
100
AcDbLine
 10
110.45999451
 20
12.97167969
 30
0.0
 11
112.77839966
 21
12.97167969
 31
0.0
  0
LINE
  5
14F
330
1F
100
AcDbEntity
  8
0
  6
CONTINUOUS
 62
     3
100
AcDbLine
 10
112.77839966
 20
12.97167969
 30
0.0
 11
112.77839966
 21
12.50799561
 31
0.0
  0
LINE
  5
150
330
1F
100
AcDbEntity
  8
0
  6
CONTINUOUS
 62
     3
100
AcDbLine
 10
112.77839966
 20
12.50799561
 30
0.0
 11
111.66278382
 21
12.50799561
 31
0.0
  0
LINE
  5
151
330
1F
100
AcDbEntity
  8
0
  6
CONTINUOUS
 62
     3
100
AcDbLine
 10
111.66278382
 20
12.50799561
 30
0.0
 11
112.77839966
 21
11.5
 31
0.0
  0
LINE
  5
152
330
1F
100
AcDbEntity
  8
0
  6
CONTINUOUS
 62
     3
100
AcDbLine
 10
112.77839966
 20
11.5
 30
0.0
 11
111.57562562
 21
11.5
 31
0.0
  0
LINE
  5
153
330
1F
100
AcDbEntity
  8
0
  6
CONTINUOUS
 62
     3
100
AcDbLine
 10
111.57562562
 20
11.5
 30
0.0
 11
110.45999451
 21
12.50799561
 31
0.0
  0
LINE
  5
154
330
1F
100
AcDbEntity
  8
0
  6
CONTINUOUS
 62
     3
100
AcDbLine
 10
110.45999451
 20
12.50799561
 30
0.0
 11
110.45999451
 21
11.5
 31
0.0
  0
LINE
  5
155
330
1F
100
AcDbEntity
  8
0
  6
CONTINUOUS
 62
     3
100
AcDbLine
 10
110.45999451
 20
11.5
 30
0.0
 11
109.45204468
 21
11.5
 31
0.0
  0
LINE
  5
156
330
1F
100
AcDbEntity
  8
0
  6
CONTINUOUS
 62
     3
100
AcDbLine
 10
109.45204468
 20
11.5
 30
0.0
 11
109.45204468
 21
12.50799561
 31
0.0
  0
LINE
  5
157
330
1F
100
AcDbEntity
  8
0
  6
CONTINUOUS
 62
     3
100
AcDbLine
 10
109.45204468
 20
12.50799561
 30
0.0
 11
108.33641358
 21
11.5
 31
0.0
  0
LINE
  5
158
330
1F
100
AcDbEntity
  8
0
  6
CONTINUOUS
 62
     3
100
AcDbLine
 10
108.33641358
 20
11.5
 30
0.0
 11
107.13362427
 21
11.5
 31
0.0
  0
LINE
  5
159
330
1F
100
AcDbEntity
  8
0
  6
CONTINUOUS
 62
     3
100
AcDbLine
 10
107.13362427
 20
11.5
 30
0.0
 11
108.24925538
 21
12.50799561
 31
0.0
  0
LINE
  5
15A
330
1F
100
AcDbEntity
  8
0
  6
CONTINUOUS
 62
     3
100
AcDbLine
 10
108.24925538
 20
12.50799561
 30
0.0
 11
107.13362427
 21
12.50799561
 31
0.0
  0
LINE
  5
15B
330
1F
100
AcDbEntity
  8
0
  6
CONTINUOUS
 62
     3
100
AcDbLine
 10
107.13362427
 20
12.50799561
 30
0.0
 11
107.13362427
 21
12.97167969
 31
0.0
  0
LINE
  5
15C
330
1F
100
AcDbEntity
  8
0
  6
CONTINUOUS
 62
     3
100
AcDbLine
 10
107.13362427
 20
12.97167969
 30
0.0
 11
109.45204468
 21
12.97167969
 31
0.0
  0
LINE
  5
15D
330
1F
100
AcDbEntity
  8
0
  6
CONTINUOUS
 62
     3
100
AcDbLine
 10
109.45204468
 20
12.97167969
 30
0.0
 11
109.45204468
 21
13.20352173
 31
0.0
  0
LINE
  5
15E
330
1F
100
AcDbEntity
  8
0
  6
CONTINUOUS
 62
     3
100
AcDbLine
 10
109.45204468
 20
13.20352173
 30
0.0
 11
107.13362427
 21
13.20352173
 31
0.0
  0
LINE
  5
15F
330
1F
100
AcDbEntity
  8
0
  6
CONTINUOUS
 62
     3
100
AcDbLine
 10
107.13362427
 20
13.20352173
 30
0.0
 11
107.13362427
 21
13.66720581
 31
0.0
  0
LINE
  5
160
330
1F
100
AcDbEntity
  8
0
  6
CONTINUOUS
 62
     3
100
AcDbLine
 10
107.13362427
 20
13.66720581
 30
0.0
 11
109.45204468
 21
13.66720581
 31
0.0
  0
LINE
  5
161
330
1F
100
AcDbEntity
  8
0
  6
CONTINUOUS
 62
     3
100
AcDbLine
 10
109.45204468
 20
13.66720581
 30
0.0
 11
109.45204468
 21
13.89904785
 31
0.0
  0
LINE
  5
162
330
1F
100
AcDbEntity
  8
0
  6
CONTINUOUS
 62
     3
100
AcDbLine
 10
109.45204468
 20
13.89904785
 30
0.0
 11
107.13362427
 21
13.89904785
 31
0.0
  0
LINE
  5
163
330
1F
100
AcDbEntity
  8
0
  6
CONTINUOUS
 62
     3
100
AcDbLine
 10
107.13362427
 20
13.89904785
 30
0.0
 11
107.13362427
 21
14.36273194
 31
0.0
  0
LINE
  5
164
330
1F
100
AcDbEntity
  8
0
  6
CONTINUOUS
 62
     3
100
AcDbLine
 10
107.13362427
 20
14.36273194
 30
0.0
 11
108.37927552
 21
14.36273194
 31
0.0
  0
LINE
  5
165
330
1F
100
AcDbEntity
  8
0
  6
CONTINUOUS
 62
     3
100
AcDbLine
 10
108.37927552
 20
14.36273194
 30
0.0
 11
108.19594117
 21
14.86671448
 31
0.0
  0
LINE
  5
166
330
1F
100
AcDbEntity
  8
0
  6
CONTINUOUS
 62
     3
100
AcDbLine
 10
108.19594117
 20
14.86671448
 30
0.0
 11
107.13362427
 21
14.86671448
 31
0.0
  0
LINE
  5
167
330
1F
100
AcDbEntity
  8
0
  6
CONTINUOUS
 62
     3
100
AcDbLine
 10
109.26849671
 20
14.86671448
 30
0.0
 11
110.64354249
 21
14.86671448
 31
0.0
  0
LINE
  5
168
330
1F
100
AcDbEntity
  8
0
  6
CONTINUOUS
 62
     3
100
AcDbLine
 10
110.64354249
 20
14.86671448
 30
0.0
 11
110.45999451
 21
14.36273194
 31
0.0
  0
LINE
  5
169
330
1F
100
AcDbEntity
  8
0
  6
CONTINUOUS
 62
     3
100
AcDbLine
 10
110.45999451
 20
14.36273194
 30
0.0
 11
109.45204468
 21
14.36273194
 31
0.0
  0
LINE
  5
16A
330
1F
100
AcDbEntity
  8
0
  6
CONTINUOUS
 62
     3
100
AcDbLine
 10
109.45204468
 20
14.36273194
 30
0.0
 11
109.26849671
 21
14.86671448
 31
0.0
  0
LINE
  5
16B
330
1F
100
AcDbEntity
  8
0
  6
CONTINUOUS
 62
     3
100
AcDbLine
 10
115.52563782
 20
15.93519592
 30
0.0
 11
115.19894715
 21
14.62480164
 31
0.0
  0
LINE
  5
16C
330
1F
100
AcDbEntity
  8
0
  6
CONTINUOUS
 62
     3
100
AcDbLine
 10
115.52563782
 20
15.93519592
 30
0.0
 11
116.35681458
 21
15.93519592
 31
0.0
  0
LINE
  5
16D
330
1F
100
AcDbEntity
  8
0
  6
CONTINUOUS
 62
     3
100
AcDbLine
 10
116.35681458
 20
15.93519592
 30
0.0
 11
116.23109742
 21
15.43119812
 31
0.0
  0
LINE
  5
16E
330
1F
100
AcDbEntity
  8
0
  6
CONTINUOUS
 62
     3
100
AcDbLine
 10
116.23109742
 20
15.43119812
 30
0.0
 11
116.5584137
 21
15.43119812
 31
0.0
  0
LINE
  5
16F
330
1F
100
AcDbEntity
  8
0
  6
CONTINUOUS
 62
     3
100
AcDbLine
 10
116.5584137
 20
15.43119812
 30
0.0
 11
116.5584137
 21
15.93519592
 31
0.0
  0
LINE
  5
170
330
1F
100
AcDbEntity
  8
0
  6
CONTINUOUS
 62
     3
100
AcDbLine
 10
116.5584137
 20
15.93519592
 30
0.0
 11
117.46567078
 21
15.93519592
 31
0.0
  0
LINE
  5
171
330
1F
100
AcDbEntity
  8
0
  6
CONTINUOUS
 62
     3
100
AcDbLine
 10
117.46567078
 20
15.93519592
 30
0.0
 11
117.46567078
 21
15.43119812
 31
0.0
  0
LINE
  5
172
330
1F
100
AcDbEntity
  8
0
  6
CONTINUOUS
 62
     3
100
AcDbLine
 10
117.46567078
 20
15.43119812
 30
0.0
 11
118.62477417
 21
15.43119812
 31
0.0
  0
LINE
  5
173
330
1F
100
AcDbEntity
  8
0
  6
CONTINUOUS
 62
     3
100
AcDbLine
 10
118.62477417
 20
15.43119812
 30
0.0
 11
118.62477417
 21
14.92720032
 31
0.0
  0
LINE
  5
174
330
1F
100
AcDbEntity
  8
0
  6
CONTINUOUS
 62
     3
100
AcDbLine
 10
117.46567078
 20
14.92720032
 30
0.0
 11
118.62477417
 21
14.92720032
 31
0.0
  0
LINE
  5
175
330
1F
100
AcDbEntity
  8
0
  6
CONTINUOUS
 62
     3
100
AcDbLine
 10
117.46567078
 20
14.92720032
 30
0.0
 11
117.46567078
 21
14.42320252
 31
0.0
  0
LINE
  5
176
330
1F
100
AcDbEntity
  8
0
  6
CONTINUOUS
 62
     3
100
AcDbLine
 10
117.46567078
 20
14.42320252
 30
0.0
 11
118.72566529
 21
14.42320252
 31
0.0
  0
LINE
  5
177
330
1F
100
AcDbEntity
  8
0
  6
CONTINUOUS
 62
     3
100
AcDbLine
 10
118.72566529
 20
14.42320252
 30
0.0
 11
118.72566529
 21
13.91920471
 31
0.0
  0
LINE
  5
178
330
1F
100
AcDbEntity
  8
0
  6
CONTINUOUS
 62
     3
100
AcDbLine
 10
118.72566529
 20
13.91920471
 30
0.0
 11
118.28515931
 21
13.91920471
 31
0.0
  0
LINE
  5
179
330
1F
100
AcDbEntity
  8
0
  6
CONTINUOUS
 62
     3
100
AcDbLine
 10
118.28515931
 20
13.91920471
 30
0.0
 11
118.72566529
 21
11.5
 31
0.0
  0
LINE
  5
17A
330
1F
100
AcDbEntity
  8
0
  6
CONTINUOUS
 62
     3
100
AcDbLine
 10
118.72566529
 20
11.5
 30
0.0
 11
117.9059784
 21
11.5
 31
0.0
  0
LINE
  5
17B
330
1F
100
AcDbEntity
  8
0
  6
CONTINUOUS
 62
     3
100
AcDbLine
 10
117.9059784
 20
11.5
 30
0.0
 11
117.46567078
 21
13.9191742
 31
0.0
  0
LINE
  5
17C
330
1F
100
AcDbEntity
  8
0
  6
CONTINUOUS
 62
     3
100
AcDbLine
 10
117.46567078
 20
13.9191742
 30
0.0
 11
117.46567078
 21
11.5
 31
0.0
  0
LINE
  5
17D
330
1F
100
AcDbEntity
  8
0
  6
CONTINUOUS
 62
     3
100
AcDbLine
 10
117.46567078
 20
11.5
 30
0.0
 11
116.5584137
 21
11.5
 31
0.0
  0
LINE
  5
17E
330
1F
100
AcDbEntity
  8
0
  6
CONTINUOUS
 62
     3
100
AcDbLine
 10
116.5584137
 20
11.5
 30
0.0
 11
116.5584137
 21
13.91920471
 31
0.0
  0
LINE
  5
17F
330
1F
100
AcDbEntity
  8
0
  6
CONTINUOUS
 62
     3
100
AcDbLine
 10
116.5584137
 20
13.91920471
 30
0.0
 11
116.11810608
 21
11.5
 31
0.0
  0
LINE
  5
180
330
1F
100
AcDbEntity
  8
0
  6
CONTINUOUS
 62
     3
100
AcDbLine
 10
116.11810608
 20
11.5
 30
0.0
 11
115.29840394
 21
11.5
 31
0.0
  0
LINE
  5
181
330
1F
100
AcDbEntity
  8
0
  6
CONTINUOUS
 62
     3
100
AcDbLine
 10
115.29840394
 20
11.5
 30
0.0
 11
115.73871155
 21
13.91920471
 31
0.0
  0
LINE
  5
182
330
1F
100
AcDbEntity
  8
0
  6
CONTINUOUS
 62
     3
100
AcDbLine
 10
115.73871155
 20
13.91920471
 30
0.0
 11
115.29840394
 21
13.91920471
 31
0.0
  0
LINE
  5
183
330
1F
100
AcDbEntity
  8
0
  6
CONTINUOUS
 62
     3
100
AcDbLine
 10
115.29840394
 20
13.91920471
 30
0.0
 11
115.29840394
 21
14.42320252
 31
0.0
  0
LINE
  5
184
330
1F
100
AcDbEntity
  8
0
  6
CONTINUOUS
 62
     3
100
AcDbLine
 10
115.29840394
 20
14.42320252
 30
0.0
 11
116.5584137
 21
14.42320252
 31
0.0
  0
LINE
  5
185
330
1F
100
AcDbEntity
  8
0
  6
CONTINUOUS
 62
     3
100
AcDbLine
 10
116.5584137
 20
14.42320252
 30
0.0
 11
116.5584137
 21
14.92720032
 31
0.0
  0
LINE
  5
186
330
1F
100
AcDbEntity
  8
0
  6
CONTINUOUS
 62
     3
100
AcDbLine
 10
116.5584137
 20
14.92720032
 30
0.0
 11
116.10539551
 21
14.92720032
 31
0.0
  0
LINE
  5
187
330
1F
100
AcDbEntity
  8
0
  6
CONTINUOUS
 62
     3
100
AcDbLine
 10
116.10539551
 20
14.92720032
 30
0.0
 11
116.03012391
 21
14.62480164
 31
0.0
  0
LINE
  5
188
330
1F
100
AcDbEntity
  8
0
  6
CONTINUOUS
 62
     3
100
AcDbLine
 10
116.03012391
 20
14.62480164
 30
0.0
 11
115.19894715
 21
14.62480164
 31
0.0
  0
LINE
  5
189
330
1F
100
AcDbEntity
  8
0
  6
CONTINUOUS
 62
     3
100
AcDbLine
 10
112.97999878
 20
15.43119812
 30
0.0
 11
112.97999878
 21
14.92720032
 31
0.0
  0
LINE
  5
18A
330
1F
100
AcDbEntity
  8
0
  6
CONTINUOUS
 62
     3
100
AcDbLine
 10
112.97999878
 20
15.43119812
 30
0.0
 11
113.98796387
 21
15.43119812
 31
0.0
  0
LINE
  5
18B
330
1F
100
AcDbEntity
  8
0
  6
CONTINUOUS
 62
     3
100
AcDbLine
 10
113.98796387
 20
15.43119812
 30
0.0
 11
113.98796387
 21
15.93519592
 31
0.0
  0
LINE
  5
18C
330
1F
100
AcDbEntity
  8
0
  6
CONTINUOUS
 62
     3
100
AcDbLine
 10
113.98796387
 20
15.93519592
 30
0.0
 11
114.89522095
 21
15.93519592
 31
0.0
  0
LINE
  5
18D
330
1F
100
AcDbEntity
  8
0
  6
CONTINUOUS
 62
     3
100
AcDbLine
 10
114.89522095
 20
15.93519592
 30
0.0
 11
114.89522095
 21
15.43119812
 31
0.0
  0
LINE
  5
18E
330
1F
100
AcDbEntity
  8
0
  6
CONTINUOUS
 62
     3
100
AcDbLine
 10
114.89522095
 20
15.43119812
 30
0.0
 11
115.19751282
 21
15.43119812
 31
0.0
  0
LINE
  5
18F
330
1F
100
AcDbEntity
  8
0
  6
CONTINUOUS
 62
     3
100
AcDbLine
 10
115.19751282
 20
15.43119812
 30
0.0
 11
115.19751282
 21
14.92720032
 31
0.0
  0
LINE
  5
190
330
1F
100
AcDbEntity
  8
0
  6
CONTINUOUS
 62
     3
100
AcDbLine
 10
115.19751282
 20
14.92720032
 30
0.0
 11
114.89522095
 21
14.92720032
 31
0.0
  0
LINE
  5
191
330
1F
100
AcDbEntity
  8
0
  6
CONTINUOUS
 62
     3
100
AcDbLine
 10
114.89522095
 20
14.92720032
 30
0.0
 11
115.19751282
 21
14.51100159
 31
0.0
  0
LINE
  5
192
330
1F
100
AcDbEntity
  8
0
  6
CONTINUOUS
 62
     3
100
AcDbLine
 10
115.19751282
 20
14.51100159
 30
0.0
 11
115.19751282
 21
13.48207092
 31
0.0
  0
LINE
  5
193
330
1F
100
AcDbEntity
  8
0
  6
CONTINUOUS
 62
     3
100
AcDbLine
 10
115.19751282
 20
13.48207092
 30
0.0
 11
114.89522095
 21
13.89828491
 31
0.0
  0
LINE
  5
194
330
1F
100
AcDbEntity
  8
0
  6
CONTINUOUS
 62
     3
100
AcDbLine
 10
114.89522095
 20
13.89828491
 30
0.0
 11
114.89522095
 21
11.5
 31
0.0
  0
LINE
  5
195
330
1F
100
AcDbEntity
  8
0
  6
CONTINUOUS
 62
     3
100
AcDbLine
 10
114.89522095
 20
11.5
 30
0.0
 11
113.98796387
 21
11.5
 31
0.0
  0
LINE
  5
196
330
1F
100
AcDbEntity
  8
0
  6
CONTINUOUS
 62
     3
100
AcDbLine
 10
113.98796387
 20
11.5
 30
0.0
 11
113.98796387
 21
14.92720032
 31
0.0
  0
LINE
  5
197
330
1F
100
AcDbEntity
  8
0
  6
CONTINUOUS
 62
     3
100
AcDbLine
 10
113.94838257
 20
14.92720032
 30
0.0
 11
113.58806153
 21
11.5
 31
0.0
  0
LINE
  5
198
330
1F
100
AcDbEntity
  8
0
  6
CONTINUOUS
 62
     3
100
AcDbLine
 10
113.58806153
 20
11.5
 30
0.0
 11
112.97999878
 21
11.5
 31
0.0
  0
LINE
  5
199
330
1F
100
AcDbEntity
  8
0
  6
CONTINUOUS
 62
     3
100
AcDbLine
 10
112.97999878
 20
11.5
 30
0.0
 11
113.34031983
 21
14.92720032
 31
0.0
  0
LINE
  5
19A
330
1F
100
AcDbEntity
  8
0
  6
CONTINUOUS
 62
     3
100
AcDbLine
 10
113.34031983
 20
14.92720032
 30
0.0
 11
112.97999878
 21
14.92720032
 31
0.0
  0
LINE
  5
19B
330
1F
100
AcDbEntity
  8
0
  6
CONTINUOUS
 62
     3
100
AcDbLine
 10
119.22955628
 20
14.32240296
 30
0.0
 11
119.22955628
 21
13.71760559
 31
0.0
  0
LINE
  5
19C
330
1F
100
AcDbEntity
  8
0
  6
CONTINUOUS
 62
     3
100
AcDbLine
 10
119.22955628
 20
14.32240296
 30
0.0
 11
122.25363465
 21
14.32240296
 31
0.0
  0
LINE
  5
19D
330
1F
100
AcDbEntity
  8
0
  6
CONTINUOUS
 62
     3
100
AcDbLine
 10
122.25363465
 20
14.32240296
 30
0.0
 11
122.25363465
 21
13.71760559
 31
0.0
  0
LINE
  5
19E
330
1F
100
AcDbEntity
  8
0
  6
CONTINUOUS
 62
     3
100
AcDbLine
 10
122.25363465
 20
13.71760559
 30
0.0
 11
121.29591675
 21
13.71760559
 31
0.0
  0
LINE
  5
19F
330
1F
100
AcDbEntity
  8
0
  6
CONTINUOUS
 62
     3
100
AcDbLine
 10
121.29591675
 20
13.71760559
 30
0.0
 11
121.29591675
 21
12.87741089
 31
0.0
  0
LINE
  5
1A0
330
1F
100
AcDbEntity
  8
0
  6
CONTINUOUS
 62
     3
100
AcDbLine
 10
121.29591675
 20
12.87741089
 30
0.0
 11
122.3040802
 21
13.09165955
 31
0.0
  0
LINE
  5
1A1
330
1F
100
AcDbEntity
  8
0
  6
CONTINUOUS
 62
     3
100
AcDbLine
 10
122.3040802
 20
13.09165955
 30
0.0
 11
122.3040802
 21
12.16419983
 31
0.0
  0
LINE
  5
1A2
330
1F
100
AcDbEntity
  8
0
  6
CONTINUOUS
 62
     3
100
AcDbLine
 10
122.3040802
 20
12.16419983
 30
0.0
 11
119.17909546
 21
11.5
 31
0.0
  0
LINE
  5
1A3
330
1F
100
AcDbEntity
  8
0
  6
CONTINUOUS
 62
     3
100
AcDbLine
 10
119.17909546
 20
11.5
 30
0.0
 11
119.17909546
 21
12.42745972
 31
0.0
  0
LINE
  5
1A4
330
1F
100
AcDbEntity
  8
0
  6
CONTINUOUS
 62
     3
100
AcDbLine
 10
119.17909546
 20
12.42745972
 30
0.0
 11
120.18725892
 21
12.64172363
 31
0.0
  0
LINE
  5
1A5
330
1F
100
AcDbEntity
  8
0
  6
CONTINUOUS
 62
     3
100
AcDbLine
 10
120.18725892
 20
12.64172363
 30
0.0
 11
120.18725892
 21
13.71760559
 31
0.0
  0
LINE
  5
1A6
330
1F
100
AcDbEntity
  8
0
  6
CONTINUOUS
 62
     3
100
AcDbLine
 10
120.18725892
 20
13.71760559
 30
0.0
 11
119.22955628
 21
13.71760559
 31
0.0
  0
LINE
  5
1A7
330
1F
100
AcDbEntity
  8
0
  6
CONTINUOUS
 62
     3
100
AcDbLine
 10
118.92726441
 20
15.53199768
 30
0.0
 11
118.92726441
 21
14.92720032
 31
0.0
  0
LINE
  5
1A8
330
1F
100
AcDbEntity
  8
0
  6
CONTINUOUS
 62
     3
100
AcDbLine
 10
118.92726441
 20
15.53199768
 30
0.0
 11
121.92448731
 21
15.53199768
 31
0.0
  0
LINE
  5
1A9
330
1F
100
AcDbEntity
  8
0
  6
CONTINUOUS
 62
     3
100
AcDbLine
 10
121.92448731
 20
15.53199768
 30
0.0
 11
121.77785035
 21
15.93519592
 31
0.0
  0
LINE
  5
1AA
330
1F
100
AcDbEntity
  8
0
  6
CONTINUOUS
 62
     3
100
AcDbLine
 10
121.77785035
 20
15.93519592
 30
0.0
 11
122.95765992
 21
15.93519592
 31
0.0
  0
LINE
  5
1AB
330
1F
100
AcDbEntity
  8
0
  6
CONTINUOUS
 62
     3
100
AcDbLine
 10
122.95765992
 20
15.93519592
 30
0.0
 11
123.10449524
 21
15.53199768
 31
0.0
  0
LINE
  5
1AC
330
1F
100
AcDbEntity
  8
0
  6
CONTINUOUS
 62
     3
100
AcDbLine
 10
123.10449524
 20
15.53199768
 30
0.0
 11
123.36249085
 21
15.53199768
 31
0.0
  0
LINE
  5
1AD
330
1F
100
AcDbEntity
  8
0
  6
CONTINUOUS
 62
     3
100
AcDbLine
 10
123.36249085
 20
15.53199768
 30
0.0
 11
123.36249085
 21
15.93519592
 31
0.0
  0
LINE
  5
1AE
330
1F
100
AcDbEntity
  8
0
  6
CONTINUOUS
 62
     3
100
AcDbLine
 10
123.36249085
 20
15.93519592
 30
0.0
 11
124.26954957
 21
15.93519592
 31
0.0
  0
LINE
  5
1AF
330
1F
100
AcDbEntity
  8
0
  6
CONTINUOUS
 62
     3
100
AcDbLine
 10
124.26954957
 20
15.93519592
 30
0.0
 11
124.26954957
 21
15.53199768
 31
0.0
  0
LINE
  5
1B0
330
1F
100
AcDbEntity
  8
0
  6
CONTINUOUS
 62
     3
100
AcDbLine
 10
124.26954957
 20
15.53199768
 30
0.0
 11
124.5720398
 21
15.53199768
 31
0.0
  0
LINE
  5
1B1
330
1F
100
AcDbEntity
  8
0
  6
CONTINUOUS
 62
     3
100
AcDbLine
 10
124.5720398
 20
15.53199768
 30
0.0
 11
124.5720398
 21
14.92720032
 31
0.0
  0
LINE
  5
1B2
330
1F
100
AcDbEntity
  8
0
  6
CONTINUOUS
 62
     3
100
AcDbLine
 10
124.5720398
 20
14.92720032
 30
0.0
 11
123.32454224
 21
14.92720032
 31
0.0
  0
LINE
  5
1B3
330
1F
100
AcDbEntity
  8
0
  6
CONTINUOUS
 62
     3
100
AcDbLine
 10
123.32454224
 20
14.92720032
 30
0.0
 11
124.5720398
 21
11.5
 31
0.0
  0
LINE
  5
1B4
330
1F
100
AcDbEntity
  8
0
  6
CONTINUOUS
 62
     3
100
AcDbLine
 10
124.5720398
 20
11.5
 30
0.0
 11
123.39201661
 21
11.5
 31
0.0
  0
LINE
  5
1B5
330
1F
100
AcDbEntity
  8
0
  6
CONTINUOUS
 62
     3
100
AcDbLine
 10
123.39201661
 20
11.5
 30
0.0
 11
122.14473267
 21
14.92720032
 31
0.0
  0
LINE
  5
1B6
330
1F
100
AcDbEntity
  8
0
  6
CONTINUOUS
 62
     3
100
AcDbLine
 10
122.14473267
 20
14.92720032
 30
0.0
 11
118.92726441
 21
14.92720032
 31
0.0
  0
LINE
  5
1B7
330
1F
100
AcDbEntity
  8
0
  6
CONTINUOUS
 62
     3
100
AcDbLine
 10
124.77363892
 20
15.07478333
 30
0.0
 11
124.77363892
 21
14.43699646
 31
0.0
  0
LINE
  5
1B8
330
1F
100
AcDbEntity
  8
0
  6
CONTINUOUS
 62
     3
100
AcDbLine
 10
124.77363892
 20
15.07478333
 30
0.0
 11
127.64636536
 21
16.03599548
 31
0.0
  0
LINE
  5
1B9
330
1F
100
AcDbEntity
  8
0
  6
CONTINUOUS
 62
     3
100
AcDbLine
 10
127.64636536
 20
16.03599548
 30
0.0
 11
130.51910706
 21
15.07475281
 31
0.0
  0
LINE
  5
1BA
330
1F
100
AcDbEntity
  8
0
  6
CONTINUOUS
 62
     3
100
AcDbLine
 10
130.51910706
 20
15.07475281
 30
0.0
 11
130.51910706
 21
14.43699646
 31
0.0
  0
LINE
  5
1BB
330
1F
100
AcDbEntity
  8
0
  6
CONTINUOUS
 62
     3
100
AcDbLine
 10
130.51910706
 20
14.43699646
 30
0.0
 11
129.6624939
 21
14.72367859
 31
0.0
  0
LINE
  5
1BC
330
1F
100
AcDbEntity
  8
0
  6
CONTINUOUS
 62
     3
100
AcDbLine
 10
129.6624939
 20
14.72367859
 30
0.0
 11
129.6624939
 21
14.2216034
 31
0.0
  0
LINE
  5
1BD
330
1F
100
AcDbEntity
  8
0
  6
CONTINUOUS
 62
     3
100
AcDbLine
 10
129.6624939
 20
14.2216034
 30
0.0
 11
125.63045044
 21
14.2216034
 31
0.0
  0
LINE
  5
1BE
330
1F
100
AcDbEntity
  8
0
  6
CONTINUOUS
 62
     3
100
AcDbLine
 10
125.63045044
 20
14.2216034
 30
0.0
 11
125.63045044
 21
14.72367859
 31
0.0
  0
LINE
  5
1BF
330
1F
100
AcDbEntity
  8
0
  6
CONTINUOUS
 62
     3
100
AcDbLine
 10
125.63045044
 20
14.72367859
 30
0.0
 11
124.77363892
 21
14.43699646
 31
0.0
  0
LINE
  5
1C0
330
1F
100
AcDbEntity
  8
0
  6
CONTINUOUS
 62
     3
100
AcDbLine
 10
125.93745728
 20
14.82640076
 30
0.0
 11
127.64636536
 21
15.39822388
 31
0.0
  0
LINE
  5
1C1
330
1F
100
AcDbEntity
  8
0
  6
CONTINUOUS
 62
     3
100
AcDbLine
 10
127.64636536
 20
15.39822388
 30
0.0
 11
129.35548707
 21
14.82640076
 31
0.0
  0
LINE
  5
1C2
330
1F
100
AcDbEntity
  8
0
  6
CONTINUOUS
 62
     3
100
AcDbLine
 10
129.35548707
 20
14.82640076
 30
0.0
 11
125.93745728
 21
14.82640076
 31
0.0
  0
LINE
  5
1C3
330
1F
100
AcDbEntity
  8
0
  6
CONTINUOUS
 62
     3
100
AcDbLine
 10
124.77363892
 20
13.81838989
 30
0.0
 11
124.77363892
 21
13.21359253
 31
0.0
  0
LINE
  5
1C4
330
1F
100
AcDbEntity
  8
0
  6
CONTINUOUS
 62
     3
100
AcDbLine
 10
124.77363892
 20
13.81838989
 30
0.0
 11
130.51910706
 21
13.81838989
 31
0.0
  0
LINE
  5
1C5
330
1F
100
AcDbEntity
  8
0
  6
CONTINUOUS
 62
     3
100
AcDbLine
 10
130.51910706
 20
13.81838989
 30
0.0
 11
130.51910706
 21
13.21359253
 31
0.0
  0
LINE
  5
1C6
330
1F
100
AcDbEntity
  8
0
  6
CONTINUOUS
 62
     3
100
AcDbLine
 10
130.51910706
 20
13.21359253
 30
0.0
 11
129.72011109
 21
13.21359253
 31
0.0
  0
LINE
  5
1C7
330
1F
100
AcDbEntity
  8
0
  6
CONTINUOUS
 62
     3
100
AcDbLine
 10
129.72011109
 20
13.21359253
 30
0.0
 11
130.51910706
 21
11.5
 31
0.0
  0
LINE
  5
1C8
330
1F
100
AcDbEntity
  8
0
  6
CONTINUOUS
 62
     3
100
AcDbLine
 10
130.51910706
 20
11.5
 30
0.0
 11
124.77363892
 21
11.5
 31
0.0
  0
LINE
  5
1C9
330
1F
100
AcDbEntity
  8
0
  6
CONTINUOUS
 62
     3
100
AcDbLine
 10
124.77363892
 20
11.5
 30
0.0
 11
125.57261963
 21
13.21359253
 31
0.0
  0
LINE
  5
1CA
330
1F
100
AcDbEntity
  8
0
  6
CONTINUOUS
 62
     3
100
AcDbLine
 10
125.57261963
 20
13.21359253
 30
0.0
 11
124.77363892
 21
13.21359253
 31
0.0
  0
LINE
  5
1CB
330
1F
100
AcDbEntity
  8
0
  6
CONTINUOUS
 62
     3
100
AcDbLine
 10
126.68475647
 20
13.21359253
 30
0.0
 11
128.60797425
 21
13.21359253
 31
0.0
  0
LINE
  5
1CC
330
1F
100
AcDbEntity
  8
0
  6
CONTINUOUS
 62
     3
100
AcDbLine
 10
128.60797425
 20
13.21359253
 30
0.0
 11
129.12497254
 21
12.10479736
 31
0.0
  0
LINE
  5
1CD
330
1F
100
AcDbEntity
  8
0
  6
CONTINUOUS
 62
     3
100
AcDbLine
 10
129.12497254
 20
12.10479736
 30
0.0
 11
126.16775818
 21
12.10479736
 31
0.0
  0
LINE
  5
1CE
330
1F
100
AcDbEntity
  8
0
  6
CONTINUOUS
 62
     3
100
AcDbLine
 10
126.68475647
 20
13.21359253
 30
0.0
 11
126.16775818
 21
12.10479736
 31
0.0
  0
LINE
  5
1CF
330
1F
100
AcDbEntity
  8
0
  6
CONTINUOUS
 62
     3
100
AcDbLine
 10
133.44249268
 20
14.82640076
 30
0.0
 11
133.44249268
 21
14.2216034
 31
0.0
  0
LINE
  5
1D0
330
1F
100
AcDbEntity
  8
0
  6
CONTINUOUS
 62
     3
100
AcDbLine
 10
133.44249268
 20
14.82640076
 30
0.0
 11
134.3495514
 21
14.82640076
 31
0.0
  0
LINE
  5
1D1
330
1F
100
AcDbEntity
  8
0
  6
CONTINUOUS
 62
     3
100
AcDbLine
 10
134.3495514
 20
14.82640076
 30
0.0
 11
134.3495514
 21
15.93519592
 31
0.0
  0
LINE
  5
1D2
330
1F
100
AcDbEntity
  8
0
  6
CONTINUOUS
 62
     3
100
AcDbLine
 10
134.3495514
 20
15.93519592
 30
0.0
 11
135.35750123
 21
15.93519592
 31
0.0
  0
LINE
  5
1D3
330
1F
100
AcDbEntity
  8
0
  6
CONTINUOUS
 62
     3
100
AcDbLine
 10
135.35750123
 20
15.93519592
 30
0.0
 11
135.35750123
 21
14.82640076
 31
0.0
  0
LINE
  5
1D4
330
1F
100
AcDbEntity
  8
0
  6
CONTINUOUS
 62
     3
100
AcDbLine
 10
135.35750123
 20
14.82640076
 30
0.0
 11
136.26477356
 21
14.82640076
 31
0.0
  0
LINE
  5
1D5
330
1F
100
AcDbEntity
  8
0
  6
CONTINUOUS
 62
     3
100
AcDbLine
 10
136.26477356
 20
14.82640076
 30
0.0
 11
136.26477356
 21
14.2216034
 31
0.0
  0
LINE
  5
1D6
330
1F
100
AcDbEntity
  8
0
  6
CONTINUOUS
 62
     3
100
AcDbLine
 10
136.26477356
 20
14.2216034
 30
0.0
 11
135.35750123
 21
14.2216034
 31
0.0
  0
LINE
  5
1D7
330
1F
100
AcDbEntity
  8
0
  6
CONTINUOUS
 62
     3
100
AcDbLine
 10
135.35750123
 20
14.2216034
 30
0.0
 11
135.35750123
 21
12.10479736
 31
0.0
  0
LINE
  5
1D8
330
1F
100
AcDbEntity
  8
0
  6
CONTINUOUS
 62
     3
100
AcDbLine
 10
135.35750123
 20
12.10479736
 30
0.0
 11
136.36566468
 21
12.10479736
 31
0.0
  0
LINE
  5
1D9
330
1F
100
AcDbEntity
  8
0
  6
CONTINUOUS
 62
     3
100
AcDbLine
 10
136.36566468
 20
12.10479736
 30
0.0
 11
136.36566468
 21
11.5
 31
0.0
  0
LINE
  5
1DA
330
1F
100
AcDbEntity
  8
0
  6
CONTINUOUS
 62
     3
100
AcDbLine
 10
136.36566468
 20
11.5
 30
0.0
 11
133.03909607
 21
11.5
 31
0.0
  0
LINE
  5
1DB
330
1F
100
AcDbEntity
  8
0
  6
CONTINUOUS
 62
     3
100
AcDbLine
 10
133.03909607
 20
11.5
 30
0.0
 11
133.03909607
 21
12.10479736
 31
0.0
  0
LINE
  5
1DC
330
1F
100
AcDbEntity
  8
0
  6
CONTINUOUS
 62
     3
100
AcDbLine
 10
133.03909607
 20
12.10479736
 30
0.0
 11
134.3495514
 21
12.10479736
 31
0.0
  0
LINE
  5
1DD
330
1F
100
AcDbEntity
  8
0
  6
CONTINUOUS
 62
     3
100
AcDbLine
 10
134.3495514
 20
12.10479736
 30
0.0
 11
134.3495514
 21
14.2216034
 31
0.0
  0
LINE
  5
1DE
330
1F
100
AcDbEntity
  8
0
  6
CONTINUOUS
 62
     3
100
AcDbLine
 10
134.3495514
 20
14.2216034
 30
0.0
 11
133.44249268
 21
14.2216034
 31
0.0
  0
LINE
  5
1DF
330
1F
100
AcDbEntity
  8
0
  6
CONTINUOUS
 62
     3
100
AcDbLine
 10
130.72069092
 20
15.53199768
 30
0.0
 11
130.72069092
 21
14.92720032
 31
0.0
  0
LINE
  5
1E0
330
1F
100
AcDbEntity
  8
0
  6
CONTINUOUS
 62
     3
100
AcDbLine
 10
130.72069092
 20
15.53199768
 30
0.0
 11
131.62796326
 21
15.53199768
 31
0.0
  0
LINE
  5
1E1
330
1F
100
AcDbEntity
  8
0
  6
CONTINUOUS
 62
     3
100
AcDbLine
 10
131.62796326
 20
15.53199768
 30
0.0
 11
131.62796326
 21
15.93519592
 31
0.0
  0
LINE
  5
1E2
330
1F
100
AcDbEntity
  8
0
  6
CONTINUOUS
 62
     3
100
AcDbLine
 10
131.62796326
 20
15.93519592
 30
0.0
 11
132.63591309
 21
15.93519592
 31
0.0
  0
LINE
  5
1E3
330
1F
100
AcDbEntity
  8
0
  6
CONTINUOUS
 62
     3
100
AcDbLine
 10
132.63591309
 20
15.93519592
 30
0.0
 11
132.63591309
 21
15.53199768
 31
0.0
  0
LINE
  5
1E4
330
1F
100
AcDbEntity
  8
0
  6
CONTINUOUS
 62
     3
100
AcDbLine
 10
132.63591309
 20
15.53199768
 30
0.0
 11
133.54318543
 21
15.53199768
 31
0.0
  0
LINE
  5
1E5
330
1F
100
AcDbEntity
  8
0
  6
CONTINUOUS
 62
     3
100
AcDbLine
 10
133.54318543
 20
15.53199768
 30
0.0
 11
132.50261231
 21
14.045578
 31
0.0
  0
LINE
  5
1E6
330
1F
100
AcDbEntity
  8
0
  6
CONTINUOUS
 62
     3
100
AcDbLine
 10
132.50261231
 20
14.045578
 30
0.0
 11
133.44249268
 21
13.3875885
 31
0.0
  0
LINE
  5
1E7
330
1F
100
AcDbEntity
  8
0
  6
CONTINUOUS
 62
     3
100
AcDbLine
 10
133.44249268
 20
13.3875885
 30
0.0
 11
133.44249268
 21
12.28012085
 31
0.0
  0
LINE
  5
1E8
330
1F
100
AcDbEntity
  8
0
  6
CONTINUOUS
 62
     3
100
AcDbLine
 10
133.44249268
 20
12.28012085
 30
0.0
 11
132.63591309
 21
12.84477234
 31
0.0
  0
LINE
  5
1E9
330
1F
100
AcDbEntity
  8
0
  6
CONTINUOUS
 62
     3
100
AcDbLine
 10
132.63591309
 20
12.84477234
 30
0.0
 11
132.63591309
 21
11.5
 31
0.0
  0
LINE
  5
1EA
330
1F
100
AcDbEntity
  8
0
  6
CONTINUOUS
 62
     3
100
AcDbLine
 10
132.63591309
 20
11.5
 30
0.0
 11
131.62796326
 21
11.5
 31
0.0
  0
LINE
  5
1EB
330
1F
100
AcDbEntity
  8
0
  6
CONTINUOUS
 62
     3
100
AcDbLine
 10
131.62796326
 20
11.5
 30
0.0
 11
131.62796326
 21
12.79598999
 31
0.0
  0
LINE
  5
1EC
330
1F
100
AcDbEntity
  8
0
  6
CONTINUOUS
 62
     3
100
AcDbLine
 10
131.62796326
 20
12.79598999
 30
0.0
 11
130.72069092
 21
11.5
 31
0.0
  0
LINE
  5
1ED
330
1F
100
AcDbEntity
  8
0
  6
CONTINUOUS
 62
     3
100
AcDbLine
 10
130.72069092
 20
11.5
 30
0.0
 11
130.72069092
 21
13.0819397
 31
0.0
  0
LINE
  5
1EE
330
1F
100
AcDbEntity
  8
0
  6
CONTINUOUS
 62
     3
100
AcDbLine
 10
130.72069092
 20
13.0819397
 30
0.0
 11
132.01248475
 21
14.92720032
 31
0.0
  0
LINE
  5
1EF
330
1F
100
AcDbEntity
  8
0
  6
CONTINUOUS
 62
     3
100
AcDbLine
 10
132.01248475
 20
14.92720032
 30
0.0
 11
130.72069092
 21
14.92720032
 31
0.0
  0
ARC
  5
1F0
330
1F
100
AcDbEntity
  8
0
  6
CONTINUOUS
 62
     2
100
AcDbCircle
 10
86.51610108
 20
14.1200409
 30
0.0
 40
0.6300122100000001
100
AcDbArc
 50
310.7683105900002
 51
335.9987793400003
  0
LINE
  5
1F1
330
1F
100
AcDbEntity
  8
0
  6
CONTINUOUS
 62
     2
100
AcDbLine
 10
87.24002381
 20
14.19641113
 30
0.0
 11
87.09196778
 21
13.86390686
 31
0.0
  0
LINE
  5
1F2
330
1F
100
AcDbEntity
  8
0
  6
CONTINUOUS
 62
     2
100
AcDbLine
 10
85.4985077
 20
14.57440186
 30
0.0
 11
87.82184144
 21
14.57440186
 31
0.0
  0
ARC
  5
1F3
330
1F
100
AcDbEntity
  8
0
  6
CONTINUOUS
 62
     2
100
AcDbCircle
 10
95.82992859
 20
13.31440735
 30
0.0
 40
1.56240082
100
AcDbArc
 50
270.0000305200002
 51
324.0011596700001
  0
ARC
  5
1F4
330
1F
100
AcDbEntity
  8
0
  6
CONTINUOUS
 62
     2
100
AcDbCircle
 10
95.82992859
 20
13.31440735
 30
0.0
 40
1.31040096
100
AcDbArc
 50
270.0000305200002
 51
324.0011596700001
  0
ARC
  5
1F5
330
1F
100
AcDbEntity
  8
0
  6
CONTINUOUS
 62
     2
100
AcDbCircle
 10
80.55656739
 20
13.31440735
 30
0.0
 40
1.56239796
100
AcDbArc
 50
270.0000305200002
 51
333.9985504200004
  0
ARC
  5
1F6
330
1F
100
AcDbEntity
  8
0
  6
CONTINUOUS
 62
     2
100
AcDbCircle
 10
80.4765503
 20
13.31440735
 30
0.0
 40
1.0583992
100
AcDbArc
 50
270.0000305200002
 51
333.9985504200004
  0
ARC
  5
1F7
330
1F
100
AcDbEntity
  8
0
  6
CONTINUOUS
 62
     2
100
AcDbCircle
 10
80.51655884
 20
13.31440735
 30
0.0
 40
1.31039906
100
AcDbArc
 50
270.0000305200002
 51
333.9985504200004
  0
LINE
  5
1F8
330
1F
100
AcDbEntity
  8
0
  6
CONTINUOUS
 62
     2
100
AcDbLine
 10
77.88408204
 20
15.70321274
 30
0.0
 11
80.33839722
 21
15.70321274
 31
0.0
  0
LINE
  5
1F9
330
1F
100
AcDbEntity
  8
0
  6
CONTINUOUS
 62
     2
100
AcDbLine
 10
77.88408204
 20
15.4712143
 30
0.0
 11
80.33839722
 21
15.4712143
 31
0.0
  0
LINE
  5
1FA
330
1F
100
AcDbEntity
  8
0
  6
CONTINUOUS
 62
     2
100
AcDbLine
 10
77.88408204
 20
15.23923111
 30
0.0
 11
80.33839722
 21
15.23923111
 31
0.0
  0
LINE
  5
1FB
330
1F
100
AcDbEntity
  8
0
  6
CONTINUOUS
 62
     2
100
AcDbLine
 10
77.88408204
 20
14.51360321
 30
0.0
 11
80.33839722
 21
14.51360321
 31
0.0
  0
LINE
  5
1FC
330
1F
100
AcDbEntity
  8
0
  6
CONTINUOUS
 62
     2
100
AcDbLine
 10
77.88408204
 20
14.26158905
 30
0.0
 11
80.33839722
 21
14.26158905
 31
0.0
  0
LINE
  5
1FD
330
1F
100
AcDbEntity
  8
0
  6
CONTINUOUS
 62
     2
100
AcDbLine
 10
77.88408204
 20
14.02960587
 30
0.0
 11
80.33839722
 21
14.02960587
 31
0.0
  0
LINE
  5
1FE
330
1F
100
AcDbEntity
  8
0
  6
CONTINUOUS
 62
     2
100
AcDbLine
 10
77.88408204
 20
12.25599671
 30
0.0
 11
80.4765503
 21
12.25599671
 31
0.0
  0
LINE
  5
1FF
330
1F
100
AcDbEntity
  8
0
  6
CONTINUOUS
 62
     2
100
AcDbLine
 10
77.88408204
 20
12.0039978
 30
0.0
 11
80.4765503
 21
12.0039978
 31
0.0
  0
LINE
  5
200
330
1F
100
AcDbEntity
  8
0
  6
CONTINUOUS
 62
     2
100
AcDbLine
 10
77.88408204
 20
11.7519989
 30
0.0
 11
80.4765503
 21
11.7519989
 31
0.0
  0
LINE
  5
201
330
1F
100
AcDbEntity
  8
0
  6
CONTINUOUS
 62
     2
100
AcDbLine
 10
81.42770691
 20
12.85040283
 30
0.0
 11
82.31082459
 21
14.66103649
 31
0.0
  0
LINE
  5
202
330
1F
100
AcDbEntity
  8
0
  6
CONTINUOUS
 62
     2
100
AcDbLine
 10
81.69412537
 20
12.73995972
 30
0.0
 11
82.63116761
 21
14.66103745
 31
0.0
  0
LINE
  5
203
330
1F
100
AcDbEntity
  8
0
  6
CONTINUOUS
 62
     2
100
AcDbLine
 10
81.96052857
 20
12.62942505
 30
0.0
 11
82.95131226
 21
14.66103459
 31
0.0
  0
LINE
  5
204
330
1F
100
AcDbEntity
  8
0
  6
CONTINUOUS
 62
     2
100
AcDbLine
 10
81.61363526
 20
15.66959763
 30
0.0
 11
82.05183716
 21
15.66959763
 31
0.0
  0
LINE
  5
205
330
1F
100
AcDbEntity
  8
0
  6
CONTINUOUS
 62
     2
100
AcDbLine
 10
81.61363526
 20
15.38399887
 30
0.0
 11
82.05183716
 21
15.38399887
 31
0.0
  0
LINE
  5
206
330
1F
100
AcDbEntity
  8
0
  6
CONTINUOUS
 62
     2
100
AcDbLine
 10
82.72249146
 20
15.66959763
 30
0.0
 11
83.16069336
 21
15.66959763
 31
0.0
  0
LINE
  5
207
330
1F
100
AcDbEntity
  8
0
  6
CONTINUOUS
 62
     2
100
AcDbLine
 10
82.72249146
 20
15.38399887
 30
0.0
 11
83.16069336
 21
15.38399887
 31
0.0
  0
LINE
  5
208
330
1F
100
AcDbEntity
  8
0
  6
CONTINUOUS
 62
     2
100
AcDbLine
 10
83.83134766
 20
14.32241821
 30
0.0
 11
85.02806397
 21
14.32241821
 31
0.0
  0
LINE
  5
209
330
1F
100
AcDbEntity
  8
0
  6
CONTINUOUS
 62
     2
100
AcDbLine
 10
84.73753663
 20
15.35026837
 30
0.0
 11
84.86050721
 21
14.57440186
 31
0.0
  0
LINE
  5
20A
330
1F
100
AcDbEntity
  8
0
  6
CONTINUOUS
 62
     2
100
AcDbLine
 10
85.31880494
 20
11.68173027
 30
0.0
 11
84.94490357
 21
14.04190445
 31
0.0
  0
ARC
  5
20B
330
1F
100
AcDbEntity
  8
0
  6
CONTINUOUS
 62
     2
100
AcDbCircle
 10
86.49609681
 20
14.1200409
 30
0.0
 40
0.8820121300000001
100
AcDbArc
 50
272.67138672
 51
335.9987793000003
  0
ARC
  5
20C
330
1F
100
AcDbEntity
  8
0
  6
CONTINUOUS
 62
     2
100
AcDbCircle
 10
86.47609253
 20
14.1200409
 30
0.0
 40
1.13401127
100
AcDbArc
 50
267.3674316300002
 51
335.9987792900002
  0
LINE
  5
20D
330
1F
100
AcDbEntity
  8
0
  6
CONTINUOUS
 62
     2
100
AcDbLine
 10
87.93516846
 20
14.60905266
 30
0.0
 11
87.51214905
 21
13.65885925
 31
0.0
  0
LINE
  5
20E
330
1F
100
AcDbEntity
  8
0
  6
CONTINUOUS
 62
     2
100
AcDbLine
 10
85.90906067
 20
11.68173027
 30
0.0
 11
85.52203675
 21
14.12488175
 31
0.0
  0
LINE
  5
20F
330
1F
100
AcDbEntity
  8
0
  6
CONTINUOUS
 62
     2
100
AcDbLine
 10
85.63392945
 20
11.68173027
 30
0.0
 11
85.05284424
 21
15.35026741
 31
0.0
  0
LINE
  5
210
330
1F
100
AcDbEntity
  8
0
  6
CONTINUOUS
 62
     2
100
AcDbLine
 10
85.32797547
 20
15.35026741
 30
0.0
 11
85.43956299
 21
14.6459465
 31
0.0
  0
LINE
  5
211
330
1F
100
AcDbEntity
  8
0
  6
CONTINUOUS
 62
     2
100
AcDbLine
 10
83.83134766
 20
14.57440186
 30
0.0
 11
84.66051026
 21
14.57440186
 31
0.0
  0
LINE
  5
212
330
1F
100
AcDbEntity
  8
0
  6
CONTINUOUS
 62
     2
100
AcDbLine
 10
87.56698914
 20
14.35703945
 30
0.0
 11
87.30205079
 21
13.76135254
 31
0.0
  0
LINE
  5
213
330
1F
100
AcDbEntity
  8
0
  6
CONTINUOUS
 62
     2
100
AcDbLine
 10
85.41073914
 20
14.32241821
 30
0.0
 11
87.33381958
 21
14.32241821
 31
0.0
  0
ARC
  5
214
330
1F
100
AcDbEntity
  8
0
  6
CONTINUOUS
 62
     2
100
AcDbCircle
 10
86.45608826
 20
14.1200409
 30
0.0
 40
1.38601112
100
AcDbArc
 50
269.6113281200002
 51
335.9987792900002
  0
LINE
  5
215
330
1F
100
AcDbEntity
  8
0
  6
CONTINUOUS
 62
     2
100
AcDbLine
 10
88.19098206
 20
14.60905552
 30
0.0
 11
87.72224732
 21
13.55633545
 31
0.0
  0
LINE
  5
216
330
1F
100
AcDbEntity
  8
0
  6
CONTINUOUS
 62
     2
100
AcDbLine
 10
98.93126221
 20
15.43121338
 30
0.0
 11
96.88806458
 21
12.61827088
 31
0.0
  0
LINE
  5
217
330
1F
100
AcDbEntity
  8
0
  6
CONTINUOUS
 62
     2
100
AcDbLine
 10
98.38681336
 20
15.17922974
 30
0.0
 11
96.63420411
 21
12.7664032
 31
0.0
  0
ARC
  5
218
330
1F
100
AcDbEntity
  8
0
  6
CONTINUOUS
 62
     2
100
AcDbCircle
 10
95.89993592
 20
13.27440643
 30
0.0
 40
0.9324020700000001
100
AcDbArc
 50
270.0000305200002
 51
324.0011596700001
  0
LINE
  5
219
330
1F
100
AcDbEntity
  8
0
  6
CONTINUOUS
 62
     2
100
AcDbLine
 10
88.98794861
 20
15.70155907
 30
0.0
 11
93.42636414
 21
15.70155907
 31
0.0
  0
LINE
  5
21A
330
1F
100
AcDbEntity
  8
0
  6
CONTINUOUS
 62
     2
100
AcDbLine
 10
88.98794861
 20
15.4395752
 30
0.0
 11
93.42636414
 21
15.4395752
 31
0.0
  0
LINE
  5
21B
330
1F
100
AcDbEntity
  8
0
  6
CONTINUOUS
 62
     2
100
AcDbLine
 10
88.98794861
 20
15.1675911
 30
0.0
 11
93.42636414
 21
15.1675911
 31
0.0
  0
LINE
  5
21C
330
1F
100
AcDbEntity
  8
0
  6
CONTINUOUS
 62
     2
100
AcDbLine
 10
88.58476563
 20
12.2644043
 30
0.0
 11
93.82954712
 21
12.2644043
 31
0.0
  0
LINE
  5
21D
330
1F
100
AcDbEntity
  8
0
  6
CONTINUOUS
 62
     2
100
AcDbLine
 10
88.58476563
 20
12.0124054
 30
0.0
 11
93.82954712
 21
12.0124054
 31
0.0
  0
LINE
  5
21E
330
1F
100
AcDbEntity
  8
0
  6
CONTINUOUS
 62
     2
100
AcDbLine
 10
88.58476563
 20
11.74039078
 30
0.0
 11
93.82954712
 21
11.74039078
 31
0.0
  0
LINE
  5
21F
330
1F
100
AcDbEntity
  8
0
  6
CONTINUOUS
 62
     2
100
AcDbLine
 10
94.93521424
 20
15.69321251
 30
0.0
 11
99.22568055
 21
15.69321251
 31
0.0
  0
LINE
  5
220
330
1F
100
AcDbEntity
  8
0
  6
CONTINUOUS
 62
     2
100
AcDbLine
 10
99.48569031
 20
15.68321228
 30
0.0
 11
97.1519043
 21
12.47006226
 31
0.0
  0
LINE
  5
221
330
1F
100
AcDbEntity
  8
0
  6
CONTINUOUS
 62
     2
100
AcDbLine
 10
94.93521424
 20
15.43121338
 30
0.0
 11
98.73125
 21
15.43121338
 31
0.0
  0
LINE
  5
222
330
1F
100
AcDbEntity
  8
0
  6
CONTINUOUS
 62
     2
100
AcDbLine
 10
95.82992859
 20
12.26599693
 30
0.0
 11
94.53203125
 21
12.26599693
 31
0.0
  0
LINE
  5
223
330
1F
100
AcDbEntity
  8
0
  6
CONTINUOUS
 62
     2
100
AcDbLine
 10
95.82992859
 20
12.0039978
 30
0.0
 11
94.53203125
 21
12.0039978
 31
0.0
  0
LINE
  5
224
330
1F
100
AcDbEntity
  8
0
  6
CONTINUOUS
 62
     2
100
AcDbLine
 10
95.82992859
 20
11.74199867
 30
0.0
 11
94.53203125
 21
11.74199867
 31
0.0
  0
LINE
  5
225
330
1F
100
AcDbEntity
  8
0
  6
CONTINUOUS
 62
     2
100
AcDbLine
 10
97.84318848
 20
13.07371521
 30
0.0
 11
99.03715821
 21
11.69999981
 31
0.0
  0
LINE
  5
226
330
1F
100
AcDbEntity
  8
0
  6
CONTINUOUS
 62
     2
100
AcDbLine
 10
97.99534913
 20
13.25305081
 30
0.0
 11
99.34517212
 21
11.69999981
 31
0.0
  0
LINE
  5
227
330
1F
100
AcDbEntity
  8
0
  6
CONTINUOUS
 62
     2
100
AcDbLine
 10
98.14731141
 20
13.43229485
 30
0.0
 11
99.6529419
 21
11.69999981
 31
0.0
  0
LINE
  5
228
330
1F
100
AcDbEntity
  8
0
  6
CONTINUOUS
 62
     2
100
AcDbLine
 10
98.29927369
 20
13.61158466
 30
0.0
 11
99.9609253
 21
11.69999981
 31
0.0
  0
LINE
  5
229
330
1F
100
AcDbEntity
  8
0
  6
CONTINUOUS
 62
     2
100
AcDbLine
 10
94.93521424
 20
15.15922928
 30
0.0
 11
98.1367981
 21
15.15922928
 31
0.0
  0
LINE
  5
22A
330
1F
100
AcDbEntity
  8
0
  6
CONTINUOUS
 62
     2
100
AcDbLine
 10
101.78955384
 20
15.70321274
 30
0.0
 11
106.63113709
 21
15.70321274
 31
0.0
  0
LINE
  5
22B
330
1F
100
AcDbEntity
  8
0
  6
CONTINUOUS
 62
     2
100
AcDbLine
 10
101.78955384
 20
15.45121384
 30
0.0
 11
106.63113709
 21
15.45121384
 31
0.0
  0
LINE
  5
22C
330
1F
100
AcDbEntity
  8
0
  6
CONTINUOUS
 62
     2
100
AcDbLine
 10
103.86773987
 20
12.24799156
 30
0.0
 11
103.86773987
 21
15.22122193
 31
0.0
  0
LINE
  5
22D
330
1F
100
AcDbEntity
  8
0
  6
CONTINUOUS
 62
     2
100
AcDbLine
 10
104.11958619
 20
12.24799156
 30
0.0
 11
104.11958619
 21
15.22122193
 31
0.0
  0
LINE
  5
22E
330
1F
100
AcDbEntity
  8
0
  6
CONTINUOUS
 62
     2
100
AcDbLine
 10
104.37141724
 20
12.24799156
 30
0.0
 11
104.37141724
 21
15.22122193
 31
0.0
  0
LINE
  5
22F
330
1F
100
AcDbEntity
  8
0
  6
CONTINUOUS
 62
     2
100
AcDbLine
 10
104.60324402
 20
12.24799156
 30
0.0
 11
104.60324402
 21
15.22122193
 31
0.0
  0
LINE
  5
230
330
1F
100
AcDbEntity
  8
0
  6
CONTINUOUS
 62
     2
100
AcDbLine
 10
101.58795472
 20
12.04799175
 30
0.0
 11
106.83273621
 21
12.04799175
 31
0.0
  0
LINE
  5
231
330
1F
100
AcDbEntity
  8
0
  6
CONTINUOUS
 62
     2
100
AcDbLine
 10
101.58795472
 20
11.74599266
 30
0.0
 11
106.83273621
 21
11.74599266
 31
0.0
  0
LINE
  5
232
330
1F
100
AcDbEntity
  8
0
  6
CONTINUOUS
 62
     2
100
AcDbLine
 10
108.0127594
 20
15.73519612
 30
0.0
 11
108.38708802
 21
15.25615025
 31
0.0
  0
LINE
  5
233
330
1F
100
AcDbEntity
  8
0
  6
CONTINUOUS
 62
     2
100
AcDbLine
 10
108.33247681
 20
15.73519612
 30
0.0
 11
108.70680542
 21
15.25615025
 31
0.0
  0
LINE
  5
234
330
1F
100
AcDbEntity
  8
0
  6
CONTINUOUS
 62
     2
100
AcDbLine
 10
109.33113404
 20
15.73519612
 30
0.0
 11
109.33113404
 21
15.29855633
 31
0.0
  0
LINE
  5
235
330
1F
100
AcDbEntity
  8
0
  6
CONTINUOUS
 62
     2
100
AcDbLine
 10
109.60298462
 20
15.73519612
 30
0.0
 11
109.60298462
 21
15.29855633
 31
0.0
  0
LINE
  5
236
330
1F
100
AcDbEntity
  8
0
  6
CONTINUOUS
 62
     2
100
AcDbLine
 10
110.33909913
 20
15.73519612
 30
0.0
 11
110.33909913
 21
15.29855633
 31
0.0
  0
LINE
  5
237
330
1F
100
AcDbEntity
  8
0
  6
CONTINUOUS
 62
     2
100
AcDbLine
 10
110.63093873
 20
15.73519612
 30
0.0
 11
110.63093873
 21
15.29855633
 31
0.0
  0
LINE
  5
238
330
1F
100
AcDbEntity
  8
0
  6
CONTINUOUS
 62
     2
100
AcDbLine
 10
111.59956666
 20
15.73519612
 30
0.0
 11
111.22523804
 21
15.25615025
 31
0.0
  0
LINE
  5
239
330
1F
100
AcDbEntity
  8
0
  6
CONTINUOUS
 62
     2
100
AcDbLine
 10
111.93928833
 20
15.73519612
 30
0.0
 11
111.56495972
 21
15.25615025
 31
0.0
  0
LINE
  5
23A
330
1F
100
AcDbEntity
  8
0
  6
CONTINUOUS
 62
     2
100
AcDbLine
 10
107.33362122
 20
15.09855652
 30
0.0
 11
112.57840271
 21
15.09855652
 31
0.0
  0
LINE
  5
23B
330
1F
100
AcDbEntity
  8
0
  6
CONTINUOUS
 62
     2
100
AcDbLine
 10
108.64317627
 20
14.31882858
 30
0.0
 11
108.42778321
 21
14.91061783
 31
0.0
  0
LINE
  5
23C
330
1F
100
AcDbEntity
  8
0
  6
CONTINUOUS
 62
     2
100
AcDbLine
 10
108.95122071
 20
14.31882858
 30
0.0
 11
108.73582764
 21
14.91061783
 31
0.0
  0
LINE
  5
23D
330
1F
100
AcDbEntity
  8
0
  6
CONTINUOUS
 62
     2
100
AcDbLine
 10
109.23926087
 20
14.31885147
 30
0.0
 11
109.02411194
 21
14.91059494
 31
0.0
  0
LINE
  5
23E
330
1F
100
AcDbEntity
  8
0
  6
CONTINUOUS
 62
     2
100
AcDbLine
 10
110.69194336
 20
14.31880665
 30
0.0
 11
110.90756531
 21
14.91063976
 31
0.0
  0
LINE
  5
23F
330
1F
100
AcDbEntity
  8
0
  6
CONTINUOUS
 62
     2
100
AcDbLine
 10
111.00020142
 20
14.31880665
 30
0.0
 11
111.21582337
 21
14.91063976
 31
0.0
  0
LINE
  5
240
330
1F
100
AcDbEntity
  8
0
  6
CONTINUOUS
 62
     2
100
AcDbLine
 10
111.28824158
 20
14.31880665
 30
0.0
 11
111.50386353
 21
14.91063976
 31
0.0
  0
LINE
  5
241
330
1F
100
AcDbEntity
  8
0
  6
CONTINUOUS
 62
     2
100
AcDbLine
 10
107.33362122
 20
14.13088989
 30
0.0
 11
112.57840271
 21
14.13088989
 31
0.0
  0
LINE
  5
242
330
1F
100
AcDbEntity
  8
0
  6
CONTINUOUS
 62
     2
100
AcDbLine
 10
107.33362122
 20
13.43536377
 30
0.0
 11
109.48387452
 21
13.43536377
 31
0.0
  0
LINE
  5
243
330
1F
100
AcDbEntity
  8
0
  6
CONTINUOUS
 62
     2
100
AcDbLine
 10
107.33362122
 20
12.73983765
 30
0.0
 11
109.48387452
 21
12.73983765
 31
0.0
  0
LINE
  5
244
330
1F
100
AcDbEntity
  8
0
  6
CONTINUOUS
 62
     2
100
AcDbLine
 10
110.4475586
 20
12.73983765
 30
0.0
 11
112.57840271
 21
12.73983765
 31
0.0
  0
LINE
  5
245
330
1F
100
AcDbEntity
  8
0
  6
CONTINUOUS
 62
     2
100
AcDbLine
 10
107.65088196
 20
11.69999981
 30
0.0
 11
108.65332337
 21
12.6057539
 31
0.0
  0
LINE
  5
246
330
1F
100
AcDbEntity
  8
0
  6
CONTINUOUS
 62
     2
100
AcDbLine
 10
107.98677369
 20
11.69999981
 30
0.0
 11
108.98924561
 21
12.60575581
 31
0.0
  0
LINE
  5
247
330
1F
100
AcDbEntity
  8
0
  6
CONTINUOUS
 62
     2
100
AcDbLine
 10
108.30287476
 20
11.69999981
 30
0.0
 11
109.30534668
 21
12.60575581
 31
0.0
  0
LINE
  5
248
330
1F
100
AcDbEntity
  8
0
  6
CONTINUOUS
 62
     2
100
AcDbLine
 10
109.68387146
 20
11.69999981
 30
0.0
 11
109.68387146
 21
13.93089008
 31
0.0
  0
LINE
  5
249
330
1F
100
AcDbEntity
  8
0
  6
CONTINUOUS
 62
     2
100
AcDbLine
 10
109.97571106
 20
11.69999981
 30
0.0
 11
109.97571106
 21
13.93089008
 31
0.0
  0
LINE
  5
24A
330
1F
100
AcDbEntity
  8
0
  6
CONTINUOUS
 62
     2
100
AcDbLine
 10
110.24756165
 20
11.69999981
 30
0.0
 11
110.24756165
 21
13.93089008
 31
0.0
  0
LINE
  5
24B
330
1F
100
AcDbEntity
  8
0
  6
CONTINUOUS
 62
     2
100
AcDbLine
 10
111.6171753
 20
11.69999981
 30
0.0
 11
110.61473389
 21
12.6057539
 31
0.0
  0
LINE
  5
24C
330
1F
100
AcDbEntity
  8
0
  6
CONTINUOUS
 62
     2
100
AcDbLine
 10
111.95308228
 20
11.69999981
 30
0.0
 11
110.95061036
 21
12.60575581
 31
0.0
  0
LINE
  5
24D
330
1F
100
AcDbEntity
  8
0
  6
CONTINUOUS
 62
     2
100
AcDbLine
 10
112.28918763
 20
11.69999981
 30
0.0
 11
111.2867157
 21
12.60575581
 31
0.0
  0
LINE
  5
24E
330
1F
100
AcDbEntity
  8
0
  6
CONTINUOUS
 62
     2
100
AcDbLine
 10
114.19978638
 20
15.73519612
 30
0.0
 11
114.19978638
 21
15.37919903
 31
0.0
  0
LINE
  5
24F
330
1F
100
AcDbEntity
  8
0
  6
CONTINUOUS
 62
     2
100
AcDbLine
 10
114.45161744
 20
15.73519612
 30
0.0
 11
114.45161744
 21
15.37919903
 31
0.0
  0
LINE
  5
250
330
1F
100
AcDbEntity
  8
0
  6
CONTINUOUS
 62
     2
100
AcDbLine
 10
114.70346375
 20
15.73519612
 30
0.0
 11
114.70346375
 21
15.37919903
 31
0.0
  0
LINE
  5
251
330
1F
100
AcDbEntity
  8
0
  6
CONTINUOUS
 62
     2
100
AcDbLine
 10
113.17999573
 20
15.17919922
 30
0.0
 11
114.99751587
 21
15.17919922
 31
0.0
  0
LINE
  5
252
330
1F
100
AcDbEntity
  8
0
  6
CONTINUOUS
 62
     2
100
AcDbLine
 10
113.19441529
 20
11.69890499
 30
0.0
 11
113.53920289
 21
14.98029423
 31
0.0
  0
LINE
  5
253
330
1F
100
AcDbEntity
  8
0
  6
CONTINUOUS
 62
     2
100
AcDbLine
 10
113.4276764
 20
11.69890499
 30
0.0
 11
113.77247925
 21
14.98029423
 31
0.0
  0
LINE
  5
254
330
1F
100
AcDbEntity
  8
0
  6
CONTINUOUS
 62
     2
100
AcDbLine
 10
114.19978638
 20
11.69999981
 30
0.0
 11
114.19978638
 21
14.97919941
 31
0.0
  0
LINE
  5
255
330
1F
100
AcDbEntity
  8
0
  6
CONTINUOUS
 62
     2
100
AcDbLine
 10
114.45161744
 20
11.69999981
 30
0.0
 11
114.45161744
 21
14.97919941
 31
0.0
  0
LINE
  5
256
330
1F
100
AcDbEntity
  8
0
  6
CONTINUOUS
 62
     2
100
AcDbLine
 10
114.70346375
 20
11.69999981
 30
0.0
 11
114.70346375
 21
14.97919941
 31
0.0
  0
LINE
  5
257
330
1F
100
AcDbEntity
  8
0
  6
CONTINUOUS
 62
     2
100
AcDbLine
 10
114.82092591
 20
14.71542454
 30
0.0
 11
115.08003541
 21
14.35838413
 31
0.0
  0
LINE
  5
258
330
1F
100
AcDbEntity
  8
0
  6
CONTINUOUS
 62
     2
100
AcDbLine
 10
114.82092591
 20
14.3264246
 30
0.0
 11
115.08003541
 21
13.96938419
 31
0.0
  0
LINE
  5
259
330
1F
100
AcDbEntity
  8
0
  6
CONTINUOUS
 62
     2
100
AcDbLine
 10
115.44691773
 20
14.81886006
 30
0.0
 11
115.67688294
 21
15.74113751
 31
0.0
  0
LINE
  5
25A
330
1F
100
AcDbEntity
  8
0
  6
CONTINUOUS
 62
     2
100
AcDbLine
 10
115.68674012
 20
14.81886864
 30
0.0
 11
115.91652222
 21
15.74112892
 31
0.0
  0
LINE
  5
25B
330
1F
100
AcDbEntity
  8
0
  6
CONTINUOUS
 62
     2
100
AcDbLine
 10
115.89638062
 20
14.81886006
 30
0.0
 11
116.12634583
 21
15.74113751
 31
0.0
  0
LINE
  5
25C
330
1F
100
AcDbEntity
  8
0
  6
CONTINUOUS
 62
     2
100
AcDbLine
 10
116.77023621
 20
15.37919903
 30
0.0
 11
116.77023621
 21
15.73519612
 31
0.0
  0
LINE
  5
25D
330
1F
100
AcDbEntity
  8
0
  6
CONTINUOUS
 62
     2
100
AcDbLine
 10
117.04207154
 20
15.37919903
 30
0.0
 11
117.04207154
 21
15.73519612
 31
0.0
  0
LINE
  5
25E
330
1F
100
AcDbEntity
  8
0
  6
CONTINUOUS
 62
     2
100
AcDbLine
 10
117.29391785
 20
15.37919903
 30
0.0
 11
117.29391785
 21
15.73519612
 31
0.0
  0
LINE
  5
25F
330
1F
100
AcDbEntity
  8
0
  6
CONTINUOUS
 62
     2
100
AcDbLine
 10
116.18622132
 20
15.17919922
 30
0.0
 11
118.42477723
 21
15.17919922
 31
0.0
  0
LINE
  5
260
330
1F
100
AcDbEntity
  8
0
  6
CONTINUOUS
 62
     2
100
AcDbLine
 10
116.77023621
 20
14.97919941
 30
0.0
 11
116.77023621
 21
14.37120342
 31
0.0
  0
LINE
  5
261
330
1F
100
AcDbEntity
  8
0
  6
CONTINUOUS
 62
     2
100
AcDbLine
 10
117.04207154
 20
14.97919941
 30
0.0
 11
117.04207154
 21
14.37120342
 31
0.0
  0
LINE
  5
262
330
1F
100
AcDbEntity
  8
0
  6
CONTINUOUS
 62
     2
100
AcDbLine
 10
117.29391785
 20
14.97919941
 30
0.0
 11
117.29391785
 21
14.37120342
 31
0.0
  0
LINE
  5
263
330
1F
100
AcDbEntity
  8
0
  6
CONTINUOUS
 62
     2
100
AcDbLine
 10
115.49840088
 20
14.17120361
 30
0.0
 11
118.52566834
 21
14.17120361
 31
0.0
  0
LINE
  5
264
330
1F
100
AcDbEntity
  8
0
  6
CONTINUOUS
 62
     2
100
AcDbLine
 10
115.94479676
 20
13.97443867
 30
0.0
 11
115.53007813
 21
11.69676495
 31
0.0
  0
LINE
  5
265
330
1F
100
AcDbEntity
  8
0
  6
CONTINUOUS
 62
     2
100
AcDbLine
 10
116.18072815
 20
13.97443867
 30
0.0
 11
115.76602478
 21
11.69676495
 31
0.0
  0
LINE
  5
266
330
1F
100
AcDbEntity
  8
0
  6
CONTINUOUS
 62
     2
100
AcDbLine
 10
116.38891907
 20
13.97444153
 30
0.0
 11
115.97400208
 21
11.69676209
 31
0.0
  0
LINE
  5
267
330
1F
100
AcDbEntity
  8
0
  6
CONTINUOUS
 62
     2
100
AcDbLine
 10
116.77023621
 20
13.97120381
 30
0.0
 11
116.77023621
 21
11.69999981
 31
0.0
  0
LINE
  5
268
330
1F
100
AcDbEntity
  8
0
  6
CONTINUOUS
 62
     2
100
AcDbLine
 10
117.02206727
 20
13.97120381
 30
0.0
 11
117.02206727
 21
11.69999981
 31
0.0
  0
LINE
  5
269
330
1F
100
AcDbEntity
  8
0
  6
CONTINUOUS
 62
     2
100
AcDbLine
 10
117.29391785
 20
13.97120381
 30
0.0
 11
117.29391785
 21
11.69999981
 31
0.0
  0
LINE
  5
26A
330
1F
100
AcDbEntity
  8
0
  6
CONTINUOUS
 62
     2
100
AcDbLine
 10
117.63495179
 20
13.97444153
 30
0.0
 11
118.04986878
 21
11.69676209
 31
0.0
  0
LINE
  5
26B
330
1F
100
AcDbEntity
  8
0
  6
CONTINUOUS
 62
     2
100
AcDbLine
 10
117.85109253
 20
13.97444153
 30
0.0
 11
118.26600953
 21
11.69676209
 31
0.0
  0
LINE
  5
26C
330
1F
100
AcDbEntity
  8
0
  6
CONTINUOUS
 62
     2
100
AcDbLine
 10
118.1070282
 20
13.97444153
 30
0.0
 11
118.5219452
 21
11.69676209
 31
0.0
  0
LINE
  5
26D
330
1F
100
AcDbEntity
  8
0
  6
CONTINUOUS
 62
     2
100
AcDbLine
 10
119.12726136
 20
15.34001541
 30
0.0
 11
121.98240967
 21
15.34001541
 31
0.0
  0
LINE
  5
26E
330
1F
100
AcDbEntity
  8
0
  6
CONTINUOUS
 62
     2
100
AcDbLine
 10
119.12726136
 20
15.08801651
 30
0.0
 11
122.07413025
 21
15.08801651
 31
0.0
  0
LINE
  5
26F
330
1F
100
AcDbEntity
  8
0
  6
CONTINUOUS
 62
     2
100
AcDbLine
 10
123.51166077
 20
11.68793869
 30
0.0
 11
122.034198
 21
15.74725723
 31
0.0
  0
LINE
  5
270
330
1F
100
AcDbEntity
  8
0
  6
CONTINUOUS
 62
     2
100
AcDbLine
 10
123.77969666
 20
11.68793965
 30
0.0
 11
122.30229493
 21
15.74725628
 31
0.0
  0
LINE
  5
271
330
1F
100
AcDbEntity
  8
0
  6
CONTINUOUS
 62
     2
100
AcDbLine
 10
124.04773255
 20
11.68793965
 30
0.0
 11
122.57033082
 21
15.74725628
 31
0.0
  0
LINE
  5
272
330
1F
100
AcDbEntity
  8
0
  6
CONTINUOUS
 62
     2
100
AcDbLine
 10
124.31576844
 20
11.68793583
 30
0.0
 11
122.83813782
 21
15.74725914
 31
0.0
  0
LINE
  5
273
330
1F
100
AcDbEntity
  8
0
  6
CONTINUOUS
 62
     2
100
AcDbLine
 10
123.55430909
 20
15.54001522
 30
0.0
 11
123.55430909
 21
15.73519612
 31
0.0
  0
LINE
  5
274
330
1F
100
AcDbEntity
  8
0
  6
CONTINUOUS
 62
     2
100
AcDbLine
 10
123.82615967
 20
15.54001522
 30
0.0
 11
123.82615967
 21
15.73519612
 31
0.0
  0
LINE
  5
275
330
1F
100
AcDbEntity
  8
0
  6
CONTINUOUS
 62
     2
100
AcDbLine
 10
124.097995
 20
15.54001522
 30
0.0
 11
124.097995
 21
15.73519612
 31
0.0
  0
LINE
  5
276
330
1F
100
AcDbEntity
  8
0
  6
CONTINUOUS
 62
     2
100
AcDbLine
 10
123.18637391
 20
15.34001541
 30
0.0
 11
124.37204285
 21
15.34001541
 31
0.0
  0
LINE
  5
277
330
1F
100
AcDbEntity
  8
0
  6
CONTINUOUS
 62
     2
100
AcDbLine
 10
123.27810975
 20
15.08801651
 30
0.0
 11
124.37204285
 21
15.08801651
 31
0.0
  0
LINE
  5
278
330
1F
100
AcDbEntity
  8
0
  6
CONTINUOUS
 62
     2
100
AcDbLine
 10
119.42955323
 20
14.13640976
 30
0.0
 11
122.0536377
 21
14.13640976
 31
0.0
  0
LINE
  5
279
330
1F
100
AcDbEntity
  8
0
  6
CONTINUOUS
 62
     2
100
AcDbLine
 10
119.42955323
 20
13.8843956
 30
0.0
 11
122.0536377
 21
13.8843956
 31
0.0
  0
LINE
  5
27A
330
1F
100
AcDbEntity
  8
0
  6
CONTINUOUS
 62
     2
100
AcDbLine
 10
120.37909241
 20
13.68439579
 30
0.0
 11
120.37909241
 21
12.6791153
 31
0.0
  0
LINE
  5
27B
330
1F
100
AcDbEntity
  8
0
  6
CONTINUOUS
 62
     2
100
AcDbLine
 10
120.63092347
 20
13.68439579
 30
0.0
 11
120.63092347
 21
12.73264313
 31
0.0
  0
LINE
  5
27C
330
1F
100
AcDbEntity
  8
0
  6
CONTINUOUS
 62
     2
100
AcDbLine
 10
120.88275452
 20
13.68439579
 30
0.0
 11
120.88275452
 21
12.78617191
 31
0.0
  0
LINE
  5
27D
330
1F
100
AcDbEntity
  8
0
  6
CONTINUOUS
 62
     2
100
AcDbLine
 10
121.13460083
 20
13.68439579
 30
0.0
 11
121.13460083
 21
12.83970261
 31
0.0
  0
LINE
  5
27E
330
1F
100
AcDbEntity
  8
0
  6
CONTINUOUS
 62
     2
100
AcDbLine
 10
119.3747284
 20
12.26563168
 30
0.0
 11
122.10844727
 21
12.84669972
 31
0.0
  0
LINE
  5
27F
330
1F
100
AcDbEntity
  8
0
  6
CONTINUOUS
 62
     2
100
AcDbLine
 10
119.3747284
 20
11.98800278
 30
0.0
 11
122.10844727
 21
12.56908512
 31
0.0
  0
LINE
  5
280
330
1F
100
AcDbEntity
  8
0
  6
CONTINUOUS
 62
     2
100
AcDbLine
 10
119.3747284
 20
11.75037289
 30
0.0
 11
122.10844727
 21
12.33144093
 31
0.0
  0
LINE
  5
281
330
1F
100
AcDbEntity
  8
0
  6
CONTINUOUS
 62
     2
100
AcDbLine
 10
124.96330567
 20
14.9325943
 30
0.0
 11
127.55153199
 21
15.79854012
 31
0.0
  0
LINE
  5
282
330
1F
100
AcDbEntity
  8
0
  6
CONTINUOUS
 62
     2
100
AcDbLine
 10
124.96330567
 20
14.66686249
 30
0.0
 11
127.55153199
 21
15.53282356
 31
0.0
  0
LINE
  5
283
330
1F
100
AcDbEntity
  8
0
  6
CONTINUOUS
 62
     2
100
AcDbLine
 10
127.74119874
 20
15.79853916
 30
0.0
 11
130.32944031
 21
14.9325304
 31
0.0
  0
LINE
  5
284
330
1F
100
AcDbEntity
  8
0
  6
CONTINUOUS
 62
     2
100
AcDbLine
 10
127.74119874
 20
15.55282307
 30
0.0
 11
130.32944031
 21
14.68681431
 31
0.0
  0
LINE
  5
285
330
1F
100
AcDbEntity
  8
0
  6
CONTINUOUS
 62
     2
100
AcDbLine
 10
129.46249695
 20
14.65961075
 30
0.0
 11
125.83044739
 21
14.65961075
 31
0.0
  0
LINE
  5
286
330
1F
100
AcDbEntity
  8
0
  6
CONTINUOUS
 62
     2
100
AcDbLine
 10
129.46249695
 20
14.38759613
 30
0.0
 11
125.83044739
 21
14.38759613
 31
0.0
  0
LINE
  5
287
330
1F
100
AcDbEntity
  8
0
  6
CONTINUOUS
 62
     2
100
AcDbLine
 10
124.97363587
 20
13.60639191
 30
0.0
 11
130.31911011
 21
13.60639191
 31
0.0
  0
LINE
  5
288
330
1F
100
AcDbEntity
  8
0
  6
CONTINUOUS
 62
     2
100
AcDbLine
 10
124.97363587
 20
13.37440872
 30
0.0
 11
130.31911011
 21
13.37440872
 31
0.0
  0
LINE
  5
289
330
1F
100
AcDbEntity
  8
0
  6
CONTINUOUS
 62
     2
100
AcDbLine
 10
125.80133362
 20
13.19315338
 30
0.0
 11
125.29112549
 21
12.09924603
 31
0.0
  0
LINE
  5
28A
330
1F
100
AcDbEntity
  8
0
  6
CONTINUOUS
 62
     2
100
AcDbLine
 10
126.1194336
 20
13.19315434
 30
0.0
 11
125.60921021
 21
12.09924603
 31
0.0
  0
LINE
  5
28B
330
1F
100
AcDbEntity
  8
0
  6
CONTINUOUS
 62
     2
100
AcDbLine
 10
126.43753357
 20
13.19315434
 30
0.0
 11
125.92731019
 21
12.09924603
 31
0.0
  0
LINE
  5
28C
330
1F
100
AcDbEntity
  8
0
  6
CONTINUOUS
 62
     2
100
AcDbLine
 10
128.85541077
 20
13.19316673
 30
0.0
 11
129.36583252
 21
12.09923363
 31
0.0
  0
LINE
  5
28D
330
1F
100
AcDbEntity
  8
0
  6
CONTINUOUS
 62
     2
100
AcDbLine
 10
129.17370911
 20
13.19314194
 30
0.0
 11
129.68370362
 21
12.09925842
 31
0.0
  0
LINE
  5
28E
330
1F
100
AcDbEntity
  8
0
  6
CONTINUOUS
 62
     2
100
AcDbLine
 10
129.49199219
 20
13.19313145
 30
0.0
 11
130.00181885
 21
12.09926891
 31
0.0
  0
LINE
  5
28F
330
1F
100
AcDbEntity
  8
0
  6
CONTINUOUS
 62
     2
100
AcDbLine
 10
125.16853638
 20
11.91799164
 30
0.0
 11
130.1242096
 21
11.91799164
 31
0.0
  0
LINE
  5
290
330
1F
100
AcDbEntity
  8
0
  6
CONTINUOUS
 62
     2
100
AcDbLine
 10
125.05102845
 20
11.66599274
 30
0.0
 11
130.24171753
 21
11.66599274
 31
0.0
  0
LINE
  5
291
330
1F
100
AcDbEntity
  8
0
  6
CONTINUOUS
 62
     2
100
AcDbLine
 10
131.83978577
 20
15.54001522
 30
0.0
 11
131.83978577
 21
15.73519612
 31
0.0
  0
LINE
  5
292
330
1F
100
AcDbEntity
  8
0
  6
CONTINUOUS
 62
     2
100
AcDbLine
 10
132.13162537
 20
15.54001522
 30
0.0
 11
132.13162537
 21
15.73519612
 31
0.0
  0
LINE
  5
293
330
1F
100
AcDbEntity
  8
0
  6
CONTINUOUS
 62
     2
100
AcDbLine
 10
132.42348023
 20
15.54001522
 30
0.0
 11
132.42348023
 21
15.73519612
 31
0.0
  0
LINE
  5
294
330
1F
100
AcDbEntity
  8
0
  6
CONTINUOUS
 62
     2
100
AcDbLine
 10
130.92068787
 20
15.34001541
 30
0.0
 11
133.20878907
 21
15.34001541
 31
0.0
  0
LINE
  5
295
330
1F
100
AcDbEntity
  8
0
  6
CONTINUOUS
 62
     2
100
AcDbLine
 10
130.92068787
 20
15.08801651
 30
0.0
 11
133.03238221
 21
15.08801651
 31
0.0
  0
LINE
  5
296
330
1F
100
AcDbEntity
  8
0
  6
CONTINUOUS
 62
     2
100
AcDbLine
 10
132.2379181
 20
14.92416763
 30
0.0
 11
130.83537598
 21
12.92047215
 31
0.0
  0
LINE
  5
297
330
1F
100
AcDbEntity
  8
0
  6
CONTINUOUS
 62
     2
100
AcDbLine
 10
132.56566163
 20
14.92418003
 30
0.0
 11
130.83539124
 21
12.4528513
 31
0.0
  0
LINE
  5
298
330
1F
100
AcDbEntity
  8
0
  6
CONTINUOUS
 62
     2
100
AcDbLine
 10
132.87379761
 20
14.92417717
 30
0.0
 11
130.83539124
 21
12.01257324
 31
0.0
  0
LINE
  5
299
330
1F
100
AcDbEntity
  8
0
  6
CONTINUOUS
 62
     2
100
AcDbLine
 10
132.39299317
 20
13.88869095
 30
0.0
 11
133.27867432
 21
13.26846409
 31
0.0
  0
LINE
  5
29A
330
1F
100
AcDbEntity
  8
0
  6
CONTINUOUS
 62
     2
100
AcDbLine
 10
132.24844666
 20
13.68219948
 30
0.0
 11
133.27865906
 21
12.96079922
 31
0.0
  0
LINE
  5
29B
330
1F
100
AcDbEntity
  8
0
  6
CONTINUOUS
 62
     2
100
AcDbLine
 10
132.09450074
 20
13.4623127
 30
0.0
 11
133.27865906
 21
12.6331501
 31
0.0
  0
LINE
  5
29C
330
1F
100
AcDbEntity
  8
0
  6
CONTINUOUS
 62
     2
100
AcDbLine
 10
131.83978577
 20
13.2472229
 30
0.0
 11
131.83978577
 21
11.69999981
 31
0.0
  0
LINE
  5
29D
330
1F
100
AcDbEntity
  8
0
  6
CONTINUOUS
 62
     2
100
AcDbLine
 10
132.13162537
 20
13.23631573
 30
0.0
 11
132.13162537
 21
11.69999981
 31
0.0
  0
LINE
  5
29E
330
1F
100
AcDbEntity
  8
0
  6
CONTINUOUS
 62
     2
100
AcDbLine
 10
132.42348023
 20
13.03195667
 30
0.0
 11
132.42348023
 21
11.69999981
 31
0.0
  0
LINE
  5
29F
330
1F
100
AcDbEntity
  8
0
  6
CONTINUOUS
 62
     2
100
AcDbLine
 10
134.56137391
 20
12.11799145
 30
0.0
 11
134.56137391
 21
15.73519612
 31
0.0
  0
LINE
  5
2A0
330
1F
100
AcDbEntity
  8
0
  6
CONTINUOUS
 62
     2
100
AcDbLine
 10
134.85321351
 20
12.11799145
 30
0.0
 11
134.85321351
 21
15.73519612
 31
0.0
  0
LINE
  5
2A1
330
1F
100
AcDbEntity
  8
0
  6
CONTINUOUS
 62
     2
100
AcDbLine
 10
135.14506836
 20
12.11799145
 30
0.0
 11
135.14506836
 21
15.73519612
 31
0.0
  0
LINE
  5
2A2
330
1F
100
AcDbEntity
  8
0
  6
CONTINUOUS
 62
     2
100
AcDbLine
 10
133.64248963
 20
14.63440323
 30
0.0
 11
134.36137696
 21
14.63440323
 31
0.0
  0
LINE
  5
2A3
330
1F
100
AcDbEntity
  8
0
  6
CONTINUOUS
 62
     2
100
AcDbLine
 10
133.64248963
 20
14.38241959
 30
0.0
 11
134.36137696
 21
14.38241959
 31
0.0
  0
LINE
  5
2A4
330
1F
100
AcDbEntity
  8
0
  6
CONTINUOUS
 62
     2
100
AcDbLine
 10
135.34506531
 20
14.63440323
 30
0.0
 11
136.06477662
 21
14.63440323
 31
0.0
  0
LINE
  5
2A5
330
1F
100
AcDbEntity
  8
0
  6
CONTINUOUS
 62
     2
100
AcDbLine
 10
135.34506531
 20
14.36241913
 30
0.0
 11
136.06477662
 21
14.36241913
 31
0.0
  0
LINE
  5
2A6
330
1F
100
AcDbEntity
  8
0
  6
CONTINUOUS
 62
     2
100
AcDbLine
 10
133.23909302
 20
11.91799164
 30
0.0
 11
136.16566773
 21
11.91799164
 31
0.0
  0
LINE
  5
2A7
330
1F
100
AcDbEntity
  8
0
  6
CONTINUOUS
 62
     2
100
AcDbLine
 10
133.23909302
 20
11.66599274
 30
0.0
 11
136.16566773
 21
11.66599274
 31
0.0
  0
LINE
  5
2A8
330
1F
100
AcDbEntity
  8
0
  6
CONTINUOUS
 62
     2
100
AcDbLine
 10
110.4475586
 20
13.43536377
 30
0.0
 11
112.57840271
 21
13.43536377
 31
0.0
  0
TEXT
  5
2A9
330
1F
100
AcDbEntity
  8
0
  6
CONTINUOUS
 62
     2
100
AcDbText
 10
82.30000004172325
 20
21.05
 30
0.0
 40
6.5
  1
樹脂製タオル掛け
 41
1.246481176484041
  7
EXCADSTD
 72
     5
 11
136.6999999582767
 21
21.05
 31
0.0
100
AcDbText
  0
LINE
  5
2AA
330
1F
100
AcDbEntity
  8
0
  6
EXLTYPE2
 62
     6
100
AcDbLine
 10
0.6999999999999993
 20
148.5
 30
0.0
 11
18.0
 21
148.5
 31
0.0
  0
TEXT
  5
2AB
330
1F
100
AcDbEntity
  8
0
  6
CONTINUOUS
 62
     6
100
AcDbText
 10
20.5
 20
17.0
 30
0.0
 40
5.0
  1
間瀬
 41
1.224910909090909
  7
EXCADSTD
 72
     5
 11
30.1243
 21
17.0
 31
0.0
100
AcDbText
  0
TEXT
  5
2AC
330
1F
100
AcDbEntity
  8
0
  6
CONTINUOUS
 62
     6
100
AcDbText
 10
66.0
 20
17.0
 30
0.0
 40
5.0
  1
堀
 41
1.232000000000002
  7
EXCADSTD
 72
     5
 11
70.4
 21
17.0
 31
0.0
100
AcDbText
  0
TEXT
  5
2AD
330
1F
100
AcDbEntity
  8
0
  6
CONTINUOUS
 62
     6
100
AcDbText
 10
18.45
 20
9.65
 30
0.0
 40
2.5
  1
１８
 41
1.049923636363637
  7
EXCADSTD
 72
     5
 11
22.5747
 21
9.65
 31
0.0
100
AcDbText
  0
TEXT
  5
2AE
330
1F
100
AcDbEntity
  8
0
  6
CONTINUOUS
 62
     7
100
AcDbText
 10
152.0
 20
10.0
 30
0.0
 40
7.0
  1
９５６４００
 41
1.142857142857143
  7
EXCADSTD
 72
     5
 11
192.0
 21
10.0
 31
0.0
100
AcDbText
  0
TEXT
  5
2AF
330
1F
100
AcDbEntity
  8
0
  6
CONTINUOUS
 62
     6
100
AcDbText
 10
24.45
 20
9.65
 30
0.0
 40
2.5
  1
７
 41
1.12
  7
EXCADSTD
 72
     5
 11
26.45
 21
9.65
 31
0.0
100
AcDbText
  0
TEXT
  5
2B0
330
1F
100
AcDbEntity
  8
0
  6
CONTINUOUS
 62
     6
100
AcDbText
 10
28.45
 20
9.65
 30
0.0
 40
2.5
  1
２０
 41
1.049923636363637
  7
EXCADSTD
 72
     5
 11
32.5747
 21
9.65
 31
0.0
100
AcDbText
  0
TEXT
  5
2B1
330
1F
100
AcDbEntity
  8
0
  6
CONTINUOUS
 62
     2
100
AcDbText
 10
147.4
 20
21.25
 30
0.0
 40
6.5
  1
ＮＡ４９１Ｖ
 41
0.9230769157409668
  7
EXCADSTD
 72
     5
 11
177.3999997615814
 21
21.25
 31
0.0
100
AcDbText
  0
ARC
  5
2B2
330
1F
100
AcDbEntity
  8
1
  6
CONTINUOUS
 62
     2
100
AcDbCircle
 10
208.045
 20
109.3974859199
 30
0.0
 40
180.0
100
AcDbArc
 50
178.3900220852001
 51
185.0953267882001
  0
ARC
  5
2B3
330
1F
100
AcDbEntity
  8
1
  6
CONTINUOUS
 62
     2
100
AcDbCircle
 10
34.345
 20
107.17
 30
0.0
 40
11.25
100
AcDbArc
 50
69.88909555497
 51
110.110904445
  0
ARC
  5
2B4
330
1F
100
AcDbEntity
  8
1
  6
CONTINUOUS
 62
     6
100
AcDbCircle
 10
34.345
 20
107.17
 30
0.0
 40
8.550000000000002
100
AcDbArc
 50
59.99999999999996
 51
119.9999999999999
  0
ARC
  5
2B5
330
1F
100
AcDbEntity
  8
1
  6
CONTINUOUS
 62
     2
100
AcDbCircle
 10
34.345
 20
113.92
 30
0.0
 40
22.5
100
AcDbArc
 50
259.4337437057002
 51
280.5662562943
  0
LINE
  5
2B6
330
1F
100
AcDbEntity
  8
1
  6
CONTINUOUS
 62
     6
100
AcDbLine
 10
39.745
 20
112.6259600438
 30
0.0
 11
39.745
 21
93.4111357427
 31
0.0
  0
LINE
  5
2B7
330
1F
100
AcDbEntity
  8
1
  6
CONTINUOUS
 62
     6
100
AcDbLine
 10
28.945
 20
112.6259600438
 30
0.0
 11
28.945
 21
93.4111357427
 31
0.0
  0
ARC
  5
2B8
330
1F
100
AcDbEntity
  8
1
  6
CONTINUOUS
 62
     6
100
AcDbCircle
 10
37.495
 20
112.6259600438
 30
0.0
 40
2.25
100
AcDbArc
 50
0.0
 51
59.99999999999996
  0
ARC
  5
2B9
330
1F
100
AcDbEntity
  8
1
  6
CONTINUOUS
 62
     6
100
AcDbCircle
 10
31.195
 20
112.6259600438
 30
0.0
 40
2.25
100
AcDbArc
 50
119.9999999999999
 51
180.0
  0
ARC
  5
2BA
330
1F
100
AcDbEntity
  8
1
  6
CONTINUOUS
 62
     2
100
AcDbCircle
 10
36.97536387736
 20
114.3535705518
 30
0.0
 40
3.6
100
AcDbArc
 50
1.609977914819954
 51
69.88909555497
  0
ARC
  5
2BB
330
1F
100
AcDbEntity
  8
1
  6
CONTINUOUS
 62
     2
100
AcDbCircle
 10
31.71463612264
 20
114.3535705518
 30
0.0
 40
3.6
100
AcDbArc
 50
110.110904445
 51
178.3900220852001
  0
ARC
  5
2BC
330
1F
100
AcDbEntity
  8
1
  6
CONTINUOUS
 62
     2
100
AcDbCircle
 10
30.54919069873
 20
93.57099924447
 30
0.0
 40
1.8
100
AcDbArc
 50
185.0953267882001
 51
259.4337437057002
  0
ARC
  5
2BD
330
1F
100
AcDbEntity
  8
1
  6
CONTINUOUS
 62
     2
100
AcDbCircle
 10
38.14080930127
 20
93.57099924447
 30
0.0
 40
1.8
100
AcDbArc
 50
280.5662562943
 51
354.9046732118001
  0
ELLIPSE
  5
2BE
330
1F
100
AcDbEntity
  8
1
  6
CONTINUOUS
 62
     2
100
AcDbEllipse
 10
34.345
 20
91.94705615587
 30
0.0
 11
2.250000000000003
 21
0.0
 31
0.0
210
0.0
220
0.0
230
1.0
 40
0.1288571522946665
 41
0.0
 42
6.283185307179586
  0
LINE
  5
2BF
330
1F
100
AcDbEntity
  8
1
  6
EXLTYPE3
 62
     1
100
AcDbLine
 10
123.1
 20
178.26
 30
0.0
 11
35.6
 21
178.26
 31
0.0
  0
LINE
  5
2C0
330
1F
100
AcDbEntity
  8
1
  6
CONTINUOUS
 62
     2
100
AcDbLine
 10
40.645
 20
203.01
 30
0.0
 11
28.045
 21
203.01
 31
0.0
  0
LINE
  5
2C1
330
1F
100
AcDbEntity
  8
1
  6
CONTINUOUS
 62
     2
100
AcDbLine
 10
28.88811232461
 20
172.2364001519
 30
0.0
 11
28.045
 21
203.01
 31
0.0
  0
LINE
  5
2C2
330
1F
100
AcDbEntity
  8
1
  6
CONTINUOUS
 62
     2
100
AcDbLine
 10
40.645
 20
203.01
 30
0.0
 11
39.80188767539
 21
172.2364001519
 31
0.0
  0
ARC
  5
2C3
330
1F
100
AcDbEntity
  8
1
  6
CONTINUOUS
 62
     2
100
AcDbCircle
 10
34.345
 20
192.66
 30
0.0
 40
22.5
100
AcDbArc
 50
259.8227547784004
 51
280.1772452216002
  0
ARC
  5
2C4
330
1F
100
AcDbEntity
  8
1
  6
CONTINUOUS
 62
     6
100
AcDbCircle
 10
34.345
 20
192.66
 30
0.0
 40
21.6
100
AcDbArc
 50
259.2806683572001
 51
280.7193316428001
  0
ARC
  5
2C5
330
1F
100
AcDbEntity
  8
1
  6
CONTINUOUS
 62
     2
100
AcDbCircle
 10
30.68743715579
 20
172.2856967226
 30
0.0
 40
1.8
100
AcDbArc
 50
181.5693548047
 51
259.8227547784004
  0
ARC
  5
2C6
330
1F
100
AcDbEntity
  8
1
  6
CONTINUOUS
 62
     2
100
AcDbCircle
 10
38.00256284421
 20
172.2856967226
 30
0.0
 40
1.8
100
AcDbArc
 50
280.1772452216002
 51
358.4306451953003
  0
ARC
  5
2C7
330
1F
100
AcDbEntity
  8
1
  6
CONTINUOUS
 62
     6
100
AcDbCircle
 10
30.6622368444
 20
173.2055080884
 30
0.0
 40
1.8
100
AcDbArc
 50
181.5693548047
 51
259.2806683572001
  0
ARC
  5
2C8
330
1F
100
AcDbEntity
  8
1
  6
CONTINUOUS
 62
     6
100
AcDbCircle
 10
38.0277631556
 20
173.2055080884
 30
0.0
 40
1.8
100
AcDbArc
 50
280.7193316428001
 51
358.4306451953003
  0
ARC
  5
2C9
330
1F
100
AcDbEntity
  8
1
  6
CONTINUOUS
 62
     2
100
AcDbCircle
 10
-49.355
 20
109.3974859199
 30
0.0
 40
180.0
100
AcDbArc
 50
354.9046732118001
 51
1.609977914819954
  0
ARC
  5
2CA
330
1F
100
AcDbEntity
  8
1
  6
CONTINUOUS
 62
     2
100
AcDbCircle
 10
124.345
 20
107.17
 30
0.0
 40
11.25
100
AcDbArc
 50
69.88909555497
 51
110.110904445
  0
ARC
  5
2CB
330
1F
100
AcDbEntity
  8
1
  6
CONTINUOUS
 62
     6
100
AcDbCircle
 10
124.345
 20
107.17
 30
0.0
 40
8.550000000000002
100
AcDbArc
 50
59.99999999999996
 51
119.9999999999999
  0
ARC
  5
2CC
330
1F
100
AcDbEntity
  8
1
  6
CONTINUOUS
 62
     2
100
AcDbCircle
 10
124.345
 20
113.92
 30
0.0
 40
22.5
100
AcDbArc
 50
259.4337437057002
 51
280.5662562943
  0
LINE
  5
2CD
330
1F
100
AcDbEntity
  8
1
  6
CONTINUOUS
 62
     6
100
AcDbLine
 10
129.745
 20
112.6259600438
 30
0.0
 11
129.745
 21
93.4111357427
 31
0.0
  0
LINE
  5
2CE
330
1F
100
AcDbEntity
  8
1
  6
CONTINUOUS
 62
     6
100
AcDbLine
 10
118.945
 20
112.6259600438
 30
0.0
 11
118.945
 21
93.4111357427
 31
0.0
  0
ARC
  5
2CF
330
1F
100
AcDbEntity
  8
1
  6
CONTINUOUS
 62
     6
100
AcDbCircle
 10
127.495
 20
112.6259600438
 30
0.0
 40
2.25
100
AcDbArc
 50
0.0
 51
59.99999999999996
  0
ARC
  5
2D0
330
1F
100
AcDbEntity
  8
1
  6
CONTINUOUS
 62
     6
100
AcDbCircle
 10
121.195
 20
112.6259600438
 30
0.0
 40
2.25
100
AcDbArc
 50
119.9999999999999
 51
180.0
  0
ARC
  5
2D1
330
1F
100
AcDbEntity
  8
1
  6
CONTINUOUS
 62
     2
100
AcDbCircle
 10
126.9753638774
 20
114.3535705518
 30
0.0
 40
3.6
100
AcDbArc
 50
1.609977914819954
 51
69.88909555497
  0
ARC
  5
2D2
330
1F
100
AcDbEntity
  8
1
  6
CONTINUOUS
 62
     2
100
AcDbCircle
 10
121.7146361226
 20
114.3535705518
 30
0.0
 40
3.6
100
AcDbArc
 50
110.110904445
 51
178.3900220852001
  0
ARC
  5
2D3
330
1F
100
AcDbEntity
  8
1
  6
CONTINUOUS
 62
     2
100
AcDbCircle
 10
120.5491906987
 20
93.57099924447
 30
0.0
 40
1.8
100
AcDbArc
 50
185.0953267882001
 51
259.4337437057002
  0
ARC
  5
2D4
330
1F
100
AcDbEntity
  8
1
  6
CONTINUOUS
 62
     2
100
AcDbCircle
 10
128.1408093013
 20
93.57099924447
 30
0.0
 40
1.8
100
AcDbArc
 50
280.5662562943
 51
354.9046732118001
  0
ELLIPSE
  5
2D5
330
1F
100
AcDbEntity
  8
1
  6
CONTINUOUS
 62
     2
100
AcDbEllipse
 10
124.345
 20
91.94705615587
 30
0.0
 11
2.250000000000003
 21
0.0
 31
0.0
210
0.0
220
0.0
230
1.0
 40
0.1288571522946665
 41
0.0
 42
6.283185307179586
  0
ARC
  5
2D6
330
1F
100
AcDbEntity
  8
1
  6
CONTINUOUS
 62
     2
100
AcDbCircle
 10
95.78049926613
 20
107.17
 30
0.0
 40
55.89988282777004
100
AcDbArc
 50
176.81582509
 51
183.18417491
  0
ARC
  5
2D7
330
1F
100
AcDbEntity
  8
1
  6
CONTINUOUS
 62
     2
100
AcDbCircle
 10
-139.355
 20
109.3974859199
 30
0.0
 40
180.0
100
AcDbArc
 50
354.9046732118001
 51
358.3023686349003
  0
ARC
  5
2D8
330
1F
100
AcDbEntity
  8
1
  6
CONTINUOUS
 62
     2
100
AcDbCircle
 10
-139.355
 20
109.3974859199
 30
0.0
 40
180.0
100
AcDbArc
 50
0.2793225133849896
 51
1.609977914819954
  0
ARC
  5
2D9
330
1F
100
AcDbEntity
  8
1
  6
CONTINUOUS
 62
     2
100
AcDbCircle
 10
62.90950073387
 20
107.17
 30
0.0
 40
55.89988282777004
100
AcDbArc
 50
356.8158250900001
 51
3.184174909989967
  0
ARC
  5
2DA
330
1F
100
AcDbEntity
  8
1
  6
CONTINUOUS
 62
     2
100
AcDbCircle
 10
298.045
 20
109.3974859199
 30
0.0
 40
180.0
100
AcDbArc
 50
178.3900220852001
 51
179.7206774866
  0
ARC
  5
2DB
330
1F
100
AcDbEntity
  8
1
  6
CONTINUOUS
 62
     2
100
AcDbCircle
 10
298.045
 20
109.3974859199
 30
0.0
 40
180.0
100
AcDbArc
 50
181.6976313651001
 51
185.0953267882001
  0
LINE
  5
2DC
330
1F
100
AcDbEntity
  8
1
  6
CONTINUOUS
 62
     2
100
AcDbLine
 10
39.96691780822
 20
110.275
 30
0.0
 11
78.065
 21
110.275
 31
0.0
  0
LINE
  5
2DD
330
1F
100
AcDbEntity
  8
1
  6
CONTINUOUS
 62
     2
100
AcDbLine
 10
80.625
 20
110.275
 30
0.0
 11
118.7230821918
 21
110.275
 31
0.0
  0
LINE
  5
2DE
330
1F
100
AcDbEntity
  8
1
  6
CONTINUOUS
 62
     2
100
AcDbLine
 10
39.96691780822
 20
104.065
 30
0.0
 11
78.065
 21
104.065
 31
0.0
  0
LINE
  5
2DF
330
1F
100
AcDbEntity
  8
1
  6
CONTINUOUS
 62
     2
100
AcDbLine
 10
80.625
 20
104.065
 30
0.0
 11
118.7230821918
 21
104.065
 31
0.0
  0
LINE
  5
2E0
330
1F
100
AcDbEntity
  8
1
  6
CONTINUOUS
 62
     2
100
AcDbLine
 10
130.645
 20
203.01
 30
0.0
 11
118.045
 21
203.01
 31
0.0
  0
LINE
  5
2E1
330
1F
100
AcDbEntity
  8
1
  6
CONTINUOUS
 62
     2
100
AcDbLine
 10
118.8881123246
 20
172.2364001519
 30
0.0
 11
118.045
 21
203.01
 31
0.0
  0
LINE
  5
2E2
330
1F
100
AcDbEntity
  8
1
  6
CONTINUOUS
 62
     2
100
AcDbLine
 10
130.645
 20
203.01
 30
0.0
 11
129.8018876754
 21
172.2364001519
 31
0.0
  0
ARC
  5
2E3
330
1F
100
AcDbEntity
  8
1
  6
CONTINUOUS
 62
     2
100
AcDbCircle
 10
124.345
 20
192.66
 30
0.0
 40
22.5
100
AcDbArc
 50
259.8227547784004
 51
280.1772452216002
  0
ARC
  5
2E4
330
1F
100
AcDbEntity
  8
1
  6
CONTINUOUS
 62
     6
100
AcDbCircle
 10
124.345
 20
192.66
 30
0.0
 40
21.6
100
AcDbArc
 50
259.2806683572001
 51
280.7193316428001
  0
ARC
  5
2E5
330
1F
100
AcDbEntity
  8
1
  6
CONTINUOUS
 62
     2
100
AcDbCircle
 10
120.6874371558
 20
172.2856967226
 30
0.0
 40
1.8
100
AcDbArc
 50
181.5693548047
 51
259.8227547784004
  0
ARC
  5
2E6
330
1F
100
AcDbEntity
  8
1
  6
CONTINUOUS
 62
     2
100
AcDbCircle
 10
128.0025628442
 20
172.2856967226
 30
0.0
 40
1.8
100
AcDbArc
 50
280.1772452216002
 51
358.4306451953003
  0
ARC
  5
2E7
330
1F
100
AcDbEntity
  8
1
  6
CONTINUOUS
 62
     6
100
AcDbCircle
 10
120.6622368444
 20
173.2055080884
 30
0.0
 40
1.8
100
AcDbArc
 50
181.5693548047
 51
259.2806683572001
  0
ARC
  5
2E8
330
1F
100
AcDbEntity
  8
1
  6
CONTINUOUS
 62
     6
100
AcDbCircle
 10
128.0277631556
 20
173.2055080884
 30
0.0
 40
1.8
100
AcDbArc
 50
280.7193316428001
 51
358.4306451953003
  0
LINE
  5
2E9
330
1F
100
AcDbEntity
  8
1
  6
CONTINUOUS
 62
     2
100
AcDbLine
 10
40.05198630137
 20
181.365
 30
0.0
 11
78.065
 21
181.365
 31
0.0
  0
LINE
  5
2EA
330
1F
100
AcDbEntity
  8
1
  6
CONTINUOUS
 62
     2
100
AcDbLine
 10
80.625
 20
181.365
 30
0.0
 11
118.6380136986
 21
181.365
 31
0.0
  0
LINE
  5
2EB
330
1F
100
AcDbEntity
  8
1
  6
CONTINUOUS
 62
     2
100
AcDbLine
 10
39.88184931507
 20
175.155
 30
0.0
 11
78.065
 21
175.155
 31
0.0
  0
LINE
  5
2EC
330
1F
100
AcDbEntity
  8
1
  6
CONTINUOUS
 62
     2
100
AcDbLine
 10
80.625
 20
175.155
 30
0.0
 11
118.8081506849
 21
175.155
 31
0.0
  0
LINE
  5
2ED
330
1F
100
AcDbEntity
  8
1
  6
CONTINUOUS
 62
     2
100
AcDbLine
 10
123.445
 20
203.4506948596
 30
0.0
 11
125.245
 21
203.7843051404
 31
0.0
  0
LINE
  5
2EE
330
1F
100
AcDbEntity
  8
1
  6
CONTINUOUS
 62
     2
100
AcDbLine
 10
123.67
 20
203.01
 30
0.0
 11
123.67
 21
212.6625
 31
0.0
  0
LINE
  5
2EF
330
1F
100
AcDbEntity
  8
1
  6
CONTINUOUS
 62
     2
100
AcDbLine
 10
125.02
 20
203.01
 30
0.0
 11
125.02
 21
212.6625
 31
0.0
  0
LINE
  5
2F0
330
1F
100
AcDbEntity
  8
1
  6
CONTINUOUS
 62
     2
100
AcDbLine
 10
124.345
 20
214.3275
 30
0.0
 11
123.67
 21
212.6625
 31
0.0
  0
LINE
  5
2F1
330
1F
100
AcDbEntity
  8
1
  6
CONTINUOUS
 62
     2
100
AcDbLine
 10
124.345
 20
214.3275
 30
0.0
 11
125.02
 21
212.6625
 31
0.0
  0
LINE
  5
2F2
330
1F
100
AcDbEntity
  8
1
  6
CONTINUOUS
 62
     2
100
AcDbLine
 10
124.4663991364
 20
203.01
 30
0.0
 11
125.245
 21
203.1543051404
 31
0.0
  0
LINE
  5
2F3
330
1F
100
AcDbEntity
  8
1
  6
CONTINUOUS
 62
     2
100
AcDbLine
 10
123.445
 20
204.0806948596
 30
0.0
 11
125.245
 21
204.4143051404
 31
0.0
  0
LINE
  5
2F4
330
1F
100
AcDbEntity
  8
1
  6
CONTINUOUS
 62
     2
100
AcDbLine
 10
123.445
 20
204.7106948596
 30
0.0
 11
125.245
 21
205.0443051404
 31
0.0
  0
LINE
  5
2F5
330
1F
100
AcDbEntity
  8
1
  6
CONTINUOUS
 62
     2
100
AcDbLine
 10
123.445
 20
205.3406948596
 30
0.0
 11
125.245
 21
205.6743051404
 31
0.0
  0
LINE
  5
2F6
330
1F
100
AcDbEntity
  8
1
  6
CONTINUOUS
 62
     2
100
AcDbLine
 10
123.445
 20
205.9706948596
 30
0.0
 11
125.245
 21
206.3043051404
 31
0.0
  0
LINE
  5
2F7
330
1F
100
AcDbEntity
  8
1
  6
CONTINUOUS
 62
     2
100
AcDbLine
 10
123.445
 20
206.6006948596
 30
0.0
 11
125.245
 21
206.9343051404
 31
0.0
  0
LINE
  5
2F8
330
1F
100
AcDbEntity
  8
1
  6
CONTINUOUS
 62
     2
100
AcDbLine
 10
123.445
 20
207.2306948596
 30
0.0
 11
125.245
 21
207.5643051404
 31
0.0
  0
LINE
  5
2F9
330
1F
100
AcDbEntity
  8
1
  6
CONTINUOUS
 62
     2
100
AcDbLine
 10
123.445
 20
207.8606948596
 30
0.0
 11
125.245
 21
208.1943051404
 31
0.0
  0
LINE
  5
2FA
330
1F
100
AcDbEntity
  8
1
  6
CONTINUOUS
 62
     2
100
AcDbLine
 10
123.445
 20
208.4906948596
 30
0.0
 11
125.245
 21
208.8243051404
 31
0.0
  0
LINE
  5
2FB
330
1F
100
AcDbEntity
  8
1
  6
CONTINUOUS
 62
     2
100
AcDbLine
 10
123.445
 20
209.1206948596
 30
0.0
 11
125.245
 21
209.4543051404
 31
0.0
  0
LINE
  5
2FC
330
1F
100
AcDbEntity
  8
1
  6
CONTINUOUS
 62
     2
100
AcDbLine
 10
123.445
 20
209.7506948596
 30
0.0
 11
125.245
 21
210.0843051404
 31
0.0
  0
LINE
  5
2FD
330
1F
100
AcDbEntity
  8
1
  6
CONTINUOUS
 62
     2
100
AcDbLine
 10
123.445
 20
210.3806948596
 30
0.0
 11
125.245
 21
210.7143051404
 31
0.0
  0
LINE
  5
2FE
330
1F
100
AcDbEntity
  8
1
  6
CONTINUOUS
 62
     2
100
AcDbLine
 10
123.445
 20
211.0106948596
 30
0.0
 11
125.245
 21
211.3443051404
 31
0.0
  0
LINE
  5
2FF
330
1F
100
AcDbEntity
  8
1
  6
CONTINUOUS
 62
     2
100
AcDbLine
 10
123.445
 20
211.6406948596
 30
0.0
 11
125.245
 21
211.9743051404
 31
0.0
  0
LINE
  5
300
330
1F
100
AcDbEntity
  8
1
  6
CONTINUOUS
 62
     2
100
AcDbLine
 10
123.445
 20
212.2706948596
 30
0.0
 11
125.245
 21
212.6043051404
 31
0.0
  0
LINE
  5
301
330
1F
100
AcDbEntity
  8
1
  6
CONTINUOUS
 62
     2
100
AcDbLine
 10
123.5494106323
 20
212.9200462264
 30
0.0
 11
125.0293876663
 21
213.1943437564
 31
0.0
  0
LINE
  5
302
330
1F
100
AcDbEntity
  8
1
  6
CONTINUOUS
 62
     2
100
AcDbLine
 10
123.8255656195
 20
213.601228528
 30
0.0
 11
124.7918316168
 21
213.7803153451
 31
0.0
  0
LINE
  5
303
330
1F
100
AcDbEntity
  8
1
  6
CONTINUOUS
 62
     2
100
AcDbLine
 10
33.445
 20
203.4506948596
 30
0.0
 11
35.245
 21
203.7843051404
 31
0.0
  0
LINE
  5
304
330
1F
100
AcDbEntity
  8
1
  6
CONTINUOUS
 62
     2
100
AcDbLine
 10
33.67
 20
203.01
 30
0.0
 11
33.67
 21
212.6625
 31
0.0
  0
LINE
  5
305
330
1F
100
AcDbEntity
  8
1
  6
CONTINUOUS
 62
     2
100
AcDbLine
 10
35.02
 20
203.01
 30
0.0
 11
35.02
 21
212.6625
 31
0.0
  0
LINE
  5
306
330
1F
100
AcDbEntity
  8
1
  6
CONTINUOUS
 62
     2
100
AcDbLine
 10
34.345
 20
214.3275
 30
0.0
 11
33.67
 21
212.6625
 31
0.0
  0
LINE
  5
307
330
1F
100
AcDbEntity
  8
1
  6
CONTINUOUS
 62
     2
100
AcDbLine
 10
34.345
 20
214.3275
 30
0.0
 11
35.02
 21
212.6625
 31
0.0
  0
LINE
  5
308
330
1F
100
AcDbEntity
  8
1
  6
CONTINUOUS
 62
     2
100
AcDbLine
 10
34.46639913642
 20
203.01
 30
0.0
 11
35.245
 21
203.1543051404
 31
0.0
  0
LINE
  5
309
330
1F
100
AcDbEntity
  8
1
  6
CONTINUOUS
 62
     2
100
AcDbLine
 10
33.445
 20
204.0806948596
 30
0.0
 11
35.245
 21
204.4143051404
 31
0.0
  0
LINE
  5
30A
330
1F
100
AcDbEntity
  8
1
  6
CONTINUOUS
 62
     2
100
AcDbLine
 10
33.445
 20
204.7106948596
 30
0.0
 11
35.245
 21
205.0443051404
 31
0.0
  0
LINE
  5
30B
330
1F
100
AcDbEntity
  8
1
  6
CONTINUOUS
 62
     2
100
AcDbLine
 10
33.445
 20
205.3406948596
 30
0.0
 11
35.245
 21
205.6743051404
 31
0.0
  0
LINE
  5
30C
330
1F
100
AcDbEntity
  8
1
  6
CONTINUOUS
 62
     2
100
AcDbLine
 10
33.445
 20
205.9706948596
 30
0.0
 11
35.245
 21
206.3043051404
 31
0.0
  0
LINE
  5
30D
330
1F
100
AcDbEntity
  8
1
  6
CONTINUOUS
 62
     2
100
AcDbLine
 10
33.445
 20
206.6006948596
 30
0.0
 11
35.245
 21
206.9343051404
 31
0.0
  0
LINE
  5
30E
330
1F
100
AcDbEntity
  8
1
  6
CONTINUOUS
 62
     2
100
AcDbLine
 10
33.445
 20
207.2306948596
 30
0.0
 11
35.245
 21
207.5643051404
 31
0.0
  0
LINE
  5
30F
330
1F
100
AcDbEntity
  8
1
  6
CONTINUOUS
 62
     2
100
AcDbLine
 10
33.445
 20
207.8606948596
 30
0.0
 11
35.245
 21
208.1943051404
 31
0.0
  0
LINE
  5
310
330
1F
100
AcDbEntity
  8
1
  6
CONTINUOUS
 62
     2
100
AcDbLine
 10
33.445
 20
208.4906948596
 30
0.0
 11
35.245
 21
208.8243051404
 31
0.0
  0
LINE
  5
311
330
1F
100
AcDbEntity
  8
1
  6
CONTINUOUS
 62
     2
100
AcDbLine
 10
33.445
 20
209.1206948596
 30
0.0
 11
35.245
 21
209.4543051404
 31
0.0
  0
LINE
  5
312
330
1F
100
AcDbEntity
  8
1
  6
CONTINUOUS
 62
     2
100
AcDbLine
 10
33.445
 20
209.7506948596
 30
0.0
 11
35.245
 21
210.0843051404
 31
0.0
  0
LINE
  5
313
330
1F
100
AcDbEntity
  8
1
  6
CONTINUOUS
 62
     2
100
AcDbLine
 10
33.445
 20
210.3806948596
 30
0.0
 11
35.245
 21
210.7143051404
 31
0.0
  0
LINE
  5
314
330
1F
100
AcDbEntity
  8
1
  6
CONTINUOUS
 62
     2
100
AcDbLine
 10
33.445
 20
211.0106948596
 30
0.0
 11
35.245
 21
211.3443051404
 31
0.0
  0
LINE
  5
315
330
1F
100
AcDbEntity
  8
1
  6
CONTINUOUS
 62
     2
100
AcDbLine
 10
33.445
 20
211.6406948596
 30
0.0
 11
35.245
 21
211.9743051404
 31
0.0
  0
LINE
  5
316
330
1F
100
AcDbEntity
  8
1
  6
CONTINUOUS
 62
     2
100
AcDbLine
 10
33.445
 20
212.2706948596
 30
0.0
 11
35.245
 21
212.6043051404
 31
0.0
  0
LINE
  5
317
330
1F
100
AcDbEntity
  8
1
  6
CONTINUOUS
 62
     2
100
AcDbLine
 10
33.54941063234
 20
212.9200462264
 30
0.0
 11
35.02938766631
 21
213.1943437564
 31
0.0
  0
LINE
  5
318
330
1F
100
AcDbEntity
  8
1
  6
CONTINUOUS
 62
     2
100
AcDbLine
 10
33.82556561946
 20
213.601228528
 30
0.0
 11
34.79183161685
 21
213.7803153451
 31
0.0
  0
ARC
  5
319
330
1F
100
AcDbEntity
  8
1
  6
CONTINUOUS
 62
     2
100
AcDbCircle
 10
188.1509609046
 20
-151.5208576723
 30
0.0
 40
270.0
100
AcDbArc
 50
91.19925871365997
 51
97.74833786739998
  0
ARC
  5
31A
330
1F
100
AcDbEntity
  8
1
  6
CONTINUOUS
 62
     2
100
AcDbCircle
 10
186.1261323442
 20
181.3469212429
 30
0.0
 40
90.0
100
AcDbArc
 50
252.0480741133002
 51
267.6909074348001
  0
ARC
  5
31B
330
1F
100
AcDbEntity
  8
1
  6
CONTINUOUS
 62
     2
100
AcDbCircle
 10
181.15
 20
108.5841281525
 30
0.0
 40
31.50000000000002
100
AcDbArc
 50
169.0407374346001
 51
180.0
  0
ARC
  5
31C
330
1F
100
AcDbEntity
  8
1
  6
CONTINUOUS
 62
     2
100
AcDbCircle
 10
162.2699894658
 20
107.7151044314
 30
0.0
 40
12.6
100
AcDbArc
 50
182.635394328
 51
252.0480741133002
  0
LINE
  5
31D
330
1F
100
AcDbEntity
  8
1
  6
CONTINUOUS
 62
     2
100
AcDbLine
 10
149.65
 20
108.5841281525
 30
0.0
 11
149.65
 21
107.1357552839
 31
0.0
  0
ARC
  5
31E
330
1F
100
AcDbEntity
  8
1
  6
CONTINUOUS
 62
     2
100
AcDbCircle
 10
151.9916507514
 20
114.2304250889
 30
0.0
 40
1.8
100
AcDbArc
 50
97.74833786739998
 51
169.0407374346001
  0
LINE
  5
31F
330
1F
100
AcDbEntity
  8
1
  6
CONTINUOUS
 62
     2
100
AcDbLine
 10
182.5
 20
91.42
 30
0.0
 11
182.5
 21
118.42
 31
0.0
  0
LINE
  5
320
330
1F
100
AcDbEntity
  8
1
  6
CONTINUOUS
 62
     2
100
AcDbLine
 10
182.9406948596
 20
112.57
 30
0.0
 11
183.2743051404
 21
110.77
 31
0.0
  0
LINE
  5
321
330
1F
100
AcDbEntity
  8
1
  6
CONTINUOUS
 62
     2
100
AcDbLine
 10
182.5
 20
112.345
 30
0.0
 11
192.1525
 21
112.345
 31
0.0
  0
LINE
  5
322
330
1F
100
AcDbEntity
  8
1
  6
CONTINUOUS
 62
     2
100
AcDbLine
 10
182.5
 20
110.995
 30
0.0
 11
192.1525
 21
110.995
 31
0.0
  0
LINE
  5
323
330
1F
100
AcDbEntity
  8
1
  6
CONTINUOUS
 62
     2
100
AcDbLine
 10
193.8175
 20
111.67
 30
0.0
 11
192.1525
 21
112.345
 31
0.0
  0
LINE
  5
324
330
1F
100
AcDbEntity
  8
1
  6
CONTINUOUS
 62
     2
100
AcDbLine
 10
193.8175
 20
111.67
 30
0.0
 11
192.1525
 21
110.995
 31
0.0
  0
LINE
  5
325
330
1F
100
AcDbEntity
  8
1
  6
CONTINUOUS
 62
     2
100
AcDbLine
 10
182.5
 20
111.5486008636
 30
0.0
 11
182.6443051404
 21
110.77
 31
0.0
  0
LINE
  5
326
330
1F
100
AcDbEntity
  8
1
  6
CONTINUOUS
 62
     2
100
AcDbLine
 10
183.5706948596
 20
112.57
 30
0.0
 11
183.9043051404
 21
110.77
 31
0.0
  0
LINE
  5
327
330
1F
100
AcDbEntity
  8
1
  6
CONTINUOUS
 62
     2
100
AcDbLine
 10
184.2006948596
 20
112.57
 30
0.0
 11
184.5343051404
 21
110.77
 31
0.0
  0
LINE
  5
328
330
1F
100
AcDbEntity
  8
1
  6
CONTINUOUS
 62
     2
100
AcDbLine
 10
184.8306948596
 20
112.57
 30
0.0
 11
185.1643051404
 21
110.77
 31
0.0
  0
LINE
  5
329
330
1F
100
AcDbEntity
  8
1
  6
CONTINUOUS
 62
     2
100
AcDbLine
 10
185.4606948596
 20
112.57
 30
0.0
 11
185.7943051404
 21
110.77
 31
0.0
  0
LINE
  5
32A
330
1F
100
AcDbEntity
  8
1
  6
CONTINUOUS
 62
     2
100
AcDbLine
 10
186.0906948596
 20
112.57
 30
0.0
 11
186.4243051404
 21
110.77
 31
0.0
  0
LINE
  5
32B
330
1F
100
AcDbEntity
  8
1
  6
CONTINUOUS
 62
     2
100
AcDbLine
 10
186.7206948596
 20
112.57
 30
0.0
 11
187.0543051404
 21
110.77
 31
0.0
  0
LINE
  5
32C
330
1F
100
AcDbEntity
  8
1
  6
CONTINUOUS
 62
     2
100
AcDbLine
 10
187.3506948596
 20
112.57
 30
0.0
 11
187.6843051404
 21
110.77
 31
0.0
  0
LINE
  5
32D
330
1F
100
AcDbEntity
  8
1
  6
CONTINUOUS
 62
     2
100
AcDbLine
 10
187.9806948596
 20
112.57
 30
0.0
 11
188.3143051404
 21
110.77
 31
0.0
  0
LINE
  5
32E
330
1F
100
AcDbEntity
  8
1
  6
CONTINUOUS
 62
     2
100
AcDbLine
 10
188.6106948596
 20
112.57
 30
0.0
 11
188.9443051404
 21
110.77
 31
0.0
  0
LINE
  5
32F
330
1F
100
AcDbEntity
  8
1
  6
CONTINUOUS
 62
     2
100
AcDbLine
 10
189.2406948596
 20
112.57
 30
0.0
 11
189.5743051404
 21
110.77
 31
0.0
  0
LINE
  5
330
330
1F
100
AcDbEntity
  8
1
  6
CONTINUOUS
 62
     2
100
AcDbLine
 10
189.8706948596
 20
112.57
 30
0.0
 11
190.2043051404
 21
110.77
 31
0.0
  0
LINE
  5
331
330
1F
100
AcDbEntity
  8
1
  6
CONTINUOUS
 62
     2
100
AcDbLine
 10
190.5006948596
 20
112.57
 30
0.0
 11
190.8343051404
 21
110.77
 31
0.0
  0
LINE
  5
332
330
1F
100
AcDbEntity
  8
1
  6
CONTINUOUS
 62
     2
100
AcDbLine
 10
191.1306948596
 20
112.57
 30
0.0
 11
191.4643051404
 21
110.77
 31
0.0
  0
LINE
  5
333
330
1F
100
AcDbEntity
  8
1
  6
CONTINUOUS
 62
     2
100
AcDbLine
 10
191.7606948596
 20
112.57
 30
0.0
 11
192.0943051404
 21
110.77
 31
0.0
  0
LINE
  5
334
330
1F
100
AcDbEntity
  8
1
  6
CONTINUOUS
 62
     2
100
AcDbLine
 10
192.4100462264
 20
112.4655893677
 30
0.0
 11
192.6843437564
 21
110.9856123337
 31
0.0
  0
LINE
  5
335
330
1F
100
AcDbEntity
  8
1
  6
CONTINUOUS
 62
     2
100
AcDbLine
 10
193.091228528
 20
112.1894343805
 30
0.0
 11
193.2703153451
 21
111.2231683832
 31
0.0
  0
LINE
  5
336
330
1F
100
AcDbEntity
  8
1
  6
CONTINUOUS
 62
     2
100
AcDbLine
 10
182.9406948596
 20
103.57
 30
0.0
 11
183.2743051404
 21
101.77
 31
0.0
  0
LINE
  5
337
330
1F
100
AcDbEntity
  8
1
  6
CONTINUOUS
 62
     2
100
AcDbLine
 10
182.5
 20
103.345
 30
0.0
 11
192.1525
 21
103.345
 31
0.0
  0
LINE
  5
338
330
1F
100
AcDbEntity
  8
1
  6
CONTINUOUS
 62
     2
100
AcDbLine
 10
182.5
 20
101.995
 30
0.0
 11
192.1525
 21
101.995
 31
0.0
  0
LINE
  5
339
330
1F
100
AcDbEntity
  8
1
  6
CONTINUOUS
 62
     2
100
AcDbLine
 10
193.8175
 20
102.67
 30
0.0
 11
192.1525
 21
103.345
 31
0.0
  0
LINE
  5
33A
330
1F
100
AcDbEntity
  8
1
  6
CONTINUOUS
 62
     2
100
AcDbLine
 10
193.8175
 20
102.67
 30
0.0
 11
192.1525
 21
101.995
 31
0.0
  0
LINE
  5
33B
330
1F
100
AcDbEntity
  8
1
  6
CONTINUOUS
 62
     2
100
AcDbLine
 10
182.5
 20
102.5486008636
 30
0.0
 11
182.6443051404
 21
101.77
 31
0.0
  0
LINE
  5
33C
330
1F
100
AcDbEntity
  8
1
  6
CONTINUOUS
 62
     2
100
AcDbLine
 10
183.5706948596
 20
103.57
 30
0.0
 11
183.9043051404
 21
101.77
 31
0.0
  0
LINE
  5
33D
330
1F
100
AcDbEntity
  8
1
  6
CONTINUOUS
 62
     2
100
AcDbLine
 10
184.2006948596
 20
103.57
 30
0.0
 11
184.5343051404
 21
101.77
 31
0.0
  0
LINE
  5
33E
330
1F
100
AcDbEntity
  8
1
  6
CONTINUOUS
 62
     2
100
AcDbLine
 10
184.8306948596
 20
103.57
 30
0.0
 11
185.1643051404
 21
101.77
 31
0.0
  0
LINE
  5
33F
330
1F
100
AcDbEntity
  8
1
  6
CONTINUOUS
 62
     2
100
AcDbLine
 10
185.4606948596
 20
103.57
 30
0.0
 11
185.7943051404
 21
101.77
 31
0.0
  0
LINE
  5
340
330
1F
100
AcDbEntity
  8
1
  6
CONTINUOUS
 62
     2
100
AcDbLine
 10
186.0906948596
 20
103.57
 30
0.0
 11
186.4243051404
 21
101.77
 31
0.0
  0
LINE
  5
341
330
1F
100
AcDbEntity
  8
1
  6
CONTINUOUS
 62
     2
100
AcDbLine
 10
186.7206948596
 20
103.57
 30
0.0
 11
187.0543051404
 21
101.77
 31
0.0
  0
LINE
  5
342
330
1F
100
AcDbEntity
  8
1
  6
CONTINUOUS
 62
     2
100
AcDbLine
 10
187.3506948596
 20
103.57
 30
0.0
 11
187.6843051404
 21
101.77
 31
0.0
  0
LINE
  5
343
330
1F
100
AcDbEntity
  8
1
  6
CONTINUOUS
 62
     2
100
AcDbLine
 10
187.9806948596
 20
103.57
 30
0.0
 11
188.3143051404
 21
101.77
 31
0.0
  0
LINE
  5
344
330
1F
100
AcDbEntity
  8
1
  6
CONTINUOUS
 62
     2
100
AcDbLine
 10
188.6106948596
 20
103.57
 30
0.0
 11
188.9443051404
 21
101.77
 31
0.0
  0
LINE
  5
345
330
1F
100
AcDbEntity
  8
1
  6
CONTINUOUS
 62
     2
100
AcDbLine
 10
189.2406948596
 20
103.57
 30
0.0
 11
189.5743051404
 21
101.77
 31
0.0
  0
LINE
  5
346
330
1F
100
AcDbEntity
  8
1
  6
CONTINUOUS
 62
     2
100
AcDbLine
 10
189.8706948596
 20
103.57
 30
0.0
 11
190.2043051404
 21
101.77
 31
0.0
  0
LINE
  5
347
330
1F
100
AcDbEntity
  8
1
  6
CONTINUOUS
 62
     2
100
AcDbLine
 10
190.5006948596
 20
103.57
 30
0.0
 11
190.8343051404
 21
101.77
 31
0.0
  0
LINE
  5
348
330
1F
100
AcDbEntity
  8
1
  6
CONTINUOUS
 62
     2
100
AcDbLine
 10
191.1306948596
 20
103.57
 30
0.0
 11
191.4643051404
 21
101.77
 31
0.0
  0
LINE
  5
349
330
1F
100
AcDbEntity
  8
1
  6
CONTINUOUS
 62
     2
100
AcDbLine
 10
191.7606948596
 20
103.57
 30
0.0
 11
192.0943051404
 21
101.77
 31
0.0
  0
LINE
  5
34A
330
1F
100
AcDbEntity
  8
1
  6
CONTINUOUS
 62
     2
100
AcDbLine
 10
192.4100462264
 20
103.4655893677
 30
0.0
 11
192.6843437564
 21
101.9856123337
 31
0.0
  0
LINE
  5
34B
330
1F
100
AcDbEntity
  8
1
  6
CONTINUOUS
 62
     2
100
AcDbLine
 10
193.091228528
 20
103.1894343805
 30
0.0
 11
193.2703153451
 21
102.2231683832
 31
0.0
  0
LINE
  5
34C
330
1F
100
AcDbEntity
  8
1
  6
EXLTYPE3
 62
     1
100
AcDbLine
 10
157.75
 20
102.1
 30
0.0
 11
157.75
 21
112.2
 31
0.0
  0
CIRCLE
  5
34D
330
1F
100
AcDbEntity
  8
1
  6
EXLTYPE2
 62
     6
100
AcDbCircle
 10
157.75
 20
107.17
 30
0.0
 40
3.150000000000001
  0
ARC
  5
34E
330
1F
100
AcDbEntity
  8
1
  6
CONTINUOUS
 62
     2
100
AcDbCircle
 10
82.45720325019
 20
176.7075
 30
0.0
 40
2.40150473662
100
AcDbArc
 50
139.7240432893
 51
220.2759567107
  0
ARC
  5
34F
330
1F
100
AcDbEntity
  8
1
  6
CONTINUOUS
 62
     6
100
AcDbCircle
 10
82.59216007229
 20
179.6375
 30
0.0
 40
2.40150473662
100
AcDbArc
 50
144.9984426025
 51
215.0015573975001
  0
ARC
  5
350
330
1F
100
AcDbEntity
  8
1
  6
CONTINUOUS
 62
     2
100
AcDbCircle
 10
82.45720325019
 20
179.8125
 30
0.0
 40
2.40150473662
100
AcDbArc
 50
139.7240432893
 51
220.2759567107
  0
ARC
  5
351
330
1F
100
AcDbEntity
  8
1
  6
CONTINUOUS
 62
     2
100
AcDbCircle
 10
78.79279674981
 20
179.8125
 30
0.0
 40
2.40150473662
100
AcDbArc
 50
319.7240432893001
 51
40.27595671075001
  0
ARC
  5
352
330
1F
100
AcDbEntity
  8
1
  6
CONTINUOUS
 62
     6
100
AcDbCircle
 10
78.65783992771
 20
179.6375
 30
0.0
 40
2.40150473662
100
AcDbArc
 50
324.9984426025002
 51
35.00155739745997
  0
ARC
  5
353
330
1F
100
AcDbEntity
  8
1
  6
CONTINUOUS
 62
     2
100
AcDbCircle
 10
76.23279674981
 20
176.7075
 30
0.0
 40
2.40150473662
100
AcDbArc
 50
319.7240432893001
 51
40.27595671075001
  0
ARC
  5
354
330
1F
100
AcDbEntity
  8
1
  6
CONTINUOUS
 62
     2
100
AcDbCircle
 10
76.23279674981
 20
179.8125
 30
0.0
 40
2.40150473662
100
AcDbArc
 50
319.7240432893001
 51
40.27595671075001
  0
ARC
  5
355
330
1F
100
AcDbEntity
  8
1
  6
CONTINUOUS
 62
     6
100
AcDbCircle
 10
76.09783992771
 20
176.8825
 30
0.0
 40
2.40150473662
100
AcDbArc
 50
324.9984426025002
 51
35.00155739745997
  0
ARC
  5
356
330
1F
100
AcDbEntity
  8
1
  6
CONTINUOUS
 62
     2
100
AcDbCircle
 10
79.89720325019
 20
176.7075
 30
0.0
 40
2.40150473662
100
AcDbArc
 50
139.7240432893
 51
220.2759567107
  0
ARC
  5
357
330
1F
100
AcDbEntity
  8
1
  6
CONTINUOUS
 62
     6
100
AcDbCircle
 10
80.03216007229
 20
176.8825
 30
0.0
 40
2.40150473662
100
AcDbArc
 50
144.9984426025
 51
215.0015573975001
  0
ARC
  5
358
330
1F
100
AcDbEntity
  8
1
  6
CONTINUOUS
 62
     2
100
AcDbCircle
 10
82.45720325019
 20
105.6175
 30
0.0
 40
2.40150473662
100
AcDbArc
 50
139.7240432893
 51
220.2759567107
  0
ARC
  5
359
330
1F
100
AcDbEntity
  8
1
  6
CONTINUOUS
 62
     6
100
AcDbCircle
 10
82.59216007229
 20
108.5475
 30
0.0
 40
2.40150473662
100
AcDbArc
 50
144.9984426025
 51
215.0015573975001
  0
ARC
  5
35A
330
1F
100
AcDbEntity
  8
1
  6
CONTINUOUS
 62
     2
100
AcDbCircle
 10
82.45720325019
 20
108.7225
 30
0.0
 40
2.40150473662
100
AcDbArc
 50
139.7240432893
 51
220.2759567107
  0
ARC
  5
35B
330
1F
100
AcDbEntity
  8
1
  6
CONTINUOUS
 62
     2
100
AcDbCircle
 10
78.79279674981
 20
108.7225
 30
0.0
 40
2.40150473662
100
AcDbArc
 50
319.7240432893001
 51
40.27595671075001
  0
ARC
  5
35C
330
1F
100
AcDbEntity
  8
1
  6
CONTINUOUS
 62
     6
100
AcDbCircle
 10
78.65783992771
 20
108.5475
 30
0.0
 40
2.40150473662
100
AcDbArc
 50
324.9984426025002
 51
35.00155739745997
  0
ARC
  5
35D
330
1F
100
AcDbEntity
  8
1
  6
CONTINUOUS
 62
     2
100
AcDbCircle
 10
76.23279674981
 20
105.6175
 30
0.0
 40
2.40150473662
100
AcDbArc
 50
319.7240432893001
 51
40.27595671075001
  0
ARC
  5
35E
330
1F
100
AcDbEntity
  8
1
  6
CONTINUOUS
 62
     2
100
AcDbCircle
 10
76.23279674981
 20
108.7225
 30
0.0
 40
2.40150473662
100
AcDbArc
 50
319.7240432893001
 51
40.27595671075001
  0
ARC
  5
35F
330
1F
100
AcDbEntity
  8
1
  6
CONTINUOUS
 62
     6
100
AcDbCircle
 10
76.09783992771
 20
105.7925
 30
0.0
 40
2.40150473662
100
AcDbArc
 50
324.9984426025002
 51
35.00155739745997
  0
ARC
  5
360
330
1F
100
AcDbEntity
  8
1
  6
CONTINUOUS
 62
     2
100
AcDbCircle
 10
79.89720325019
 20
105.6175
 30
0.0
 40
2.40150473662
100
AcDbArc
 50
139.7240432893
 51
220.2759567107
  0
ARC
  5
361
330
1F
100
AcDbEntity
  8
1
  6
CONTINUOUS
 62
     6
100
AcDbCircle
 10
80.03216007229
 20
105.7925
 30
0.0
 40
2.40150473662
100
AcDbArc
 50
144.9984426025
 51
215.0015573975001
  0
LINE
  5
362
330
1F
100
AcDbEntity
  8
1
  6
EXLTYPE3
 62
     1
100
AcDbLine
 10
35.3
 20
107.17
 30
0.0
 11
123.2
 21
107.17
 31
0.0
  0
LINE
  5
363
330
1F
100
AcDbEntity
  8
1
  6
EXLTYPE3
 62
     1
100
AcDbLine
 10
152.7
 20
107.17
 30
0.0
 11
162.8
 21
107.17
 31
0.0
  0
LINE
  5
364
330
1F
100
AcDbEntity
  8
1
  6
EXLTYPE3
 62
     1
100
AcDbLine
 10
31.1
 20
102.67
 30
0.0
 11
37.6
 21
102.67
 31
0.0
  0
LINE
  5
365
330
1F
100
AcDbEntity
  8
1
  6
EXLTYPE3
 62
     1
100
AcDbLine
 10
37.6
 20
111.67
 30
0.0
 11
31.1
 21
111.67
 31
0.0
  0
LINE
  5
366
330
1F
100
AcDbEntity
  8
1
  6
EXLTYPE3
 62
     1
100
AcDbLine
 10
121.09
 20
111.67
 30
0.0
 11
127.59
 21
111.67
 31
0.0
  0
LINE
  5
367
330
1F
100
AcDbEntity
  8
1
  6
EXLTYPE3
 62
     1
100
AcDbLine
 10
127.59
 20
102.67
 30
0.0
 11
121.09
 21
102.67
 31
0.0
  0
LINE
  5
368
330
1F
100
AcDbEntity
  8
1
  6
EXLTYPE3
 62
     1
100
AcDbLine
 10
124.345
 20
118.42
 30
0.0
 11
124.345
 21
89.42
 31
0.0
  0
LINE
  5
369
330
1F
100
AcDbEntity
  8
1
  6
EXLTYPE3
 62
     1
100
AcDbLine
 10
34.345
 20
118.42
 30
0.0
 11
34.345
 21
89.42
 31
0.0
  0
LINE
  5
36A
330
1F
100
AcDbEntity
  8
1
  6
EXLTYPE3
 62
     1
100
AcDbLine
 10
180.6
 20
111.67
 30
0.0
 11
193.8175
 21
111.67
 31
0.0
  0
LINE
  5
36B
330
1F
100
AcDbEntity
  8
1
  6
EXLTYPE3
 62
     1
100
AcDbLine
 10
180.6
 20
102.67
 30
0.0
 11
193.8175
 21
102.67
 31
0.0
  0
LINE
  5
36C
330
1F
100
AcDbEntity
  8
1
  6
EXLTYPE3
 62
     1
100
AcDbLine
 10
34.345
 20
215.2275
 30
0.0
 11
34.345
 21
168.16
 31
0.0
  0
LINE
  5
36D
330
1F
100
AcDbEntity
  8
1
  6
EXLTYPE3
 62
     1
100
AcDbLine
 10
124.345
 20
215.2275
 30
0.0
 11
124.345
 21
168.16
 31
0.0
  0
LINE
  5
36E
330
1F
100
AcDbEntity
  8
2
  6
CONTINUOUS
 62
     3
100
AcDbLine
 10
117.345
 20
203.01
 30
0.0
 11
108.7
 21
203.01
 31
0.0
  0
LINE
  5
36F
330
1F
100
AcDbEntity
  8
2
  6
CONTINUOUS
 62
     3
100
AcDbLine
 10
131.345
 20
203.01
 30
0.0
 11
139.3
 21
203.01
 31
0.0
  0
LINE
  5
370
330
1F
100
AcDbEntity
  8
2
  6
CONTINUOUS
 62
     3
100
AcDbLine
 10
126.345
 20
118.42
 30
0.0
 11
139.3
 21
118.42
 31
0.0
  0
LINE
  5
371
330
1F
100
AcDbEntity
  8
2
  6
CONTINUOUS
 62
     3
100
AcDbLine
 10
183.2
 20
118.42
 30
0.0
 11
198.0
 21
118.42
 31
0.0
  0
LINE
  5
372
330
1F
100
AcDbEntity
  8
2
  6
CONTINUOUS
 62
     3
100
AcDbLine
 10
122.345
 20
118.42
 30
0.0
 11
108.7
 21
118.42
 31
0.0
  0
LINE
  5
373
330
1F
100
AcDbEntity
  8
2
  6
CONTINUOUS
 62
     3
100
AcDbLine
 10
124.345
 20
118.42
 30
0.0
 11
124.345
 21
129.4
 31
0.0
  0
LINE
  5
374
330
1F
100
AcDbEntity
  8
2
  6
CONTINUOUS
 62
     3
100
AcDbLine
 10
34.345
 20
118.42
 30
0.0
 11
34.345
 21
129.4
 31
0.0
  0
TEXT
  5
375
330
1F
100
AcDbEntity
  8
2
  6
CONTINUOUS
 62
     2
100
AcDbText
 10
109.850000006
 20
187.0350000059605
 30
0.0
 40
3.5
  1
^J５５
 50
90.0
 41
1.309090906923468
  7
EXCADSTD
 72
     5
 11
109.850000006
 21
194.2349999940395
 31
0.0
100
AcDbText
  0
TEXT
  5
376
330
1F
100
AcDbEntity
  8
2
  6
CONTINUOUS
 62
     2
100
AcDbText
 10
109.850000006
 20
193.8349999880791
 30
0.0
 40
3.5
  1
^J
  7
EXCADSTD
 72
     5
 11
109.850000006
 21
193.8349999880791
 31
0.0
100
AcDbText
  0
LINE
  5
377
330
1F
100
AcDbEntity
  8
2
  6
CONTINUOUS
 62
     3
100
AcDbLine
 10
110.2
 20
178.26
 30
0.0
 11
110.2
 21
203.01
 31
0.0
  0
LINE
  5
378
330
1F
100
AcDbEntity
  8
2
  6
CONTINUOUS
 62
     3
100
AcDbLine
 10
109.7
 20
181.26
 30
0.0
 11
110.2
 21
178.26
 31
0.0
  0
LINE
  5
379
330
1F
100
AcDbEntity
  8
2
  6
CONTINUOUS
 62
     3
100
AcDbLine
 10
110.2
 20
178.26
 30
0.0
 11
110.7
 21
181.26
 31
0.0
  0
LINE
  5
37A
330
1F
100
AcDbEntity
  8
2
  6
CONTINUOUS
 62
     3
100
AcDbLine
 10
110.7
 20
200.01
 30
0.0
 11
110.2
 21
203.01
 31
0.0
  0
LINE
  5
37B
330
1F
100
AcDbEntity
  8
2
  6
CONTINUOUS
 62
     3
100
AcDbLine
 10
110.2
 20
203.01
 30
0.0
 11
109.7
 21
200.01
 31
0.0
  0
TEXT
  5
37C
330
1F
100
AcDbEntity
  8
2
  6
CONTINUOUS
 62
     2
100
AcDbText
 10
137.450000006
 20
182.9850000059605
 30
0.0
 40
3.5
  1
^J７３
 50
90.0
 41
1.309090906923468
  7
EXCADSTD
 72
     5
 11
137.450000006
 21
190.1849999940395
 31
0.0
100
AcDbText
  0
TEXT
  5
37D
330
1F
100
AcDbEntity
  8
2
  6
CONTINUOUS
 62
     2
100
AcDbText
 10
137.450000006
 20
189.7849999880791
 30
0.0
 40
3.5
  1
^J
  7
EXCADSTD
 72
     5
 11
137.450000006
 21
189.7849999880791
 31
0.0
100
AcDbText
  0
LINE
  5
37E
330
1F
100
AcDbEntity
  8
2
  6
CONTINUOUS
 62
     3
100
AcDbLine
 10
137.8
 20
170.16
 30
0.0
 11
137.8
 21
203.01
 31
0.0
  0
LINE
  5
37F
330
1F
100
AcDbEntity
  8
2
  6
CONTINUOUS
 62
     3
100
AcDbLine
 10
137.3
 20
173.16
 30
0.0
 11
137.8
 21
170.16
 31
0.0
  0
LINE
  5
380
330
1F
100
AcDbEntity
  8
2
  6
CONTINUOUS
 62
     3
100
AcDbLine
 10
137.8
 20
170.16
 30
0.0
 11
138.3
 21
173.16
 31
0.0
  0
LINE
  5
381
330
1F
100
AcDbEntity
  8
2
  6
CONTINUOUS
 62
     3
100
AcDbLine
 10
138.3
 20
200.01
 30
0.0
 11
137.8
 21
203.01
 31
0.0
  0
LINE
  5
382
330
1F
100
AcDbEntity
  8
2
  6
CONTINUOUS
 62
     3
100
AcDbLine
 10
137.8
 20
203.01
 30
0.0
 11
137.3
 21
200.01
 31
0.0
  0
LINE
  5
383
330
1F
100
AcDbEntity
  8
2
  6
CONTINUOUS
 62
     3
100
AcDbLine
 10
34.34500000000001
 20
127.9
 30
0.0
 11
124.345
 21
127.9
 31
0.0
  0
LINE
  5
384
330
1F
100
AcDbEntity
  8
2
  6
CONTINUOUS
 62
     3
100
AcDbLine
 10
37.345
 20
128.4
 30
0.0
 11
34.345
 21
127.9
 31
0.0
  0
LINE
  5
385
330
1F
100
AcDbEntity
  8
2
  6
CONTINUOUS
 62
     3
100
AcDbLine
 10
34.345
 20
127.9
 30
0.0
 11
37.345
 21
127.4
 31
0.0
  0
LINE
  5
386
330
1F
100
AcDbEntity
  8
2
  6
CONTINUOUS
 62
     3
100
AcDbLine
 10
121.345
 20
127.4
 30
0.0
 11
124.345
 21
127.9
 31
0.0
  0
LINE
  5
387
330
1F
100
AcDbEntity
  8
2
  6
CONTINUOUS
 62
     3
100
AcDbLine
 10
124.345
 20
127.9
 30
0.0
 11
121.345
 21
128.4
 31
0.0
  0
TEXT
  5
388
330
1F
100
AcDbEntity
  8
2
  6
CONTINUOUS
 62
     2
100
AcDbText
 10
72.6449999523163
 20
128.2499999940395
 30
0.0
 40
4.5
  1
４００
 41
1.226143799576105
  7
EXCADSTD
 72
     5
 11
86.04500004768373
 21
128.2499999940395
 31
0.0
100
AcDbText
  0
TEXT
  5
389
330
1F
100
AcDbEntity
  8
2
  6
CONTINUOUS
 62
     2
100
AcDbText
 10
120.7450000059605
 20
122.749999994
 30
0.0
 40
3.5
  1
^J２８
 41
1.309090906923468
  7
EXCADSTD
 72
     5
 11
127.9449999940395
 21
122.749999994
 31
0.0
100
AcDbText
  0
TEXT
  5
38A
330
1F
100
AcDbEntity
  8
2
  6
CONTINUOUS
 62
     2
100
AcDbText
 10
127.5449999880791
 20
122.749999994
 30
0.0
 40
3.5
  1
^J
  7
EXCADSTD
 72
     5
 11
127.5449999880791
 21
122.749999994
 31
0.0
100
AcDbText
  0
LINE
  5
38B
330
1F
100
AcDbEntity
  8
2
  6
CONTINUOUS
 62
     3
100
AcDbLine
 10
118.116057268
 20
122.4
 30
0.0
 11
130.573942732
 21
122.4
 31
0.0
  0
LINE
  5
38C
330
1F
100
AcDbEntity
  8
2
  6
CONTINUOUS
 62
     3
100
AcDbLine
 10
121.116057268
 20
122.9
 30
0.0
 11
118.116057268
 21
122.4
 31
0.0
  0
LINE
  5
38D
330
1F
100
AcDbEntity
  8
2
  6
CONTINUOUS
 62
     3
100
AcDbLine
 10
118.116057268
 20
122.4
 30
0.0
 11
121.116057268
 21
121.9
 31
0.0
  0
LINE
  5
38E
330
1F
100
AcDbEntity
  8
2
  6
CONTINUOUS
 62
     3
100
AcDbLine
 10
127.573942732
 20
121.9
 30
0.0
 11
130.573942732
 21
122.4
 31
0.0
  0
LINE
  5
38F
330
1F
100
AcDbEntity
  8
2
  6
CONTINUOUS
 62
     3
100
AcDbLine
 10
130.573942732
 20
122.4
 30
0.0
 11
127.573942732
 21
122.9
 31
0.0
  0
TEXT
  5
390
330
1F
100
AcDbEntity
  8
2
  6
CONTINUOUS
 62
     2
100
AcDbText
 10
109.850000006
 20
109.995
 30
0.0
 40
3.5
  1
^J２５
 50
90.0
 41
1.272727272727273
  7
EXCADSTD
 72
     5
 11
109.850000006
 21
116.995
 31
0.0
100
AcDbText
  0
TEXT
  5
391
330
1F
100
AcDbEntity
  8
2
  6
CONTINUOUS
 62
     2
100
AcDbText
 10
109.850000006
 20
116.495
 30
0.0
 40
3.5
  1
^J
  7
EXCADSTD
 72
     5
 11
109.850000006
 21
116.495
 31
0.0
100
AcDbText
  0
LINE
  5
392
330
1F
100
AcDbEntity
  8
2
  6
CONTINUOUS
 62
     3
100
AcDbLine
 10
110.2
 20
107.17
 30
0.0
 11
110.2
 21
118.42
 31
0.0
  0
LINE
  5
393
330
1F
100
AcDbEntity
  8
2
  6
CONTINUOUS
 62
     3
100
AcDbLine
 10
109.7
 20
110.17
 30
0.0
 11
110.2
 21
107.17
 31
0.0
  0
LINE
  5
394
330
1F
100
AcDbEntity
  8
2
  6
CONTINUOUS
 62
     3
100
AcDbLine
 10
110.2
 20
107.17
 30
0.0
 11
110.7
 21
110.17
 31
0.0
  0
LINE
  5
395
330
1F
100
AcDbEntity
  8
2
  6
CONTINUOUS
 62
     3
100
AcDbLine
 10
110.7
 20
115.42
 30
0.0
 11
110.2
 21
118.42
 31
0.0
  0
LINE
  5
396
330
1F
100
AcDbEntity
  8
2
  6
CONTINUOUS
 62
     3
100
AcDbLine
 10
110.2
 20
118.42
 30
0.0
 11
109.7
 21
115.42
 31
0.0
  0
TEXT
  5
397
330
1F
100
AcDbEntity
  8
2
  6
CONTINUOUS
 62
     2
100
AcDbText
 10
137.450000006
 20
101.3200000059605
 30
0.0
 40
3.5
  1
^J６０
 50
90.0
 41
1.309090906923468
  7
EXCADSTD
 72
     5
 11
137.450000006
 21
108.5199999940395
 31
0.0
100
AcDbText
  0
TEXT
  5
398
330
1F
100
AcDbEntity
  8
2
  6
CONTINUOUS
 62
     2
100
AcDbText
 10
137.450000006
 20
108.1199999880791
 30
0.0
 40
3.5
  1
^J
  7
EXCADSTD
 72
     5
 11
137.450000006
 21
108.1199999880791
 31
0.0
100
AcDbText
  0
LINE
  5
399
330
1F
100
AcDbEntity
  8
2
  6
CONTINUOUS
 62
     3
100
AcDbLine
 10
137.8
 20
91.42
 30
0.0
 11
137.8
 21
118.42
 31
0.0
  0
LINE
  5
39A
330
1F
100
AcDbEntity
  8
2
  6
CONTINUOUS
 62
     3
100
AcDbLine
 10
137.3
 20
94.42
 30
0.0
 11
137.8
 21
91.42
 31
0.0
  0
LINE
  5
39B
330
1F
100
AcDbEntity
  8
2
  6
CONTINUOUS
 62
     3
100
AcDbLine
 10
137.8
 20
91.42
 30
0.0
 11
138.3
 21
94.42
 31
0.0
  0
LINE
  5
39C
330
1F
100
AcDbEntity
  8
2
  6
CONTINUOUS
 62
     3
100
AcDbLine
 10
138.3
 20
115.42
 30
0.0
 11
137.8
 21
118.42
 31
0.0
  0
LINE
  5
39D
330
1F
100
AcDbEntity
  8
2
  6
CONTINUOUS
 62
     3
100
AcDbLine
 10
137.8
 20
118.42
 30
0.0
 11
137.3
 21
115.42
 31
0.0
  0
TEXT
  5
39E
330
1F
100
AcDbEntity
  8
2
  6
CONTINUOUS
 62
     2
100
AcDbText
 10
196.150000006
 20
103.67
 30
0.0
 40
3.5
  1
^J２０
 50
90.0
 41
1.272727272727273
  7
EXCADSTD
 72
     5
 11
196.150000006
 21
110.67
 31
0.0
100
AcDbText
  0
TEXT
  5
39F
330
1F
100
AcDbEntity
  8
2
  6
CONTINUOUS
 62
     2
100
AcDbText
 10
196.150000006
 20
110.17
 30
0.0
 40
3.5
  1
^J
  7
EXCADSTD
 72
     5
 11
196.150000006
 21
110.17
 31
0.0
100
AcDbText
  0
LINE
  5
3A0
330
1F
100
AcDbEntity
  8
2
  6
CONTINUOUS
 62
     3
100
AcDbLine
 10
196.5
 20
102.67
 30
0.0
 11
196.5
 21
111.67
 31
0.0
  0
LINE
  5
3A1
330
1F
100
AcDbEntity
  8
2
  6
CONTINUOUS
 62
     3
100
AcDbLine
 10
196.0
 20
105.67
 30
0.0
 11
196.5
 21
102.67
 31
0.0
  0
LINE
  5
3A2
330
1F
100
AcDbEntity
  8
2
  6
CONTINUOUS
 62
     3
100
AcDbLine
 10
196.5
 20
102.67
 30
0.0
 11
197.0
 21
105.67
 31
0.0
  0
LINE
  5
3A3
330
1F
100
AcDbEntity
  8
2
  6
CONTINUOUS
 62
     3
100
AcDbLine
 10
197.0
 20
108.67
 30
0.0
 11
196.5
 21
111.67
 31
0.0
  0
LINE
  5
3A4
330
1F
100
AcDbEntity
  8
2
  6
CONTINUOUS
 62
     3
100
AcDbLine
 10
196.5
 20
111.67
 30
0.0
 11
196.0
 21
108.67
 31
0.0
  0
TEXT
  5
3A5
330
1F
100
AcDbEntity
  8
2
  6
CONTINUOUS
 62
     2
100
AcDbText
 10
196.150000006
 20
111.545
 30
0.0
 40
3.5
  1
^J１５
 50
90.0
 41
1.272727272727273
  7
EXCADSTD
 72
     5
 11
196.150000006
 21
118.545
 31
0.0
100
AcDbText
  0
TEXT
  5
3A6
330
1F
100
AcDbEntity
  8
2
  6
CONTINUOUS
 62
     2
100
AcDbText
 10
196.150000006
 20
118.045
 30
0.0
 40
3.5
  1
^J
  7
EXCADSTD
 72
     5
 11
196.150000006
 21
118.045
 31
0.0
100
AcDbText
  0
LINE
  5
3A7
330
1F
100
AcDbEntity
  8
2
  6
CONTINUOUS
 62
     3
100
AcDbLine
 10
196.5
 20
111.67
 30
0.0
 11
196.5
 21
118.42
 31
0.0
  0
LINE
  5
3A8
330
1F
100
AcDbEntity
  8
2
  6
CONTINUOUS
 62
     3
100
AcDbLine
 10
196.0
 20
114.67
 30
0.0
 11
196.5
 21
111.67
 31
0.0
  0
LINE
  5
3A9
330
1F
100
AcDbEntity
  8
2
  6
CONTINUOUS
 62
     3
100
AcDbLine
 10
196.5
 20
111.67
 30
0.0
 11
197.0
 21
114.67
 31
0.0
  0
LINE
  5
3AA
330
1F
100
AcDbEntity
  8
2
  6
CONTINUOUS
 62
     3
100
AcDbLine
 10
197.0
 20
115.42
 30
0.0
 11
196.5
 21
118.42
 31
0.0
  0
LINE
  5
3AB
330
1F
100
AcDbEntity
  8
2
  6
CONTINUOUS
 62
     3
100
AcDbLine
 10
196.5
 20
118.42
 30
0.0
 11
196.0
 21
115.42
 31
0.0
  0
TEXT
  5
3AC
330
1F
100
AcDbEntity
  8
2
  6
CONTINUOUS
 62
     2
100
AcDbText
 10
99.15000000596
 20
92.35000004768372
 30
0.0
 40
3.5
  1
φ
 50
90.0
 41
1.280000000000001
  7
EXCADSTD
 72
     5
 11
99.15000000596
 21
95.55000004768372
 31
0.0
100
AcDbText
  0
TEXT
  5
3AD
330
1F
100
AcDbEntity
  8
2
  6
CONTINUOUS
 62
     2
100
AcDbText
 10
99.15000000596
 20
95.75000002384186
 30
0.0
 40
3.5
  1
^J１４
 50
90.0
 41
1.23636362769387
  7
EXCADSTD
 72
     5
 11
99.15000000596
 21
102.5499999761581
 31
0.0
100
AcDbText
  0
TEXT
  5
3AE
330
1F
100
AcDbEntity
  8
2
  6
CONTINUOUS
 62
     2
100
AcDbText
 10
99.15000000596
 20
101.9499999523163
 30
0.0
 40
3.5
  1
^J
  7
EXCADSTD
 72
     5
 11
99.15000000596
 21
101.9499999523163
 31
0.0
100
AcDbText
  0
LINE
  5
3AF
330
1F
100
AcDbEntity
  8
2
  6
CONTINUOUS
 62
     3
100
AcDbLine
 10
99.5
 20
92.0999998474121
 30
0.0
 11
99.5
 21
113.775
 31
0.0
  0
LINE
  5
3B0
330
1F
100
AcDbEntity
  8
2
  6
CONTINUOUS
 62
     3
100
AcDbLine
 10
100.0
 20
101.065
 30
0.0
 11
99.5
 21
104.065
 31
0.0
  0
LINE
  5
3B1
330
1F
100
AcDbEntity
  8
2
  6
CONTINUOUS
 62
     3
100
AcDbLine
 10
99.5
 20
104.065
 30
0.0
 11
99.0
 21
101.065
 31
0.0
  0
LINE
  5
3B2
330
1F
100
AcDbEntity
  8
2
  6
CONTINUOUS
 62
     3
100
AcDbLine
 10
99.0
 20
113.275
 30
0.0
 11
99.5
 21
110.275
 31
0.0
  0
LINE
  5
3B3
330
1F
100
AcDbEntity
  8
2
  6
CONTINUOUS
 62
     3
100
AcDbLine
 10
99.5
 20
110.275
 30
0.0
 11
100.0
 21
113.275
 31
0.0
  0
LINE
  5
3B4
330
1F
100
AcDbEntity
  8
2
  6
CONTINUOUS
 62
     3
100
AcDbLine
 10
127.345
 20
170.16
 30
0.0
 11
139.3
 21
170.16
 31
0.0
  0
LINE
  5
3B5
330
1F
100
AcDbEntity
  8
2
  6
CONTINUOUS
 62
     3
100
AcDbLine
 10
127.345
 20
91.42
 30
0.0
 11
139.3
 21
91.42
 31
0.0
  0
LINE
  5
3B6
330
1F
100
AcDbEntity
  8
2
  6
CONTINUOUS
 62
     3
100
AcDbLine
 10
118.116057268
 20
115.9547151361
 30
0.0
 11
118.116057268
 21
123.9
 31
0.0
  0
LINE
  5
3B7
330
1F
100
AcDbEntity
  8
2
  6
CONTINUOUS
 62
     3
100
AcDbLine
 10
130.573942732
 20
115.9547151361
 30
0.0
 11
130.573942732
 21
123.9
 31
0.0
  0
LINE
  5
3B8
330
1F
100
AcDbEntity
  8
2
  6
CONTINUOUS
 62
     3
100
AcDbLine
 10
194.5175
 20
102.67
 30
0.0
 11
198.0
 21
102.67
 31
0.0
  0
LINE
  5
3B9
330
1F
100
AcDbEntity
  8
2
  6
CONTINUOUS
 62
     3
100
AcDbLine
 10
194.5175
 20
111.67
 30
0.0
 11
198.0
 21
111.67
 31
0.0
  0
CIRCLE
  5
3BA
330
1F
100
AcDbEntity
  8
LAY-4
  6
CONTINUOUS
 62
     6
100
AcDbCircle
 10
109.9
 20
163.4
 30
0.0
 40
4.5
  0
TEXT
  5
3BB
330
1F
100
AcDbEntity
  8
LAY-4
  6
CONTINUOUS
 62
     2
100
AcDbText
 10
106.7180193901062
 20
160.2180193901062
 30
0.0
 40
6.363961219787598
  1
１
 41
1.119999999999999
  7
EXCADSTD
 72
     5
 11
111.8091883659363
 21
160.2180193901062
 31
0.0
100
AcDbText
  0
CIRCLE
  5
3BC
330
1F
100
AcDbEntity
  8
LAY-4
  6
CONTINUOUS
 62
     6
100
AcDbCircle
 10
48.79
 20
163.4
 30
0.0
 40
4.5
  0
TEXT
  5
3BD
330
1F
100
AcDbEntity
  8
LAY-4
  6
CONTINUOUS
 62
     2
100
AcDbText
 10
45.6080193901062
 20
160.2180193901062
 30
0.0
 40
6.363961219787598
  1
２
 41
1.120000000000001
  7
EXCADSTD
 72
     5
 11
50.69918836593628
 21
160.2180193901062
 31
0.0
100
AcDbText
  0
CIRCLE
  5
3BE
330
1F
100
AcDbEntity
  8
LAY-4
  6
CONTINUOUS
 62
     6
100
AcDbCircle
 10
94.7
 20
163.4
 30
0.0
 40
4.5
  0
TEXT
  5
3BF
330
1F
100
AcDbEntity
  8
LAY-4
  6
CONTINUOUS
 62
     2
100
AcDbText
 10
91.5180193901062
 20
160.2180193901062
 30
0.0
 40
6.363961219787598
  1
３
 41
1.119999999999999
  7
EXCADSTD
 72
     5
 11
96.60918836593628
 21
160.2180193901062
 31
0.0
100
AcDbText
  0
CIRCLE
  5
3C0
330
1F
100
AcDbEntity
  8
LAY-4
  6
CONTINUOUS
 62
     6
100
AcDbCircle
 10
137.3
 20
215.1
 30
0.0
 40
4.5
  0
TEXT
  5
3C1
330
1F
100
AcDbEntity
  8
LAY-4
  6
CONTINUOUS
 62
     2
100
AcDbText
 10
134.1180193901062
 20
211.9180193901062
 30
0.0
 40
6.363961219787598
  1
４
 41
1.119999999999999
  7
EXCADSTD
 72
     5
 11
139.2091883659363
 21
211.9180193901062
 31
0.0
100
AcDbText
  0
LEADER
  5
3C2
330
1F
100
AcDbEntity
  8
LAY-4
  6
CONTINUOUS
 62
     6
100
AcDbLeader
  3
ISO-25
 76
     2
 10
119.2209480243
 20
171.2419488472
 30
0.0
 10
113.3434234157
 20
166.2970390367
 30
0.0
1001
ACAD
1000
DSTYLE
1002
{
1070
     5
1000
EX_NORM
1070
    41
1040
3.0
1070
   341
1005
4B
1002
}
  0
LEADER
  5
3C3
330
1F
100
AcDbEntity
  8
LAY-4
  6
CONTINUOUS
 62
     6
100
AcDbLeader
  3
ISO-25
 76
     2
 10
99.8
 20
175.155
 30
0.0
 10
96.49105657927
 20
167.5282098214
 30
0.0
1001
ACAD
1000
DSTYLE
1002
{
1070
     5
1000
EX_NORM
1070
    41
1040
3.0
1070
   341
1005
4B
1002
}
  0
LEADER
  5
3C4
330
1F
100
AcDbEntity
  8
LAY-4
  6
CONTINUOUS
 62
     6
100
AcDbLeader
  3
ISO-25
 76
     2
 10
39.54330751717
 20
171.3550486405
 30
0.0
 10
45.37869432366
 20
166.334790211
 30
0.0
1001
ACAD
1000
DSTYLE
1002
{
1070
     5
1000
EX_NORM
1070
    41
1040
3.0
1070
   341
1005
4B
1002
}
  0
LEADER
  5
3C5
330
1F
100
AcDbEntity
  8
LAY-4
  6
CONTINUOUS
 62
     6
100
AcDbLeader
  3
ISO-25
 76
     2
 10
125.245
 20
208.1943051404
 30
0.0
 10
133.3952973181
 20
212.8631949201
 30
0.0
1001
ACAD
1000
DSTYLE
1002
{
1070
     5
1000
EX_NORM
1070
    41
1040
3.0
1070
   341
1005
4B
1002
}
  0
LINE
  5
3C6
330
1F
100
AcDbEntity
  8
LAY-4
  6
CONTINUOUS
 62
     6
100
AcDbLine
 10
115.51
 20
214.87
 30
0.0
 11
103.39
 21
214.87
 31
0.0
  0
TEXT
  5
3C7
330
1F
100
AcDbEntity
  8
LAY-4
  6
CONTINUOUS
 62
     2
100
AcDbText
 10
103.19
 20
215.22
 30
0.0
 40
3.5
  1
４×３０
 41
1.130434782608696
  7
EXCADSTD
 72
     5
 11
116.19
 21
215.22
 31
0.0
100
AcDbText
  0
LEADER
  5
3C8
330
1F
100
AcDbEntity
  8
LAY-4
  6
CONTINUOUS
 62
     6
100
AcDbLeader
  3
ISO-25
 76
     2
 10
123.445
 20
211.0106948596
 30
0.0
 10
115.51
 20
214.87
 30
0.0
1001
ACAD
1000
DSTYLE
1002
{
1070
     5
1000
EX_NORM
1070
    41
1040
3.5
1070
   341
1005
4B
1002
}
  0
TEXT
  5
3C9
330
1F
100
AcDbEntity
  8
LAY-4
  6
CONTINUOUS
 62
     2
100
AcDbText
 10
56.40000000000002
 20
33.5
 30
0.0
 40
4.75
  1
※品番末尾にカラー記号を付す。（例：ＮＡ４９１Ｖ　ＢＮ８）
 41
0.9348950410708858
  7
EXCADSTD
 72
     5
 11
166.15
 21
33.5
 31
0.0
100
AcDbText
  0
ENDSEC
  0
SECTION
  2
OBJECTS
  0
DICTIONARY
  5
C
330
0
100
AcDbDictionary
  3
ACAD_GROUP
350
D
  3
ACAD_LAYOUT
350
1A
  3
ACAD_MATERIAL
350
3B
  3
ACAD_MLEADERSTYLE
350
3EC
  3
ACAD_MLINESTYLE
350
17
  3
ACAD_PLOTSETTINGS
350
19
  3
ACAD_VISUALSTYLE
350
2A
  3
ACDBHEADERROUNDTRIPXREC
350
3CA
  3
ACDBVARIABLEDICTIONARY
350
3EA
  0
DICTIONARY
  5
D
102
{ACAD_REACTORS
330
C
102
}
330
C
100
AcDbDictionary
  0
DICTIONARY
  5
1A
102
{ACAD_REACTORS
330
C
102
}
330
C
100
AcDbDictionary
  0
DICTIONARY
  5
3B
102
{ACAD_REACTORS
330
C
102
}
330
C
100
AcDbDictionary
  3
BYBLOCK
350
3D
  3
BYLAYER
350
3C
  3
GLOBAL
350
3E
  0
DICTIONARY
  5
3EC
102
{ACAD_REACTORS
330
C
102
}
330
C
100
AcDbDictionary
  0
DICTIONARY
  5
17
102
{ACAD_REACTORS
330
C
102
}
330
C
100
AcDbDictionary
  3
STANDARD
350
18
  0
DICTIONARY
  5
19
102
{ACAD_REACTORS
330
C
102
}
330
C
100
AcDbDictionary
  0
DICTIONARY
  5
2A
102
{ACAD_REACTORS
330
C
102
}
330
C
100
AcDbDictionary
  3
2DWIREFRAME
350
2F
  3
3D_HIDDEN
350
31
  3
3DWIREFRAME
350
30
  3
BASIC
350
32
  3
BRIGHTEN
350
36
  3
COLORCHANGE
350
3A
  3
CONCEPTUAL
350
34
  3
DIM
350
35
  3
FACEPATTERN
350
39
  3
FLAT
350
2B
  3
FLATWITHEDGES
350
2C
  3
GOURAUD
350
2D
  3
GOURAUDWITHEDGES
350
2E
  3
LINEPATTERN
350
38
  3
REALISTIC
350
33
  3
THICKEN
350
37
  0
DICTIONARY
  5
3CA
102
{ACAD_REACTORS
330
C
102
}
330
C
100
AcDbDictionary
  3
CEPSNTYPE
350
3D3
  3
DIMSTYLEDATA
350
3E9
  3
FINGERPRINTGUID
350
3D4
  3
HYPERLINKBASE
350
3CD
  3
INSUNITS
350
3D2
  3
LAYOUTDICT
350
3CF
  3
LWETCUNION
350
3D1
  3
PLOTSETDICT
350
3D0
  3
PSVPSCALE
350
3D6
  3
PUCSBASE
350
3D9
  3
PUCSORGBACK
350
3DF
  3
PUCSORGBOTTOM
350
3DB
  3
PUCSORGFRONT
350
3DE
  3
PUCSORGLEFT
350
3DC
  3
PUCSORGRIGHT
350
3DD
  3
PUCSORGTOP
350
3DA
  3
PUCSORTHOREF
350
3D7
  3
PUCSORTHOVIEW
350
3D8
  3
STYLESHEET
350
3CE
  3
TSTACKALIGN
350
3CB
  3
TSTACKSIZE
350
3CC
  3
UCSBASE
350
3E2
  3
UCSORGBACK
350
3E8
  3
UCSORGBOTTOM
350
3E4
  3
UCSORGFRONT
350
3E7
  3
UCSORGLEFT
350
3E5
  3
UCSORGRIGHT
350
3E6
  3
UCSORGTOP
350
3E3
  3
UCSORTHOREF
350
3E0
  3
UCSORTHOVIEW
350
3E1
  3
VERSIONGUID
350
3D5
  0
DICTIONARY
  5
3EA
102
{ACAD_REACTORS
330
C
102
}
330
C
100
AcDbDictionary
  3
DIMASSOC
350
3EF
  3
HIDETEXT
350
3F0
  3
PSOLHEIGHT
350
3EE
  3
PSOLWIDTH
350
3ED
  0
MATERIAL
  5
3D
102
{ACAD_REACTORS
330
3B
102
}
102
{ACAD_XDICTIONARY
360
3F3
102
}
330
3B
100
AcDbMaterial
  1
ByBlock
  0
MATERIAL
  5
3C
102
{ACAD_REACTORS
330
3B
102
}
102
{ACAD_XDICTIONARY
360
3F1
102
}
330
3B
100
AcDbMaterial
  1
ByLayer
  0
MATERIAL
  5
3E
102
{ACAD_REACTORS
330
3B
102
}
102
{ACAD_XDICTIONARY
360
3F5
102
}
330
3B
100
AcDbMaterial
  1
Global
  0
MLINESTYLE
  5
18
102
{ACAD_REACTORS
330
17
102
}
330
17
100
AcDbMlineStyle
  2
Standard
 70
     0
  3

 62
   256
 51
90.0
 52
90.0
 71
     2
 49
0.5
 62
   256
  6
BYLAYER
 49
-0.5
 62
   256
  6
BYLAYER
  0
ACAD_PROXY_OBJECT
  5
2F
102
{ACAD_REACTORS
330
2A
102
}
330
2A
100
AcDbProxyObject
 90
      499
 91
      501
 93
      436
310
42CC9915DA5C99599C985B595049028333333333333E3BF0000000000000FB0107901411070040501600405405064090741402480A0340
1001
ACAD
1000
AcDbSavedByObjectVersion
1070
     0
  0
ACAD_PROXY_OBJECT
  5
31
102
{ACAD_REACTORS
330
2A
102
}
330
2A
100
AcDbProxyObject
 90
      499
 91
      501
 93
      500
310
424CD108121A5919195B90640502408333333333333E3BF0000000000000FB01079024090700405020000000000001110200405405064090740C02480A0340
1001
ACAD
1000
AcDbSavedByObjectVersion
1070
     0
  0
ACAD_PROXY_OBJECT
  5
30
102
{ACAD_REACTORS
330
2A
102
}
330
2A
100
AcDbProxyObject
 90
      499
 91
      501
 93
      436
310
42CCD915DA5C99599C985B595059028333333333333E3BF0000000000000FB0107901411070040501600405405064090741402480A0340
1001
ACAD
1000
AcDbSavedByObjectVersion
1070
     0
  0
ACAD_PROXY_OBJECT
  5
32
102
{ACAD_REACTORS
330
2A
102
}
330
2A
100
AcDbProxyObject
 90
      499
 91
      501
 93
      388
310
4150985CDA58D07406404333333333333E3BF0000000000000FB0107A41107004050150841D405064090741402480A0350
1001
ACAD
1000
AcDbSavedByObjectVersion
1070
     0
  0
ACAD_PROXY_OBJECT
  5
36
102
{ACAD_REACTORS
330
2A
102
}
330
2A
100
AcDbProxyObject
 90
      499
 91
      501
 93
      428
310
42109C9A59DA1D195B90C409028333333333333E3BF0000000000000FB010790141107004050150841D405064090741402480A029950
1001
ACAD
1000
AcDbSavedByObjectVersion
1070
     0
  0
ACAD_PROXY_OBJECT
  5
3A
102
{ACAD_REACTORS
330
2A
102
}
330
2A
100
AcDbProxyObject
 90
      499
 91
      501
 93
      452
310
42D0DBDB1BDC90DA185B99D95104090240C333333333333E3BF0000000000000FB0108901411070040501508421405064090741402480A0350
1001
ACAD
1000
AcDbSavedByObjectVersion
1070
     0
  0
ACAD_PROXY_OBJECT
  5
34
102
{ACAD_REACTORS
330
2A
102
}
330
2A
100
AcDbProxyObject
 90
      499
 91
      501
 93
      500
310
4290DBDB98D95C1D1D585B10940D028333333333333E3BF0000000000000FB0107902409070040501000000000000111010841D405064090740C02480A0340
1001
ACAD
1000
AcDbSavedByObjectVersion
1070
     0
  0
ACAD_PROXY_OBJECT
  5
35
102
{ACAD_REACTORS
330
2A
102
}
330
2A
100
AcDbProxyObject
 90
      499
 91
      501
 93
      412
310
40D11A5B50B409028333333333333E3BF0000000000000FB010790141107004050150841D405064090741402480A02677FFFFFD0
1001
ACAD
1000
AcDbSavedByObjectVersion
1070
     0
  0
ACAD_PROXY_OBJECT
  5
39
102
{ACAD_REACTORS
330
2A
102
}
330
2A
100
AcDbProxyObject
 90
      499
 91
      501
 93
      444
310
42D19858D95C185D1D195C9B90F409028333333333333E3BF0000000000000FB010790141107004050150841D405064090741402480A0350
1001
ACAD
1000
AcDbSavedByObjectVersion
1070
     0
  0
ACAD_PROXY_OBJECT
  5
2B
102
{ACAD_REACTORS
330
2A
102
}
330
2A
100
AcDbProxyObject
 90
      499
 91
      501
 93
      388
310
41119B185D240901404333333333333E3BF0000000000000F9010740A41107004050150841D405064090741402480A1B50
1001
ACAD
1000
AcDbSavedByObjectVersion
1070
     0
  0
ACAD_PROXY_OBJECT
  5
2C
102
{ACAD_REACTORS
330
2A
102
}
330
2A
100
AcDbProxyObject
 90
      499
 91
      501
 93
      476
310
43519B185D15DA5D1A115919D95CD0140901404333333333333E3BF0000000000000F9010740901411070040501600405405064090741402480A1B50
1001
ACAD
1000
AcDbSavedByObjectVersion
1070
     0
  0
ACAD_PROXY_OBJECT
  5
2D
102
{ACAD_REACTORS
330
2A
102
}
330
2A
100
AcDbProxyObject
 90
      499
 91
      501
 93
      412
310
41D1DBDD5C985D5910240902404333333333333E3BF0000000000000F9010740A411070040501641D405064090741402480A1B50
1001
ACAD
1000
AcDbSavedByObjectVersion
1070
     0
  0
ACAD_PROXY_OBJECT
  5
2E
102
{ACAD_REACTORS
330
2A
102
}
330
2A
100
AcDbProxyObject
 90
      499
 91
      501
 93
      500
310
4411DBDD5C985D5915DA5D1A115919D95CD0340902404333333333333E3BF0000000000000F9010740901411070040501600405405064090741402480A1B50
1001
ACAD
1000
AcDbSavedByObjectVersion
1070
     0
  0
ACAD_PROXY_OBJECT
  5
38
102
{ACAD_REACTORS
330
2A
102
}
330
2A
100
AcDbProxyObject
 90
      499
 91
      501
 93
      444
310
42D31A5B995C185D1D195C9B90E409028333333333333E3BF0000000000000FB010790141107004050750841D405064090741402483A0350
1001
ACAD
1000
AcDbSavedByObjectVersion
1070
     0
  0
ACAD_PROXY_OBJECT
  5
33
102
{ACAD_REACTORS
330
2A
102
}
330
2A
100
AcDbProxyObject
 90
      499
 91
      501
 93
      420
310
425499585B1A5CDD1A58D08409028333333333333E3BF0000000000000FB01079019070040501508421405064090741402480A1B40
1001
ACAD
1000
AcDbSavedByObjectVersion
1070
     0
  0
ACAD_PROXY_OBJECT
  5
37
102
{ACAD_REACTORS
330
2A
102
}
330
2A
100
AcDbProxyObject
 90
      499
 91
      501
 93
      412
310
41D51A1A58DAD95B90D409028333333333333E3BF0000000000000FB010790141107004050150C41D405064090741402480A0350
1001
ACAD
1000
AcDbSavedByObjectVersion
1070
     0
  0
XRECORD
  5
3D3
102
{ACAD_REACTORS
330
3CA
102
}
330
3CA
100
AcDbXrecord
 90
        0
  0
XRECORD
  5
3E9
102
{ACAD_REACTORS
330
3CA
102
}
330
3CA
100
AcDbXrecord
1000
DSTYLE
1002
{
1070
   340
340
11
1002
}
  0
XRECORD
  5
3D4
102
{ACAD_REACTORS
330
3CA
102
}
330
3CA
100
AcDbXrecord
  1
{397E6C2E-307E-4309-933C-2F56FDCCF4D3}
  0
XRECORD
  5
3CD
102
{ACAD_REACTORS
330
3CA
102
}
330
3CA
100
AcDbXrecord
  1

  0
XRECORD
  5
3D2
102
{ACAD_REACTORS
330
3CA
102
}
330
3CA
100
AcDbXrecord
 90
        4
  0
XRECORD
  5
3CF
102
{ACAD_REACTORS
330
3CA
102
}
330
3CA
100
AcDbXrecord
340
1A
  0
XRECORD
  5
3D1
102
{ACAD_REACTORS
330
3CA
102
}
330
3CA
100
AcDbXrecord
 90
    10781
  0
XRECORD
  5
3D0
102
{ACAD_REACTORS
330
3CA
102
}
330
3CA
100
AcDbXrecord
340
19
  0
XRECORD
  5
3D6
102
{ACAD_REACTORS
330
3CA
102
}
330
3CA
100
AcDbXrecord
 40
0.0
  0
XRECORD
  5
3D9
102
{ACAD_REACTORS
330
3CA
102
}
330
3CA
100
AcDbXrecord
340
0
  0
XRECORD
  5
3DF
102
{ACAD_REACTORS
330
3CA
102
}
330
3CA
100
AcDbXrecord
 10
0.0
 20
0.0
 30
0.0
  0
XRECORD
  5
3DB
102
{ACAD_REACTORS
330
3CA
102
}
330
3CA
100
AcDbXrecord
 10
0.0
 20
0.0
 30
0.0
  0
XRECORD
  5
3DE
102
{ACAD_REACTORS
330
3CA
102
}
330
3CA
100
AcDbXrecord
 10
0.0
 20
0.0
 30
0.0
  0
XRECORD
  5
3DC
102
{ACAD_REACTORS
330
3CA
102
}
330
3CA
100
AcDbXrecord
 10
0.0
 20
0.0
 30
0.0
  0
XRECORD
  5
3DD
102
{ACAD_REACTORS
330
3CA
102
}
330
3CA
100
AcDbXrecord
 10
0.0
 20
0.0
 30
0.0
  0
XRECORD
  5
3DA
102
{ACAD_REACTORS
330
3CA
102
}
330
3CA
100
AcDbXrecord
 10
0.0
 20
0.0
 30
0.0
  0
XRECORD
  5
3D7
102
{ACAD_REACTORS
330
3CA
102
}
330
3CA
100
AcDbXrecord
340
0
  0
XRECORD
  5
3D8
102
{ACAD_REACTORS
330
3CA
102
}
330
3CA
100
AcDbXrecord
 70
     0
  0
XRECORD
  5
3CE
102
{ACAD_REACTORS
330
3CA
102
}
330
3CA
100
AcDbXrecord
  1

  0
XRECORD
  5
3CB
102
{ACAD_REACTORS
330
3CA
102
}
330
3CA
100
AcDbXrecord
 90
        1
  0
XRECORD
  5
3CC
102
{ACAD_REACTORS
330
3CA
102
}
330
3CA
100
AcDbXrecord
 90
       70
  0
XRECORD
  5
3E2
102
{ACAD_REACTORS
330
3CA
102
}
330
3CA
100
AcDbXrecord
340
0
  0
XRECORD
  5
3E8
102
{ACAD_REACTORS
330
3CA
102
}
330
3CA
100
AcDbXrecord
 10
0.0
 20
0.0
 30
0.0
  0
XRECORD
  5
3E4
102
{ACAD_REACTORS
330
3CA
102
}
330
3CA
100
AcDbXrecord
 10
0.0
 20
0.0
 30
0.0
  0
XRECORD
  5
3E7
102
{ACAD_REACTORS
330
3CA
102
}
330
3CA
100
AcDbXrecord
 10
0.0
 20
0.0
 30
0.0
  0
XRECORD
  5
3E5
102
{ACAD_REACTORS
330
3CA
102
}
330
3CA
100
AcDbXrecord
 10
0.0
 20
0.0
 30
0.0
  0
XRECORD
  5
3E6
102
{ACAD_REACTORS
330
3CA
102
}
330
3CA
100
AcDbXrecord
 10
0.0
 20
0.0
 30
0.0
  0
XRECORD
  5
3E3
102
{ACAD_REACTORS
330
3CA
102
}
330
3CA
100
AcDbXrecord
 10
0.0
 20
0.0
 30
0.0
  0
XRECORD
  5
3E0
102
{ACAD_REACTORS
330
3CA
102
}
330
3CA
100
AcDbXrecord
340
0
  0
XRECORD
  5
3E1
102
{ACAD_REACTORS
330
3CA
102
}
330
3CA
100
AcDbXrecord
 70
     0
  0
XRECORD
  5
3D5
102
{ACAD_REACTORS
330
3CA
102
}
330
3CA
100
AcDbXrecord
  1
{FAEB1C32-E019-11D5-929B-00C0DF256EC4}
  0
DICTIONARYVAR
  5
3EF
102
{ACAD_REACTORS
330
3EA
102
}
330
3EA
100
DictionaryVariables
280
     0
  1
2
  0
DICTIONARYVAR
  5
3F0
102
{ACAD_REACTORS
330
3EA
102
}
330
3EA
100
DictionaryVariables
280
     0
  1
1
  0
DICTIONARYVAR
  5
3EE
102
{ACAD_REACTORS
330
3EA
102
}
330
3EA
100
DictionaryVariables
280
     0
  1
80.000000
  0
DICTIONARYVAR
  5
3ED
102
{ACAD_REACTORS
330
3EA
102
}
330
3EA
100
DictionaryVariables
280
     0
  1
5.000000
  0
DICTIONARY
  5
3F3
330
3D
100
AcDbDictionary
280
     1
  3
ACAD_XREC_ROUNDTRIP
360
3F4
  0
DICTIONARY
  5
3F1
330
3C
100
AcDbDictionary
280
     1
  3
ACAD_XREC_ROUNDTRIP
360
3F2
  0
DICTIONARY
  5
3F5
330
3E
100
AcDbDictionary
280
     1
  3
ACAD_XREC_ROUNDTRIP
360
3F6
  0
XRECORD
  5
3F4
102
{ACAD_REACTORS
330
3F3
102
}
330
3F3
100
AcDbXrecord
102
MATERIAL
148
0.0
149
0.0
149
0.0
 93
        0
 94
      127
282
     0
 72
     1
 77
     1
171
     1
175
     1
179
     1
273
     0
  0
XRECORD
  5
3F2
102
{ACAD_REACTORS
330
3F1
102
}
330
3F1
100
AcDbXrecord
102
MATERIAL
148
0.0
149
0.0
149
0.0
 93
        0
 94
      127
282
     0
 72
     1
 77
     1
171
     1
175
     1
179
     1
273
     0
  0
XRECORD
  5
3F6
102
{ACAD_REACTORS
330
3F5
102
}
330
3F5
100
AcDbXrecord
102
MATERIAL
148
0.0
149
0.0
149
0.0
 93
        0
 94
      127
282
     0
 72
     1
 77
     1
171
     1
175
     1
179
     1
273
     0
  0
ENDSEC
  0
EOF
