  0
SECTION
  2
HEADER
  9
$ACADVER
  1
AC1014
  9
$ACADMAINTVER
 70
     0
  9
$DWGCODEPAGE
  3
ANSI_932
  9
$INSBASE
 10
0.0
 20
0.0
 30
0.0
  9
$EXTMIN
 10
0.7
 20
8.5
 30
0.0
  9
$EXTMAX
 10
200.0
 20
288.5
 30
0.0
  9
$LIMMIN
 10
0.0
 20
0.0
  9
$LIMMAX
 10
210.0
 20
297.0
  9
$ORTHOMODE
 70
     0
  9
$REGENMODE
 70
     1
  9
$FILLMODE
 70
     1
  9
$QTEXTMODE
 70
     0
  9
$MIRRTEXT
 70
     1
  9
$DRAGMODE
 70
     2
  9
$LTSCALE
 40
1.0
  9
$OSMODE
 70
     0
  9
$ATTMODE
 70
     1
  9
$TEXTSIZE
 40
0.2
  9
$TRACEWID
 40
0.05
  9
$TEXTSTYLE
  7
STANDARD
  9
$CLAYER
  8
1
  9
$CELTYPE
  6
CONTINUOUS
  9
$CECOLOR
 62
   256
  9
$CELTSCALE
 40
1.0
  9
$DELOBJ
 70
     1
  9
$DISPSILH
 70
     0
  9
$DIMSCALE
 40
1.0
  9
$DIMASZ
 40
0.18
  9
$DIMEXO
 40
0.0625
  9
$DIMDLI
 40
0.38
  9
$DIMRND
 40
0.0
  9
$DIMDLE
 40
0.0
  9
$DIMEXE
 40
0.18
  9
$DIMTP
 40
0.0
  9
$DIMTM
 40
0.0
  9
$DIMTXT
 40
0.18
  9
$DIMCEN
 40
0.09
  9
$DIMTSZ
 40
0.0
  9
$DIMTOL
 70
     0
  9
$DIMLIM
 70
     0
  9
$DIMTIH
 70
     1
  9
$DIMTOH
 70
     1
  9
$DIMSE1
 70
     0
  9
$DIMSE2
 70
     0
  9
$DIMTAD
 70
     0
  9
$DIMZIN
 70
     0
  9
$DIMBLK
  1

  9
$DIMASO
 70
     1
  9
$DIMSHO
 70
     1
  9
$DIMPOST
  1

  9
$DIMAPOST
  1

  9
$DIMALT
 70
     0
  9
$DIMALTD
 70
     2
  9
$DIMALTF
 40
25.4
  9
$DIMLFAC
 40
1.0
  9
$DIMTOFL
 70
     0
  9
$DIMTVP
 40
0.0
  9
$DIMTIX
 70
     0
  9
$DIMSOXD
 70
     0
  9
$DIMSAH
 70
     0
  9
$DIMBLK1
  1

  9
$DIMBLK2
  1

  9
$DIMSTYLE
  2
STANDARD
  9
$DIMCLRD
 70
     0
  9
$DIMCLRE
 70
     0
  9
$DIMCLRT
 70
     0
  9
$DIMTFAC
 40
1.0
  9
$DIMGAP
 40
0.09
  9
$DIMJUST
 70
     0
  9
$DIMSD1
 70
     0
  9
$DIMSD2
 70
     0
  9
$DIMTOLJ
 70
     1
  9
$DIMTZIN
 70
     0
  9
$DIMALTZ
 70
     0
  9
$DIMALTTZ
 70
     0
  9
$DIMFIT
 70
     3
  9
$DIMUPT
 70
     0
  9
$DIMUNIT
 70
     2
  9
$DIMDEC
 70
     4
  9
$DIMTDEC
 70
     4
  9
$DIMALTU
 70
     2
  9
$DIMALTTD
 70
     2
  9
$DIMTXSTY
  7
STANDARD
  9
$DIMAUNIT
 70
     0
  9
$LUNITS
 70
     2
  9
$LUPREC
 70
     4
  9
$SKETCHINC
 40
0.1
  9
$FILLETRAD
 40
0.0
  9
$AUNITS
 70
     0
  9
$AUPREC
 70
     0
  9
$MENU
  1
acad
  9
$ELEVATION
 40
0.0
  9
$PELEVATION
 40
0.0
  9
$THICKNESS
 40
0.0
  9
$LIMCHECK
 70
     0
  9
$BLIPMODE
 70
     1
  9
$CHAMFERA
 40
0.0
  9
$CHAMFERB
 40
0.0
  9
$CHAMFERC
 40
0.0
  9
$CHAMFERD
 40
0.0
  9
$SKPOLY
 70
     0
  9
$TDCREATE
 40
2454517.704090706
  9
$TDUPDATE
 40
2454517.704090706
  9
$TDINDWG
 40
0.0000000000
  9
$TDUSRTIMER
 40
0.0000000000
  9
$USRTIMER
 70
     1
  9
$ANGBASE
 50
0.0
  9
$ANGDIR
 70
     0
  9
$PDMODE
 70
     0
  9
$PDSIZE
 40
0.0
  9
$PLINEWID
 40
0.0
  9
$COORDS
 70
     1
  9
$SPLFRAME
 70
     0
  9
$SPLINETYPE
 70
     6
  9
$SPLINESEGS
 70
     8
  9
$ATTDIA
 70
     0
  9
$ATTREQ
 70
     1
  9
$HANDLING
 70
     1
  9
$HANDSEED
  5
3A7
  9
$SURFTAB1
 70
     6
  9
$SURFTAB2
 70
     6
  9
$SURFTYPE
 70
     6
  9
$SURFU
 70
     6
  9
$SURFV
 70
     6
  9
$UCSNAME
  2

  9
$UCSORG
 10
0.0
 20
0.0
 30
0.0
  9
$UCSXDIR
 10
1.0
 20
0.0
 30
0.0
  9
$UCSYDIR
 10
0.0
 20
1.0
 30
0.0
  9
$PUCSNAME
  2

  9
$PUCSORG
 10
0.0
 20
0.0
 30
0.0
  9
$PUCSXDIR
 10
1.0
 20
0.0
 30
0.0
  9
$PUCSYDIR
 10
0.0
 20
1.0
 30
0.0
  9
$USERI1
 70
     0
  9
$USERI2
 70
     0
  9
$USERI3
 70
     0
  9
$USERI4
 70
     0
  9
$USERI5
 70
     0
  9
$USERR1
 40
0.0
  9
$USERR2
 40
0.0
  9
$USERR3
 40
0.0
  9
$USERR4
 40
0.0
  9
$USERR5
 40
0.0
  9
$WORLDVIEW
 70
     1
  9
$SHADEDGE
 70
     3
  9
$SHADEDIF
 70
    70
  9
$TILEMODE
 70
     1
  9
$MAXACTVP
 70
    16
  9
$PINSBASE
 10
0.0
 20
0.0
 30
0.0
  9
$PLIMCHECK
 70
     0
  9
$PEXTMIN
 10
1.000000E+20
 20
1.000000E+20
 30
1.000000E+20
  9
$PEXTMAX
 10
-1.000000E+20
 20
-1.000000E+20
 30
-1.000000E+20
  9
$PLIMMIN
 10
0.0
 20
0.0
  9
$PLIMMAX
 10
12.0
 20
9.0
  9
$UNITMODE
 70
     0
  9
$VISRETAIN
 70
     0
  9
$PLINEGEN
 70
     1
  9
$PSLTSCALE
 70
     0
  9
$TREEDEPTH
 70
  3020
  9
$PICKSTYLE
 70
     1
  9
$CMLSTYLE
  2
Standard
  9
$CMLJUST
 70
     0
  9
$CMLSCALE
 40
1.0
  9
$PROXYGRAPHICS
 70
     0
  9
$MEASUREMENT
 70
     0
  0
ENDSEC
  0
SECTION
  2
CLASSES
  0
CLASS
  1
LWPOLYLINE
  2
AcDbPolyline
  3
"AutoCAD"
 90
        0
280
     0
281
     1
  0
CLASS
  1
IMAGE
  2
AcDbRasterImage
  3
ISM
 90
      127
280
     0
281
     1
  0
CLASS
  1
OLE2FRAME
  2
AcDbOle2Frame
  3
""
 90
        0
280
     0
281
     1
  0
CLASS
  1
HATCH
  2
AcDbHatch
  3
"ACAD_SEDONA"
 90
        0
280
     0
281
     1
  0
CLASS
  1
DICTIONARYVAR
  2
AcDbDictionaryVar
  3
"AutoCAD"
 90
        0
280
     0
281
     0
  0
CLASS
  1
RASTERVARIABLES
  2
AcDbRasterVariables
  3
ISM
 90
        0
280
     0
281
     0
  0
CLASS
  1
IMAGEDEF
  2
AcDbRasterImageDef
  3
ISM
 90
        0
280
     0
281
     0
  0
CLASS
  1
IMAGEDEF_REACTOR
  2
AcDbRasterImageDefReactor
  3
ISM
 90
        1
280
     0
281
     0
  0
CLASS
  1
IDBUFFER
  2
AcDbIdBuffer
  3
"Acad"
 90
        0
280
     0
281
     0
  0
CLASS
  1
SPATIAL_FILTER
  2
AcDbSpatialFilter
  3
"Acad"
 90
        0
280
     0
281
     0
  0
CLASS
  1
XRECORD
  2
AcDbXrecord
  3
"<Built In>"
 90
        0
280
     0
281
     0
  0
CLASS
  1
SORTENTSTABLE
  2
AcDbSortentsTable
  3
"AutoCAD"
 90
        0
280
     0
281
     0
  0
CLASS
  1
LAYER_INDEX
  2
AcDbLayerIndex
  3
"Acad"
 90
        0
280
     0
281
     0
  0
CLASS
  1
SPATIAL_INDEX
  2
AcDbSpatialIndex
  3
"Acad"
 90
        0
280
     0
281
     0
  0
CLASS
  1
OBJECT_PTR
  2
CAseDLPNTableRecord
  3
"ASE-LPNTableRecord"
 90
        1
280
     0
281
     0
  0
CLASS
  1
LAYOUT
  2
AcDbLayout
  3
"AutoCAD 2000"
 90
        1
280
     0
281
     0
  0
CLASS
  1
PLOTSETTINGS
  2
AcDbPlotSettings
  3
"AutoCAD 2000"
 90
        1
280
     0
281
     0
  0
CLASS
  1
ACDBDICTIONARYWDFLT
  2
AcDbDictionaryWithDefault
  3
"AutoCAD 2000"
 90
        1
280
     0
281
     0
  0
CLASS
  1
ACDBPLACEHOLDER
  2
AcDbPlaceHolder
  3
"AutoCAD 2000"
 90
        1
280
     0
281
     0
  0
CLASS
  1
VBA_PROJECT
  2
AcDbVbaProject
  3
"acadvba"
 90
        1
280
     0
281
     0
  0
CLASS
  1
WIPEOUT
  2
AcDbWipeout
  3
WipeOut|AutoCAD Express Tool|expresstools@autodesk.com
 90
      127
280
     0
281
     1
  0
CLASS
  1
WIPEOUTVARIABLES
  2
AcDbWipeoutVariables
  3
WipeOut|AutoCAD Express Tool|expresstools@autodesk.com
 90
        0
280
     0
281
     0
  0
CLASS
  1
RTEXT
  2
RText
  3
RText|AutoCAD Express Tool|expresstools@autodesk.com
 90
        0
280
     0
281
     1
  0
CLASS
  1
ARCALIGNEDTEXT
  2
AcDbArcAlignedText
  3
ATEXT|AutoCAD Express Tool|expresstools@autodesk.com
 90
        0
280
     0
281
     1
  0
ENDSEC
  0
SECTION
  2
TABLES
  0
TABLE
  2
VPORT
  5
7
100
AcDbSymbolTable
 70
     1
  0
VPORT
  5
15
100
AcDbSymbolTableRecord
100
AcDbViewportTableRecord
  2
*ACTIVE
 70
     0
 10
0.0
 20
0.0
 11
1.0
 21
1.0
 12
100.35
 22
148.5
 13
0.0
 23
0.0
 14
1.0
 24
1.0
 15
0.0
 25
0.0
 16
0.0
 26
0.0
 36
1.0
 17
0.0
 27
0.0
 37
0.0
 40
280.0
 41
1.722533
 42
50.0
 43
0.0
 44
0.0
 50
0.0
 51
0.0
 71
     0
 72
   100
 73
     1
 74
     1
 75
     0
 76
     0
 77
     0
 78
     0
  0
ENDTAB
  0
TABLE
  2
LTYPE
  5
4
100
AcDbSymbolTable
 70
     9
  0
LTYPE
  5
11
100
AcDbSymbolTableRecord
100
AcDbLinetypeTableRecord
  2
BYBLOCK
 70
    64
  3

 72
    65
 73
     0
 40
0.0
  0
LTYPE
  5
12
100
AcDbSymbolTableRecord
100
AcDbLinetypeTableRecord
  2
BYLAYER
 70
    64
  3

 72
    65
 73
     0
 40
0.0
  0
LTYPE
  5
13
100
AcDbSymbolTableRecord
100
AcDbLinetypeTableRecord
  2
CONTINUOUS
 70
    64
  3
実線
 72
    65
 73
     0
 40
0.0
  0
LTYPE
  5
1D
100
AcDbSymbolTableRecord
100
AcDbLinetypeTableRecord
  2
EXLTYPE1
 70
    64
  3
破線
 72
    65
 73
     2
 40
3.0
 49
2.0
 74
     0
 49
-1.0
 74
     0
  0
LTYPE
  5
1E
100
AcDbSymbolTableRecord
100
AcDbLinetypeTableRecord
  2
EXLTYPE2
 70
    64
  3
点線
 72
    65
 73
     2
 40
2.0
 49
1.0
 74
     0
 49
-1.0
 74
     0
  0
LTYPE
  5
1F
100
AcDbSymbolTableRecord
100
AcDbLinetypeTableRecord
  2
EXLTYPE3
 70
    64
  3
一点鎖線
 72
    65
 73
     4
 40
10.0
 49
7.0
 74
     0
 49
-1.0
 74
     0
 49
1.0
 74
     0
 49
-1.0
 74
     0
  0
LTYPE
  5
20
100
AcDbSymbolTableRecord
100
AcDbLinetypeTableRecord
  2
EXLTYPE4
 70
    64
  3
二点鎖線
 72
    65
 73
     6
 40
12.0
 49
7.0
 74
     0
 49
-1.0
 74
     0
 49
1.0
 74
     0
 49
-1.0
 74
     0
 49
1.0
 74
     0
 49
-1.0
 74
     0
  0
LTYPE
  5
21
100
AcDbSymbolTableRecord
100
AcDbLinetypeTableRecord
  2
EXLTYPE5
 70
    64
  3
三点鎖線
 72
    65
 73
     8
 40
37.0
 49
30.0
 74
     0
 49
-1.0
 74
     0
 49
1.0
 74
     0
 49
-1.0
 74
     0
 49
1.0
 74
     0
 49
-1.0
 74
     0
 49
1.0
 74
     0
 49
-1.0
 74
     0
  0
LTYPE
  5
22
100
AcDbSymbolTableRecord
100
AcDbLinetypeTableRecord
  2
EXLTYPE6
 70
    64
  3
四点鎖線
 72
    65
 73
    10
 40
39.0
 49
30.0
 74
     0
 49
-1.0
 74
     0
 49
1.0
 74
     0
 49
-1.0
 74
     0
 49
1.0
 74
     0
 49
-1.0
 74
     0
 49
1.0
 74
     0
 49
-1.0
 74
     0
 49
1.0
 74
     0
 49
-1.0
 74
     0
  0
ENDTAB
  0
TABLE
  2
LAYER
  5
2
100
AcDbSymbolTable
 70
     4
  0
LAYER
  5
14
100
AcDbSymbolTableRecord
100
AcDbLayerTableRecord
  2
0
 70
     0
 62
     7
  6
CONTINUOUS
  0
LAYER
  5
25
100
AcDbSymbolTableRecord
100
AcDbLayerTableRecord
  2
1
 70
    64
 62
     7
  6
CONTINUOUS
  0
LAYER
  5
26
100
AcDbSymbolTableRecord
100
AcDbLayerTableRecord
  2
2
 70
    64
 62
     7
  6
CONTINUOUS
  0
LAYER
  5
27
100
AcDbSymbolTableRecord
100
AcDbLayerTableRecord
  2
LAY-4
 70
    64
 62
     7
  6
CONTINUOUS
  0
ENDTAB
  0
TABLE
  2
STYLE
  5
3
100
AcDbSymbolTable
 70
     3
  0
STYLE
  5
17
100
AcDbSymbolTableRecord
100
AcDbTextStyleTableRecord
  2
STANDARD
 70
     0
 40
0.0
 41
1.0
 50
0.0
 71
     0
 42
0.0
  3
monotxt
  4
extfont
  0
STYLE
  5
23
100
AcDbSymbolTableRecord
100
AcDbTextStyleTableRecord
  2
EXCADSTD
 70
    64
 40
0.0
 41
1.0
 50
0.0
 71
     0
 42
0.2
  3
monotxt
  4
extfont
  0
STYLE
  5
24
100
AcDbSymbolTableRecord
100
AcDbTextStyleTableRecord
  2
EXCADVERT
 70
    68
 40
0.0
 41
1.0
 50
0.0
 71
     0
 42
0.286885
  3
monotxt
  4
extfont
  0
ENDTAB
  0
TABLE
  2
VIEW
  5
5
100
AcDbSymbolTable
 70
     0
  0
ENDTAB
  0
TABLE
  2
UCS
  5
6
100
AcDbSymbolTable
 70
     0
  0
ENDTAB
  0
TABLE
  2
APPID
  5
8
100
AcDbSymbolTable
 70
     1
  0
APPID
  5
16
100
AcDbSymbolTableRecord
100
AcDbRegAppTableRecord
  2
ACAD
 70
     0
  0
ENDTAB
  0
TABLE
  2
DIMSTYLE
  5
9
100
AcDbSymbolTable
 70
     1
  0
DIMSTYLE
105
18
100
AcDbSymbolTableRecord
100
AcDbDimStyleTableRecord
  2
STANDARD
 70
     0
  3

  4

  5

  6

  7

 40
1.0
 41
0.18
 42
0.0625
 43
0.38
 44
0.18
 45
0.0
 46
0.0
 47
0.0
 48
0.0
 71
     0
 72
     0
 73
     1
 74
     1
 75
     0
 76
     0
 77
     0
 78
     0
140
0.18
141
0.09
142
0.0
143
25.4
144
1.0
145
0.0
146
1.0
147
0.09
170
     0
171
     2
172
     1
173
     0
174
     0
175
     0
176
     0
177
     0
178
     0
270
     2
271
     4
272
     4
273
     2
274
     2
275
     0
280
     0
281
     0
282
     0
283
     1
284
     0
285
     0
286
     0
287
     0
288
     0
340
17
  0
ENDTAB
  0
TABLE
  2
BLOCK_RECORD
  5
1
100
AcDbSymbolTable
 70
    14
  0
BLOCK_RECORD
  5
A
100
AcDbSymbolTableRecord
100
AcDbBlockTableRecord
  2
*MODEL_SPACE
  0
BLOCK_RECORD
  5
B
100
AcDbSymbolTableRecord
100
AcDbBlockTableRecord
  2
*PAPER_SPACE
  0
BLOCK_RECORD
  5
28
100
AcDbSymbolTableRecord
100
AcDbBlockTableRecord
  2
_EX_NORM
  0
BLOCK_RECORD
  5
29
100
AcDbSymbolTableRecord
100
AcDbBlockTableRecord
  2
_EX_BNORM
  0
BLOCK_RECORD
  5
2A
100
AcDbSymbolTableRecord
100
AcDbBlockTableRecord
  2
_EX_BCIR
  0
BLOCK_RECORD
  5
2B
100
AcDbSymbolTableRecord
100
AcDbBlockTableRecord
  2
_EX_RCIVIL
  0
BLOCK_RECORD
  5
2C
100
AcDbSymbolTableRecord
100
AcDbBlockTableRecord
  2
_EX_SLANT
  0
BLOCK_RECORD
  5
2D
100
AcDbSymbolTableRecord
100
AcDbBlockTableRecord
  2
_EX_NONE
  0
BLOCK_RECORD
  5
2E
100
AcDbSymbolTableRecord
100
AcDbBlockTableRecord
  2
_EX_CIVIL
  0
BLOCK_RECORD
  5
2F
100
AcDbSymbolTableRecord
100
AcDbBlockTableRecord
  2
_EX_WCIR
  0
BLOCK_RECORD
  5
30
100
AcDbSymbolTableRecord
100
AcDbBlockTableRecord
  2
_EX_WCIR2
  0
BLOCK_RECORD
  5
31
100
AcDbSymbolTableRecord
100
AcDbBlockTableRecord
  2
_EX_WNORM
  0
BLOCK_RECORD
  5
32
100
AcDbSymbolTableRecord
100
AcDbBlockTableRecord
  2
_EX_NNORM
  0
BLOCK_RECORD
  5
33
100
AcDbSymbolTableRecord
100
AcDbBlockTableRecord
  2
_EX_BBOX
  0
BLOCK_RECORD
  5
34
100
AcDbSymbolTableRecord
100
AcDbBlockTableRecord
  2
_EX_WBOX
  0
BLOCK_RECORD
  5
35
100
AcDbSymbolTableRecord
100
AcDbBlockTableRecord
  2
_EX_INTEGRAL
  0
ENDTAB
  0
ENDSEC
  0
SECTION
  2
BLOCKS
  0
BLOCK
  5
D
100
AcDbEntity
  8
0
100
AcDbBlockBegin
  2
*MODEL_SPACE
 70
     0
 10
0.0
 20
0.0
 30
0.0
  3
*MODEL_SPACE
  1

  0
ENDBLK
  5
E
100
AcDbEntity
  8
0
100
AcDbBlockEnd
  0
BLOCK
  5
F
100
AcDbEntity
 67
     1
  8
0
100
AcDbBlockBegin
  2
*PAPER_SPACE
 70
     0
 10
0.0
 20
0.0
 30
0.0
  3
*PAPER_SPACE
  1

  0
ENDBLK
  5
10
100
AcDbEntity
 67
     1
  8
0
100
AcDbBlockEnd
  0
BLOCK
  5
36
100
AcDbEntity
  8
0
100
AcDbBlockBegin
  2
_EX_NORM
 70
     0
 10
0.0
 20
0.0
 30
0.0
  3
_EX_NORM
  1

  0
LINE
  5
37
100
AcDbEntity
  8
0
  6
CONTINUOUS
 62
     0
100
AcDbLine
 10
0.0
 20
0.0
 30
0.0
 11
-1.0
 21
0.0
 31
0.0
  0
LINE
  5
38
100
AcDbEntity
  8
0
  6
CONTINUOUS
 62
     0
100
AcDbLine
 10
0.0
 20
0.0
 30
0.0
 11
-1.0
 21
0.166667
 31
0.0
  0
LINE
  5
39
100
AcDbEntity
  8
0
  6
CONTINUOUS
 62
     0
100
AcDbLine
 10
0.0
 20
0.0
 30
0.0
 11
-1.0
 21
-0.166667
 31
0.0
  0
ENDBLK
  5
3A
100
AcDbEntity
  8
0
100
AcDbBlockEnd
  0
BLOCK
  5
3B
100
AcDbEntity
  8
0
100
AcDbBlockBegin
  2
_EX_BNORM
 70
     0
 10
0.0
 20
0.0
 30
0.0
  3
_EX_BNORM
  1

  0
LINE
  5
3C
100
AcDbEntity
  8
0
  6
CONTINUOUS
 62
     0
100
AcDbLine
 10
0.0
 20
0.0
 30
0.0
 11
-1.0
 21
0.0
 31
0.0
  0
LINE
  5
3D
100
AcDbEntity
  8
0
  6
CONTINUOUS
 62
     0
100
AcDbLine
 10
0.0
 20
0.0
 30
0.0
 11
-1.0
 21
0.166667
 31
0.0
  0
LINE
  5
3E
100
AcDbEntity
  8
0
  6
CONTINUOUS
 62
     0
100
AcDbLine
 10
0.0
 20
0.0
 30
0.0
 11
-1.0
 21
-0.166667
 31
0.0
  0
LINE
  5
3F
100
AcDbEntity
  8
0
  6
CONTINUOUS
 62
     0
100
AcDbLine
 10
0.0
 20
0.0
 30
0.0
 11
-1.0
 21
0.083333
 31
0.0
  0
LINE
  5
40
100
AcDbEntity
  8
0
  6
CONTINUOUS
 62
     0
100
AcDbLine
 10
0.0
 20
0.0
 30
0.0
 11
-1.0
 21
-0.083333
 31
0.0
  0
LINE
  5
41
100
AcDbEntity
  8
0
  6
CONTINUOUS
 62
     0
100
AcDbLine
 10
-1.0
 20
0.166667
 30
0.0
 11
-1.0
 21
-0.166667
 31
0.0
  0
ENDBLK
  5
42
100
AcDbEntity
  8
0
100
AcDbBlockEnd
  0
BLOCK
  5
43
100
AcDbEntity
  8
0
100
AcDbBlockBegin
  2
_EX_BCIR
 70
     0
 10
0.0
 20
0.0
 30
0.0
  3
_EX_BCIR
  1

  0
LINE
  5
44
100
AcDbEntity
  8
0
  6
CONTINUOUS
 62
     0
100
AcDbLine
 10
0.0
 20
0.0
 30
0.0
 11
-1.0
 21
0.0
 31
0.0
  0
CIRCLE
  5
45
100
AcDbEntity
  8
0
  6
CONTINUOUS
 62
     0
100
AcDbCircle
 10
0.0
 20
0.0
 30
0.0
 40
0.5
  0
CIRCLE
  5
46
100
AcDbEntity
  8
0
  6
CONTINUOUS
 62
     0
100
AcDbCircle
 10
0.0
 20
0.0
 30
0.0
 40
0.25
  0
ENDBLK
  5
47
100
AcDbEntity
  8
0
100
AcDbBlockEnd
  0
BLOCK
  5
48
100
AcDbEntity
  8
0
100
AcDbBlockBegin
  2
_EX_RCIVIL
 70
     0
 10
0.0
 20
0.0
 30
0.0
  3
_EX_RCIVIL
  1

  0
LINE
  5
49
100
AcDbEntity
  8
0
  6
CONTINUOUS
 62
     0
100
AcDbLine
 10
0.0
 20
0.0
 30
0.0
 11
-1.0
 21
0.0
 31
0.0
  0
LINE
  5
4A
100
AcDbEntity
  8
0
  6
CONTINUOUS
 62
     0
100
AcDbLine
 10
-1.0
 20
-0.25
 30
0.0
 11
0.0
 21
-0.25
 31
0.0
  0
LINE
  5
4B
100
AcDbEntity
  8
0
  6
CONTINUOUS
 62
     0
100
AcDbLine
 10
-1.0
 20
-0.125
 30
0.0
 11
0.0
 21
-0.125
 31
0.0
  0
ENDBLK
  5
4C
100
AcDbEntity
  8
0
100
AcDbBlockEnd
  0
BLOCK
  5
4D
100
AcDbEntity
  8
0
100
AcDbBlockBegin
  2
_EX_SLANT
 70
     0
 10
0.0
 20
0.0
 30
0.0
  3
_EX_SLANT
  1

  0
LINE
  5
4E
100
AcDbEntity
  8
0
  6
CONTINUOUS
 62
     0
100
AcDbLine
 10
0.0
 20
0.0
 30
0.0
 11
-1.0
 21
0.0
 31
0.0
  0
LINE
  5
4F
100
AcDbEntity
  8
0
  6
CONTINUOUS
 62
     0
100
AcDbLine
 10
0.707107
 20
0.707107
 30
0.0
 11
-0.707107
 21
-0.707107
 31
0.0
  0
ENDBLK
  5
50
100
AcDbEntity
  8
0
100
AcDbBlockEnd
  0
BLOCK
  5
51
100
AcDbEntity
  8
0
100
AcDbBlockBegin
  2
_EX_NONE
 70
     0
 10
0.0
 20
0.0
 30
0.0
  3
_EX_NONE
  1

  0
LINE
  5
52
100
AcDbEntity
  8
0
  6
CONTINUOUS
 62
     0
100
AcDbLine
 10
0.0
 20
0.0
 30
0.0
 11
-1.0
 21
0.0
 31
0.0
  0
ENDBLK
  5
53
100
AcDbEntity
  8
0
100
AcDbBlockEnd
  0
BLOCK
  5
54
100
AcDbEntity
  8
0
100
AcDbBlockBegin
  2
_EX_CIVIL
 70
     0
 10
0.0
 20
0.0
 30
0.0
  3
_EX_CIVIL
  1

  0
LINE
  5
55
100
AcDbEntity
  8
0
  6
CONTINUOUS
 62
     0
100
AcDbLine
 10
0.0
 20
0.0
 30
0.0
 11
-1.0
 21
0.0
 31
0.0
  0
LINE
  5
56
100
AcDbEntity
  8
0
  6
CONTINUOUS
 62
     0
100
AcDbLine
 10
-1.0
 20
0.25
 30
0.0
 11
0.0
 21
0.25
 31
0.0
  0
LINE
  5
57
100
AcDbEntity
  8
0
  6
CONTINUOUS
 62
     0
100
AcDbLine
 10
-1.0
 20
0.125
 30
0.0
 11
0.0
 21
0.125
 31
0.0
  0
ENDBLK
  5
58
100
AcDbEntity
  8
0
100
AcDbBlockEnd
  0
BLOCK
  5
59
100
AcDbEntity
  8
0
100
AcDbBlockBegin
  2
_EX_WCIR
 70
     0
 10
0.0
 20
0.0
 30
0.0
  3
_EX_WCIR
  1

  0
LINE
  5
5A
100
AcDbEntity
  8
0
  6
CONTINUOUS
 62
     0
100
AcDbLine
 10
0.0
 20
0.0
 30
0.0
 11
-1.0
 21
0.0
 31
0.0
  0
CIRCLE
  5
5B
100
AcDbEntity
  8
0
  6
CONTINUOUS
 62
     0
100
AcDbCircle
 10
0.0
 20
0.0
 30
0.0
 40
0.5
  0
ENDBLK
  5
5C
100
AcDbEntity
  8
0
100
AcDbBlockEnd
  0
BLOCK
  5
5D
100
AcDbEntity
  8
0
100
AcDbBlockBegin
  2
_EX_WCIR2
 70
     0
 10
0.0
 20
0.0
 30
0.0
  3
_EX_WCIR2
  1

  0
LINE
  5
5E
100
AcDbEntity
  8
0
  6
CONTINUOUS
 62
     0
100
AcDbLine
 10
-0.5
 20
0.0
 30
0.0
 11
-1.0
 21
0.0
 31
0.0
  0
CIRCLE
  5
5F
100
AcDbEntity
  8
0
  6
CONTINUOUS
 62
     0
100
AcDbCircle
 10
0.0
 20
0.0
 30
0.0
 40
0.5
  0
ENDBLK
  5
60
100
AcDbEntity
  8
0
100
AcDbBlockEnd
  0
BLOCK
  5
61
100
AcDbEntity
  8
0
100
AcDbBlockBegin
  2
_EX_WNORM
 70
     0
 10
0.0
 20
0.0
 30
0.0
  3
_EX_WNORM
  1

  0
LINE
  5
62
100
AcDbEntity
  8
0
  6
CONTINUOUS
 62
     0
100
AcDbLine
 10
-1.0
 20
0.0
 30
0.0
 11
-1.0
 21
0.0
 31
0.0
  0
LINE
  5
63
100
AcDbEntity
  8
0
  6
CONTINUOUS
 62
     0
100
AcDbLine
 10
0.0
 20
0.0
 30
0.0
 11
-1.0
 21
0.166667
 31
0.0
  0
LINE
  5
64
100
AcDbEntity
  8
0
  6
CONTINUOUS
 62
     0
100
AcDbLine
 10
0.0
 20
0.0
 30
0.0
 11
-1.0
 21
-0.166667
 31
0.0
  0
LINE
  5
65
100
AcDbEntity
  8
0
  6
CONTINUOUS
 62
     0
100
AcDbLine
 10
-1.0
 20
0.166667
 30
0.0
 11
-1.0
 21
-0.166667
 31
0.0
  0
ENDBLK
  5
66
100
AcDbEntity
  8
0
100
AcDbBlockEnd
  0
BLOCK
  5
67
100
AcDbEntity
  8
0
100
AcDbBlockBegin
  2
_EX_NNORM
 70
     0
 10
0.0
 20
0.0
 30
0.0
  3
_EX_NNORM
  1

  0
LINE
  5
68
100
AcDbEntity
  8
0
  6
CONTINUOUS
 62
     0
100
AcDbLine
 10
0.0
 20
0.0
 30
0.0
 11
-1.0
 21
0.0
 31
0.0
  0
LINE
  5
69
100
AcDbEntity
  8
0
  6
CONTINUOUS
 62
     0
100
AcDbLine
 10
0.0
 20
0.0
 30
0.0
 11
-1.0
 21
0.166667
 31
0.0
  0
LINE
  5
6A
100
AcDbEntity
  8
0
  6
CONTINUOUS
 62
     0
100
AcDbLine
 10
0.0
 20
0.0
 30
0.0
 11
-1.0
 21
-0.166667
 31
0.0
  0
LINE
  5
6B
100
AcDbEntity
  8
0
  6
CONTINUOUS
 62
     0
100
AcDbLine
 10
-1.0
 20
0.166667
 30
0.0
 11
-1.0
 21
-0.166667
 31
0.0
  0
ENDBLK
  5
6C
100
AcDbEntity
  8
0
100
AcDbBlockEnd
  0
BLOCK
  5
6D
100
AcDbEntity
  8
0
100
AcDbBlockBegin
  2
_EX_BBOX
 70
     0
 10
0.0
 20
0.0
 30
0.0
  3
_EX_BBOX
  1

  0
LINE
  5
6E
100
AcDbEntity
  8
0
  6
CONTINUOUS
 62
     0
100
AcDbLine
 10
0.0
 20
0.0
 30
0.0
 11
-1.0
 21
0.0
 31
0.0
  0
LINE
  5
6F
100
AcDbEntity
  8
0
  6
CONTINUOUS
 62
     0
100
AcDbLine
 10
-0.5
 20
0.5
 30
0.0
 11
0.5
 21
0.5
 31
0.0
  0
LINE
  5
70
100
AcDbEntity
  8
0
  6
CONTINUOUS
 62
     0
100
AcDbLine
 10
0.5
 20
0.5
 30
0.0
 11
0.5
 21
-0.5
 31
0.0
  0
LINE
  5
71
100
AcDbEntity
  8
0
  6
CONTINUOUS
 62
     0
100
AcDbLine
 10
0.5
 20
-0.5
 30
0.0
 11
-0.5
 21
-0.5
 31
0.0
  0
LINE
  5
72
100
AcDbEntity
  8
0
  6
CONTINUOUS
 62
     0
100
AcDbLine
 10
-0.5
 20
-0.5
 30
0.0
 11
-0.5
 21
0.5
 31
0.0
  0
LINE
  5
73
100
AcDbEntity
  8
0
  6
CONTINUOUS
 62
     0
100
AcDbLine
 10
-0.25
 20
0.25
 30
0.0
 11
0.25
 21
0.25
 31
0.0
  0
LINE
  5
74
100
AcDbEntity
  8
0
  6
CONTINUOUS
 62
     0
100
AcDbLine
 10
0.25
 20
0.25
 30
0.0
 11
0.25
 21
-0.25
 31
0.0
  0
LINE
  5
75
100
AcDbEntity
  8
0
  6
CONTINUOUS
 62
     0
100
AcDbLine
 10
0.25
 20
-0.25
 30
0.0
 11
-0.25
 21
-0.25
 31
0.0
  0
LINE
  5
76
100
AcDbEntity
  8
0
  6
CONTINUOUS
 62
     0
100
AcDbLine
 10
-0.25
 20
-0.25
 30
0.0
 11
-0.25
 21
0.25
 31
0.0
  0
ENDBLK
  5
77
100
AcDbEntity
  8
0
100
AcDbBlockEnd
  0
BLOCK
  5
78
100
AcDbEntity
  8
0
100
AcDbBlockBegin
  2
_EX_WBOX
 70
     0
 10
0.0
 20
0.0
 30
0.0
  3
_EX_WBOX
  1

  0
LINE
  5
79
100
AcDbEntity
  8
0
  6
CONTINUOUS
 62
     0
100
AcDbLine
 10
-0.5
 20
0.0
 30
0.0
 11
-1.0
 21
0.0
 31
0.0
  0
LINE
  5
7A
100
AcDbEntity
  8
0
  6
CONTINUOUS
 62
     0
100
AcDbLine
 10
-0.5
 20
0.5
 30
0.0
 11
0.5
 21
0.5
 31
0.0
  0
LINE
  5
7B
100
AcDbEntity
  8
0
  6
CONTINUOUS
 62
     0
100
AcDbLine
 10
0.5
 20
0.5
 30
0.0
 11
0.5
 21
-0.5
 31
0.0
  0
LINE
  5
7C
100
AcDbEntity
  8
0
  6
CONTINUOUS
 62
     0
100
AcDbLine
 10
0.5
 20
-0.5
 30
0.0
 11
-0.5
 21
-0.5
 31
0.0
  0
LINE
  5
7D
100
AcDbEntity
  8
0
  6
CONTINUOUS
 62
     0
100
AcDbLine
 10
-0.5
 20
-0.5
 30
0.0
 11
-0.5
 21
0.5
 31
0.0
  0
ENDBLK
  5
7E
100
AcDbEntity
  8
0
100
AcDbBlockEnd
  0
BLOCK
  5
7F
100
AcDbEntity
  8
0
100
AcDbBlockBegin
  2
_EX_INTEGRAL
 70
     0
 10
0.0
 20
0.0
 30
0.0
  3
_EX_INTEGRAL
  1

  0
LINE
  5
80
100
AcDbEntity
  8
0
  6
CONTINUOUS
 62
     0
100
AcDbLine
 10
0.0
 20
0.0
 30
0.0
 11
-1.0
 21
0.0
 31
0.0
  0
ARC
  5
81
100
AcDbEntity
  8
0
  6
CONTINUOUS
 62
     0
100
AcDbCircle
 10
0.542115
 20
0.164992
 30
0.0
 40
0.56667
100
AcDbArc
 50
73.07249
 51
196.927513
  0
ARC
  5
82
100
AcDbEntity
  8
0
  6
CONTINUOUS
 62
     0
100
AcDbCircle
 10
-0.542115
 20
-0.164992
 30
0.0
 40
0.56667
100
AcDbArc
 50
253.072487
 51
16.927513
  0
ENDBLK
  5
83
100
AcDbEntity
  8
0
100
AcDbBlockEnd
  0
ENDSEC
  0
SECTION
  2
ENTITIES
  0
LINE
  5
84
100
AcDbEntity
  8
0
  6
CONTINUOUS
 62
     7
100
AcDbLine
 10
18.0
 20
8.5
 30
0.0
 11
200.0
 21
8.5
 31
0.0
  0
LINE
  5
85
100
AcDbEntity
  8
0
  6
CONTINUOUS
 62
     7
100
AcDbLine
 10
200.0
 20
8.5
 30
0.0
 11
200.0
 21
288.5
 31
0.0
  0
LINE
  5
86
100
AcDbEntity
  8
0
  6
CONTINUOUS
 62
     7
100
AcDbLine
 10
18.0
 20
8.5
 30
0.0
 11
18.0
 21
288.5
 31
0.0
  0
LINE
  5
87
100
AcDbEntity
  8
0
  6
CONTINUOUS
 62
     7
100
AcDbLine
 10
18.0
 20
288.5
 30
0.0
 11
200.0
 21
288.5
 31
0.0
  0
LINE
  5
88
100
AcDbEntity
  8
0
  6
CONTINUOUS
 62
     7
100
AcDbLine
 10
18.0
 20
30.5
 30
0.0
 11
200.0
 21
30.5
 31
0.0
  0
LINE
  5
89
100
AcDbEntity
  8
0
  6
CONTINUOUS
 62
     6
100
AcDbLine
 10
88.0
 20
282.5
 30
0.0
 11
200.0
 21
282.5
 31
0.0
  0
LINE
  5
8A
100
AcDbEntity
  8
0
  6
CONTINUOUS
 62
     6
100
AcDbLine
 10
200.0
 20
18.5
 30
0.0
 11
75.0
 21
18.5
 31
0.0
  0
LINE
  5
8B
100
AcDbEntity
  8
0
  6
CONTINUOUS
 62
     6
100
AcDbLine
 10
186.0
 20
30.5
 30
0.0
 11
186.0
 21
18.5
 31
0.0
  0
LINE
  5
8C
100
AcDbEntity
  8
0
  6
CONTINUOUS
 62
     6
100
AcDbLine
 10
181.0
 20
30.5
 30
0.0
 11
181.0
 21
18.5
 31
0.0
  0
LINE
  5
8D
100
AcDbEntity
  8
0
  6
CONTINUOUS
 62
     6
100
AcDbLine
 10
144.0
 20
30.5
 30
0.0
 11
144.0
 21
8.5
 31
0.0
  0
LINE
  5
8E
100
AcDbEntity
  8
0
  6
CONTINUOUS
 62
     6
100
AcDbLine
 10
139.0
 20
30.5
 30
0.0
 11
139.0
 21
8.5
 31
0.0
  0
LINE
  5
8F
100
AcDbEntity
  8
0
  6
CONTINUOUS
 62
     6
100
AcDbLine
 10
80.0
 20
30.5
 30
0.0
 11
80.0
 21
18.5
 31
0.0
  0
LINE
  5
90
100
AcDbEntity
  8
0
  6
CONTINUOUS
 62
     6
100
AcDbLine
 10
75.0
 20
30.5
 30
0.0
 11
75.0
 21
8.5
 31
0.0
  0
LINE
  5
91
100
AcDbEntity
  8
0
  6
CONTINUOUS
 62
     6
100
AcDbLine
 10
62.0
 20
30.5
 30
0.0
 11
62.0
 21
8.5
 31
0.0
  0
LINE
  5
92
100
AcDbEntity
  8
0
  6
CONTINUOUS
 62
     6
100
AcDbLine
 10
49.0
 20
30.5
 30
0.0
 11
49.0
 21
8.5
 31
0.0
  0
LINE
  5
93
100
AcDbEntity
  8
0
  6
CONTINUOUS
 62
     6
100
AcDbLine
 10
33.5
 20
30.5
 30
0.0
 11
33.5
 21
8.5
 31
0.0
  0
LINE
  5
94
100
AcDbEntity
  8
0
  6
CONTINUOUS
 62
     6
100
AcDbLine
 10
18.0
 20
25.5
 30
0.0
 11
75.0
 21
25.5
 31
0.0
  0
LINE
  5
95
100
AcDbEntity
  8
0
  6
EXLTYPE2
 62
     6
100
AcDbLine
 10
18.0
 20
13.5
 30
0.0
 11
49.0
 21
13.5
 31
0.0
  0
CIRCLE
  5
96
100
AcDbEntity
  8
0
  6
CONTINUOUS
 62
     6
100
AcDbCircle
 10
23.0
 20
11.0
 30
0.0
 40
0.1
  0
CIRCLE
  5
97
100
AcDbEntity
  8
0
  6
CONTINUOUS
 62
     6
100
AcDbCircle
 10
28.0
 20
11.0
 30
0.0
 40
0.1
  0
CIRCLE
  5
98
100
AcDbEntity
  8
0
  6
CONTINUOUS
 62
     6
100
AcDbCircle
 10
38.5
 20
11.0
 30
0.0
 40
0.1
  0
CIRCLE
  5
99
100
AcDbEntity
  8
0
  6
CONTINUOUS
 62
     6
100
AcDbCircle
 10
43.5
 20
11.0
 30
0.0
 40
0.1
  0
LINE
  5
9A
100
AcDbEntity
  8
0
  6
CONTINUOUS
 62
     6
100
AcDbLine
 10
88.0
 20
270.0
 30
0.0
 11
200.0
 21
270.0
 31
0.0
  0
LINE
  5
9B
100
AcDbEntity
  8
0
  6
CONTINUOUS
 62
     6
100
AcDbLine
 10
88.0
 20
263.75
 30
0.0
 11
200.0
 21
263.75
 31
0.0
  0
LINE
  5
9C
100
AcDbEntity
  8
0
  6
CONTINUOUS
 62
     6
100
AcDbLine
 10
88.0
 20
276.25
 30
0.0
 11
200.0
 21
276.25
 31
0.0
  0
LINE
  5
9D
100
AcDbEntity
  8
0
  6
CONTINUOUS
 62
     6
100
AcDbLine
 10
88.0
 20
288.5
 30
0.0
 11
88.0
 21
257.5
 31
0.0
  0
LINE
  5
9E
100
AcDbEntity
  8
0
  6
CONTINUOUS
 62
     6
100
AcDbLine
 10
99.0
 20
288.5
 30
0.0
 11
99.0
 21
257.5
 31
0.0
  0
LINE
  5
9F
100
AcDbEntity
  8
0
  6
CONTINUOUS
 62
     6
100
AcDbLine
 10
129.0
 20
288.5
 30
0.0
 11
129.0
 21
257.5
 31
0.0
  0
LINE
  5
A0
100
AcDbEntity
  8
0
  6
CONTINUOUS
 62
     6
100
AcDbLine
 10
159.0
 20
288.5
 30
0.0
 11
159.0
 21
257.5
 31
0.0
  0
LINE
  5
A1
100
AcDbEntity
  8
0
  6
CONTINUOUS
 62
     6
100
AcDbLine
 10
170.0
 20
288.5
 30
0.0
 11
170.0
 21
257.5
 31
0.0
  0
TEXT
  5
A2
100
AcDbEntity
  8
0
  6
CONTINUOUS
 62
     2
100
AcDbText
 10
88.65
 20
282.875
 30
0.0
 40
5.25
  1
番号
 41
0.776
  7
EXCADSTD
 72
     5
 11
97.54102
 21
282.875
 31
0.0
100
AcDbText
  0
TEXT
  5
A3
100
AcDbEntity
  8
0
  6
CONTINUOUS
 62
     2
100
AcDbText
 10
159.65
 20
282.875
 30
0.0
 40
5.25
  1
個数
 41
0.776
  7
EXCADSTD
 72
     5
 11
168.54102
 21
282.875
 31
0.0
100
AcDbText
  0
TEXT
  5
A4
100
AcDbEntity
  8
0
  6
CONTINUOUS
 62
     2
100
AcDbText
 10
105.0
 20
282.875
 30
0.0
 40
5.25
  1
品名
 41
1.44
  7
EXCADSTD
 72
     5
 11
121.4988
 21
282.875
 31
0.0
100
AcDbText
  0
TEXT
  5
A5
100
AcDbEntity
  8
0
  6
CONTINUOUS
 62
     2
100
AcDbText
 10
135.0
 20
282.875
 30
0.0
 40
5.25
  1
材質
 41
1.44
  7
EXCADSTD
 72
     5
 11
151.4988
 21
282.875
 31
0.0
100
AcDbText
  0
TEXT
  5
A6
100
AcDbEntity
  8
0
  6
CONTINUOUS
 62
     2
100
AcDbText
 10
176.0
 20
282.875
 30
0.0
 40
5.25
  1
備考
 41
1.44
  7
EXCADSTD
 72
     5
 11
192.4988
 21
282.875
 31
0.0
100
AcDbText
  0
TEXT
  5
A7
100
AcDbEntity
  8
0
  6
CONTINUOUS
 62
     2
100
AcDbText
 10
91.0
 20
276.875
 30
0.0
 40
5.0
  1
１
 41
0.84
  7
EXCADSTD
 72
     5
 11
95.0
 21
276.875
 31
0.0
100
AcDbText
  0
TEXT
  5
A8
100
AcDbEntity
  8
0
  6
CONTINUOUS
 62
     2
100
AcDbText
 10
91.0
 20
270.625
 30
0.0
 40
5.0
  1
２
 41
0.84
  7
EXCADSTD
 72
     5
 11
95.0
 21
270.625
 31
0.0
100
AcDbText
  0
TEXT
  5
A9
100
AcDbEntity
  8
0
  6
CONTINUOUS
 62
     2
100
AcDbText
 10
91.0
 20
264.375
 30
0.0
 40
5.0
  1
３
 41
0.84
  7
EXCADSTD
 72
     5
 11
95.0
 21
264.375
 31
0.0
100
AcDbText
  0
TEXT
  5
AA
100
AcDbEntity
  8
0
  6
CONTINUOUS
 62
     2
100
AcDbText
 10
99.0
 20
276.75
 30
0.0
 40
5.25
  1
ブラケット（右用）
 41
0.561778
  7
EXCADSTD
 72
     5
 11
130.600001
 21
276.75
 31
0.0
100
AcDbText
  0
TEXT
  5
AB
100
AcDbEntity
  8
0
  6
CONTINUOUS
 62
     2
100
AcDbText
 10
99.0
 20
264.25
 30
0.0
 40
5.25
  1
パイプ
 41
0.714667
  7
EXCADSTD
 72
     5
 11
112.4
 21
264.25
 31
0.0
100
AcDbText
  0
TEXT
  5
AC
100
AcDbEntity
  8
0
  6
CONTINUOUS
 62
     2
100
AcDbText
 10
129.0
 20
276.75
 30
0.0
 40
5.25
  1
合成樹脂
 41
0.704
  7
EXCADSTD
 72
     5
 11
146.6
 21
276.75
 31
0.0
100
AcDbText
  0
TEXT
  5
AD
100
AcDbEntity
  8
0
  6
CONTINUOUS
 62
     2
100
AcDbText
 10
129.0
 20
264.25
 30
0.0
 40
5.25
  1
ステンレス
 41
0.6976
  7
EXCADSTD
 72
     5
 11
150.8
 21
264.25
 31
0.0
100
AcDbText
  0
TEXT
  5
AE
100
AcDbEntity
  8
0
  6
CONTINUOUS
 62
     2
100
AcDbText
 10
162.125
 20
276.95
 30
0.0
 40
4.85
  1
１
 41
0.82268
  7
EXCADSTD
 72
     5
 11
165.925
 21
276.95
 31
0.0
100
AcDbText
  0
TEXT
  5
AF
100
AcDbEntity
  8
0
  6
CONTINUOUS
 62
     2
100
AcDbText
 10
162.125
 20
264.45
 30
0.0
 40
4.85
  1
１
 41
0.82268
  7
EXCADSTD
 72
     5
 11
165.925
 21
264.45
 31
0.0
100
AcDbText
  0
TEXT
  5
B0
100
AcDbEntity
  8
0
  6
CONTINUOUS
 62
     2
100
AcDbText
 10
170.0
 20
276.95
 30
0.0
 40
4.85
  1
カラー対応
 41
0.711835
  7
EXCADSTD
 72
     5
 11
190.55
 21
276.95
 31
0.0
100
AcDbText
  0
TEXT
  5
B1
100
AcDbEntity
  8
0
  6
CONTINUOUS
 62
     2
100
AcDbText
 10
20.25
 20
25.75
 30
0.0
 40
4.5
  1
製図
 41
1.026667
  7
EXCADSTD
 72
     5
 11
30.3326
 21
25.75
 31
0.0
100
AcDbText
  0
TEXT
  5
B2
100
AcDbEntity
  8
0
  6
CONTINUOUS
 62
     2
100
AcDbText
 10
35.75
 20
25.75
 30
0.0
 40
4.5
  1
写図
 41
1.026667
  7
EXCADSTD
 72
     5
 11
45.8326
 21
25.75
 31
0.0
100
AcDbText
  0
TEXT
  5
B3
100
AcDbEntity
  8
0
  6
CONTINUOUS
 62
     2
100
AcDbText
 10
50.5
 20
25.75
 30
0.0
 40
4.5
  1
検図
 41
0.933333
  7
EXCADSTD
 72
     5
 11
59.666
 21
25.75
 31
0.0
100
AcDbText
  0
TEXT
  5
B4
100
AcDbEntity
  8
0
  6
CONTINUOUS
 62
     2
100
AcDbText
 10
63.5
 20
25.75
 30
0.0
 40
4.5
  1
承認
 41
0.933333
  7
EXCADSTD
 72
     5
 11
72.666
 21
25.75
 31
0.0
100
AcDbText
  0
TEXT
  5
B5
100
AcDbEntity
  8
0
  6
CONTINUOUS
 62
     2
100
AcDbText
 10
77.5
 20
29.5
 30
0.0
 40
4.5
  1
品名
  7
EXCADVERT
 72
     3
 11
77.5
 21
19.5
 31
0.0
100
AcDbText
  0
TEXT
  5
B6
100
AcDbEntity
  8
0
  6
CONTINUOUS
 62
     2
100
AcDbText
 10
141.5
 20
29.5
 30
0.0
 40
4.5
  1
品番
  7
EXCADVERT
 72
     3
 11
141.5
 21
19.5
 31
0.0
100
AcDbText
  0
TEXT
  5
B7
100
AcDbEntity
  8
0
  6
CONTINUOUS
 62
     2
100
AcDbText
 10
183.5
 20
29.5
 30
0.0
 40
4.5
  1
尺度
  7
EXCADVERT
 72
     3
 11
183.5
 21
19.5
 31
0.0
100
AcDbText
  0
TEXT
  5
B8
100
AcDbEntity
  8
0
  6
CONTINUOUS
 62
     2
100
AcDbText
 10
141.5
 20
18.0
 30
0.0
 40
4.5
  1
図番
  7
EXCADVERT
 72
     3
 11
141.5
 21
9.0
 31
0.0
100
AcDbText
  0
LINE
  5
B9
100
AcDbEntity
  8
0
  6
CONTINUOUS
 62
     6
100
AcDbLine
 10
88.0
 20
257.5
 30
0.0
 11
200.0
 21
257.5
 31
0.0
  0
TEXT
  5
BA
100
AcDbEntity
  8
0
  6
CONTINUOUS
 62
     2
100
AcDbText
 10
91.0
 20
258.125
 30
0.0
 40
5.0
  1
４
 41
0.84
  7
EXCADSTD
 72
     5
 11
95.0
 21
258.125
 31
0.0
100
AcDbText
  0
TEXT
  5
BB
100
AcDbEntity
  8
0
  6
CONTINUOUS
 62
     2
100
AcDbText
 10
99.0
 20
258.0
 30
0.0
 40
5.25
  1
タッピンねじ
 41
0.693333
  7
EXCADSTD
 72
     5
 11
125.0
 21
258.0
 31
0.0
100
AcDbText
  0
TEXT
  5
BC
100
AcDbEntity
  8
0
  6
CONTINUOUS
 62
     2
100
AcDbText
 10
129.0
 20
258.0
 30
0.0
 40
5.25
  1
ステンレス
 41
0.6976
  7
EXCADSTD
 72
     5
 11
150.8
 21
258.0
 31
0.0
100
AcDbText
  0
TEXT
  5
BD
100
AcDbEntity
  8
0
  6
CONTINUOUS
 62
     2
100
AcDbText
 10
162.125
 20
258.2
 30
0.0
 40
4.85
  1
４
 41
0.82268
  7
EXCADSTD
 72
     5
 11
165.925
 21
258.2
 31
0.0
100
AcDbText
  0
TEXT
  5
BE
100
AcDbEntity
  8
0
  6
CONTINUOUS
 62
     2
100
AcDbText
 10
170.0
 20
258.2
 30
0.0
 40
4.85
  1
皿
 41
0.82268
  7
EXCADSTD
 72
     5
 11
173.8
 21
258.2
 31
0.0
100
AcDbText
  0
TEXT
  5
BF
100
AcDbEntity
  8
0
  6
CONTINUOUS
 62
     2
100
AcDbText
 10
99.0
 20
270.5
 30
0.0
 40
5.25
  1
ブラケット（左用）
 41
0.561778
  7
EXCADSTD
 72
     5
 11
130.600001
 21
270.5
 31
0.0
100
AcDbText
  0
TEXT
  5
C0
100
AcDbEntity
  8
0
  6
CONTINUOUS
 62
     2
100
AcDbText
 10
129.0
 20
270.5
 30
0.0
 40
5.25
  1
合成樹脂
 41
0.704
  7
EXCADSTD
 72
     5
 11
146.6
 21
270.5
 31
0.0
100
AcDbText
  0
TEXT
  5
C1
100
AcDbEntity
  8
0
  6
CONTINUOUS
 62
     2
100
AcDbText
 10
162.125
 20
270.7
 30
0.0
 40
4.85
  1
１
 41
0.82268
  7
EXCADSTD
 72
     5
 11
165.925
 21
270.7
 31
0.0
100
AcDbText
  0
TEXT
  5
C2
100
AcDbEntity
  8
0
  6
CONTINUOUS
 62
     2
100
AcDbText
 10
170.0
 20
270.7
 30
0.0
 40
4.85
  1
カラー対応
 41
0.711835
  7
EXCADSTD
 72
     5
 11
190.55
 21
270.7
 31
0.0
100
AcDbText
  0
TEXT
  5
C3
100
AcDbEntity
  8
0
  6
CONTINUOUS
 62
     2
100
AcDbText
 10
189.22
 20
22.1
 30
0.0
 40
4.5
  1
ＮＳ
 41
0.765333
  7
EXCADSTD
 72
     5
 11
196.73612
 21
22.1
 31
0.0
100
AcDbText
  0
LINE
  5
C4
100
AcDbEntity
  8
0
  6
CONTINUOUS
 62
     3
100
AcDbLine
 10
83.344775
 20
15.128799
 30
0.0
 11
82.538409
 21
15.128799
 31
0.0
  0
LINE
  5
C5
100
AcDbEntity
  8
0
  6
CONTINUOUS
 62
     3
100
AcDbLine
 10
83.344775
 20
15.935196
 30
0.0
 11
83.344775
 21
15.128799
 31
0.0
  0
LINE
  5
C6
100
AcDbEntity
  8
0
  6
CONTINUOUS
 62
     3
100
AcDbLine
 10
82.538409
 20
15.935196
 30
0.0
 11
83.344775
 21
15.935196
 31
0.0
  0
LINE
  5
C7
100
AcDbEntity
  8
0
  6
CONTINUOUS
 62
     3
100
AcDbLine
 10
82.538409
 20
15.935196
 30
0.0
 11
82.538409
 21
15.128799
 31
0.0
  0
LINE
  5
C8
100
AcDbEntity
  8
0
  6
CONTINUOUS
 62
     3
100
AcDbLine
 10
82.235919
 20
15.128799
 30
0.0
 11
81.429553
 21
15.128799
 31
0.0
  0
LINE
  5
C9
100
AcDbEntity
  8
0
  6
CONTINUOUS
 62
     3
100
AcDbLine
 10
82.235919
 20
15.935196
 30
0.0
 11
82.235919
 21
15.128799
 31
0.0
  0
LINE
  5
CA
100
AcDbEntity
  8
0
  6
CONTINUOUS
 62
     3
100
AcDbLine
 10
81.429553
 20
15.935196
 30
0.0
 11
82.235919
 21
15.935196
 31
0.0
  0
LINE
  5
CB
100
AcDbEntity
  8
0
  6
CONTINUOUS
 62
     3
100
AcDbLine
 10
81.429553
 20
15.935196
 30
0.0
 11
81.429553
 21
15.128799
 31
0.0
  0
LINE
  5
CC
100
AcDbEntity
  8
0
  6
CONTINUOUS
 62
     3
100
AcDbLine
 10
80.588733
 20
11.5
 30
0.0
 11
77.7
 21
11.5
 31
0.0
  0
ARC
  5
CD
100
AcDbEntity
  8
0
  6
CONTINUOUS
 62
     3
100
AcDbCircle
 10
80.588733
 20
13.314407
 30
0.0
 40
1.8144
100
AcDbArc
 50
270.000031
 51
334.000137
  0
LINE
  5
CE
100
AcDbEntity
  8
0
  6
CONTINUOUS
 62
     3
100
AcDbLine
 10
83.344775
 20
14.826401
 30
0.0
 11
82.219302
 21
12.519012
 31
0.0
  0
LINE
  5
CF
100
AcDbEntity
  8
0
  6
CONTINUOUS
 62
     3
100
AcDbLine
 10
82.111224
 20
14.826401
 30
0.0
 11
83.344775
 21
14.826401
 31
0.0
  0
LINE
  5
D0
100
AcDbEntity
  8
0
  6
CONTINUOUS
 62
     3
100
AcDbLine
 10
81.201297
 20
12.960907
 30
0.0
 11
82.111224
 21
14.826401
 31
0.0
  0
ARC
  5
D1
100
AcDbEntity
  8
0
  6
CONTINUOUS
 62
     3
100
AcDbCircle
 10
80.47655
 20
13.314407
 30
0.0
 40
0.8064
100
AcDbArc
 50
270.000031
 51
333.99855
  0
LINE
  5
D2
100
AcDbEntity
  8
0
  6
CONTINUOUS
 62
     3
100
AcDbLine
 10
77.7
 20
12.507996
 30
0.0
 11
80.47655
 21
12.507996
 31
0.0
  0
LINE
  5
D3
100
AcDbEntity
  8
0
  6
CONTINUOUS
 62
     3
100
AcDbLine
 10
77.7
 20
12.507996
 30
0.0
 11
77.7
 21
11.5
 31
0.0
  0
LINE
  5
D4
100
AcDbEntity
  8
0
  6
CONTINUOUS
 62
     3
100
AcDbLine
 10
80.522495
 20
13.81839
 30
0.0
 11
77.7
 21
13.81839
 31
0.0
  0
LINE
  5
D5
100
AcDbEntity
  8
0
  6
CONTINUOUS
 62
     3
100
AcDbLine
 10
80.522495
 20
14.725601
 30
0.0
 11
80.522495
 21
13.81839
 31
0.0
  0
LINE
  5
D6
100
AcDbEntity
  8
0
  6
CONTINUOUS
 62
     3
100
AcDbLine
 10
77.7
 20
14.725601
 30
0.0
 11
80.522495
 21
14.725601
 31
0.0
  0
LINE
  5
D7
100
AcDbEntity
  8
0
  6
CONTINUOUS
 62
     3
100
AcDbLine
 10
77.7
 20
14.725601
 30
0.0
 11
77.7
 21
13.81839
 31
0.0
  0
LINE
  5
D8
100
AcDbEntity
  8
0
  6
CONTINUOUS
 62
     3
100
AcDbLine
 10
80.522495
 20
15.028
 30
0.0
 11
77.7
 21
15.028
 31
0.0
  0
LINE
  5
D9
100
AcDbEntity
  8
0
  6
CONTINUOUS
 62
     3
100
AcDbLine
 10
80.522495
 20
15.935196
 30
0.0
 11
80.522495
 21
15.028
 31
0.0
  0
LINE
  5
DA
100
AcDbEntity
  8
0
  6
CONTINUOUS
 62
     3
100
AcDbLine
 10
77.7
 20
15.935196
 30
0.0
 11
80.522495
 21
15.935196
 31
0.0
  0
LINE
  5
DB
100
AcDbEntity
  8
0
  6
CONTINUOUS
 62
     3
100
AcDbLine
 10
77.7
 20
15.935196
 30
0.0
 11
77.7
 21
15.028
 31
0.0
  0
LINE
  5
DC
100
AcDbEntity
  8
0
  6
CONTINUOUS
 62
     3
100
AcDbLine
 10
83.647266
 20
14.826401
 30
0.0
 11
83.647266
 21
14.120789
 31
0.0
  0
LINE
  5
DD
100
AcDbEntity
  8
0
  6
CONTINUOUS
 62
     3
100
AcDbLine
 10
83.647266
 20
14.826401
 30
0.0
 11
84.565402
 21
14.826401
 31
0.0
  0
LINE
  5
DE
100
AcDbEntity
  8
0
  6
CONTINUOUS
 62
     3
100
AcDbLine
 10
84.453632
 20
15.531998
 30
0.0
 11
84.565402
 21
14.826401
 31
0.0
  0
LINE
  5
DF
100
AcDbEntity
  8
0
  6
CONTINUOUS
 62
     3
100
AcDbLine
 10
84.453632
 20
15.531998
 30
0.0
 11
85.576236
 21
15.531998
 31
0.0
  0
LINE
  5
E0
100
AcDbEntity
  8
0
  6
CONTINUOUS
 62
     3
100
AcDbLine
 10
85.576236
 20
15.531998
 30
0.0
 11
85.687991
 21
14.826401
 31
0.0
  0
LINE
  5
E1
100
AcDbEntity
  8
0
  6
CONTINUOUS
 62
     3
100
AcDbLine
 10
85.687991
 20
14.826401
 30
0.0
 11
88.485675
 21
14.826401
 31
0.0
  0
LINE
  5
E2
100
AcDbEntity
  8
0
  6
CONTINUOUS
 62
     3
100
AcDbLine
 10
88.485675
 20
14.826401
 30
0.0
 11
87.897311
 21
13.505051
 31
0.0
  0
ARC
  5
E3
100
AcDbEntity
  8
0
  6
CONTINUOUS
 62
     3
100
AcDbCircle
 10
86.516101
 20
14.120041
 30
0.0
 40
1.512011
100
AcDbArc
 50
263.465775
 51
335.998779
  0
LINE
  5
E4
100
AcDbEntity
  8
0
  6
CONTINUOUS
 62
     3
100
AcDbLine
 10
86.343845
 20
12.617859
 30
0.0
 11
86.233707
 21
13.314407
 31
0.0
  0
ARC
  5
E5
100
AcDbEntity
  8
0
  6
CONTINUOUS
 62
     3
100
AcDbCircle
 10
86.205814
 20
13.919205
 30
0.0
 40
0.604801
100
AcDbArc
 50
272.623749
 51
336.006531
  0
LINE
  5
E6
100
AcDbEntity
  8
0
  6
CONTINUOUS
 62
     3
100
AcDbLine
 10
86.758502
 20
13.673203
 30
0.0
 11
86.957629
 21
14.120789
 31
0.0
  0
LINE
  5
E7
100
AcDbEntity
  8
0
  6
CONTINUOUS
 62
     3
100
AcDbLine
 10
86.957629
 20
14.120789
 30
0.0
 11
85.799762
 21
14.120789
 31
0.0
  0
LINE
  5
E8
100
AcDbEntity
  8
0
  6
CONTINUOUS
 62
     3
100
AcDbLine
 10
85.799762
 20
14.120789
 30
0.0
 11
86.214847
 21
11.5
 31
0.0
  0
LINE
  5
E9
100
AcDbEntity
  8
0
  6
CONTINUOUS
 62
     3
100
AcDbLine
 10
86.214847
 20
11.5
 30
0.0
 11
85.092242
 21
11.5
 31
0.0
  0
LINE
  5
EA
100
AcDbEntity
  8
0
  6
CONTINUOUS
 62
     3
100
AcDbLine
 10
85.092242
 20
11.5
 30
0.0
 11
84.677173
 21
14.120789
 31
0.0
  0
LINE
  5
EB
100
AcDbEntity
  8
0
  6
CONTINUOUS
 62
     3
100
AcDbLine
 10
84.677173
 20
14.120789
 30
0.0
 11
83.647266
 21
14.120789
 31
0.0
  0
LINE
  5
EC
100
AcDbEntity
  8
0
  6
CONTINUOUS
 62
     3
100
AcDbLine
 10
88.384769
 20
11.5
 30
0.0
 11
88.384769
 21
12.507996
 31
0.0
  0
LINE
  5
ED
100
AcDbEntity
  8
0
  6
CONTINUOUS
 62
     3
100
AcDbLine
 10
88.384769
 20
12.507996
 30
0.0
 11
94.029544
 21
12.507996
 31
0.0
  0
LINE
  5
EE
100
AcDbEntity
  8
0
  6
CONTINUOUS
 62
     3
100
AcDbLine
 10
94.029544
 20
12.507996
 30
0.0
 11
94.029544
 21
11.5
 31
0.0
  0
LINE
  5
EF
100
AcDbEntity
  8
0
  6
CONTINUOUS
 62
     3
100
AcDbLine
 10
94.029544
 20
11.5
 30
0.0
 11
88.384769
 21
11.5
 31
0.0
  0
LINE
  5
F0
100
AcDbEntity
  8
0
  6
CONTINUOUS
 62
     3
100
AcDbLine
 10
88.787952
 20
15.935196
 30
0.0
 11
88.787952
 21
14.9272
 31
0.0
  0
LINE
  5
F1
100
AcDbEntity
  8
0
  6
CONTINUOUS
 62
     3
100
AcDbLine
 10
88.787952
 20
15.935196
 30
0.0
 11
93.626361
 21
15.935196
 31
0.0
  0
LINE
  5
F2
100
AcDbEntity
  8
0
  6
CONTINUOUS
 62
     3
100
AcDbLine
 10
93.626361
 20
15.935196
 30
0.0
 11
93.626361
 21
14.9272
 31
0.0
  0
LINE
  5
F3
100
AcDbEntity
  8
0
  6
CONTINUOUS
 62
     3
100
AcDbLine
 10
93.626361
 20
14.9272
 30
0.0
 11
88.787952
 21
14.9272
 31
0.0
  0
LINE
  5
F4
100
AcDbEntity
  8
0
  6
CONTINUOUS
 62
     3
100
AcDbLine
 10
94.735217
 20
15.935196
 30
0.0
 11
94.735217
 21
14.9272
 31
0.0
  0
LINE
  5
F5
100
AcDbEntity
  8
0
  6
CONTINUOUS
 62
     3
100
AcDbLine
 10
94.735217
 20
15.935196
 30
0.0
 11
99.97681
 21
15.935196
 31
0.0
  0
LINE
  5
F6
100
AcDbEntity
  8
0
  6
CONTINUOUS
 62
     3
100
AcDbLine
 10
99.97681
 20
15.935196
 30
0.0
 11
98.405093
 21
13.771896
 31
0.0
  0
LINE
  5
F7
100
AcDbEntity
  8
0
  6
CONTINUOUS
 62
     3
100
AcDbLine
 10
98.405093
 20
13.771896
 30
0.0
 11
100.379993
 21
11.5
 31
0.0
  0
LINE
  5
F8
100
AcDbEntity
  8
0
  6
CONTINUOUS
 62
     3
100
AcDbLine
 10
100.379993
 20
11.5
 30
0.0
 11
98.910815
 21
11.5
 31
0.0
  0
LINE
  5
F9
100
AcDbEntity
  8
0
  6
CONTINUOUS
 62
     3
100
AcDbLine
 10
98.910815
 20
11.5
 30
0.0
 11
97.736133
 21
12.851273
 31
0.0
  0
LINE
  5
FA
100
AcDbEntity
  8
0
  6
CONTINUOUS
 62
     3
100
AcDbLine
 10
97.736133
 20
12.851273
 30
0.0
 11
97.297885
 21
12.247925
 31
0.0
  0
ARC
  5
FB
100
AcDbEntity
  8
0
  6
CONTINUOUS
 62
     3
100
AcDbCircle
 10
95.829929
 20
13.314407
 30
0.0
 40
1.8144
100
AcDbArc
 50
270.000031
 51
324.00116
  0
LINE
  5
FC
100
AcDbEntity
  8
0
  6
CONTINUOUS
 62
     3
100
AcDbLine
 10
95.829929
 20
11.5
 30
0.0
 11
94.332034
 21
11.5
 31
0.0
  0
LINE
  5
FD
100
AcDbEntity
  8
0
  6
CONTINUOUS
 62
     3
100
AcDbLine
 10
94.332034
 20
11.5
 30
0.0
 11
94.332034
 21
12.507996
 31
0.0
  0
LINE
  5
FE
100
AcDbEntity
  8
0
  6
CONTINUOUS
 62
     3
100
AcDbLine
 10
94.332034
 20
12.507996
 30
0.0
 11
95.60271
 21
12.507996
 31
0.0
  0
ARC
  5
FF
100
AcDbEntity
  8
0
  6
CONTINUOUS
 62
     3
100
AcDbCircle
 10
95.60271
 20
13.515991
 30
0.0
 40
1.007999
100
AcDbArc
 50
270.000031
 51
323.996597
  0
LINE
  5
100
100
AcDbEntity
  8
0
  6
CONTINUOUS
 62
     3
100
AcDbLine
 10
96.418094
 20
12.923508
 30
0.0
 11
97.87395
 21
14.9272
 31
0.0
  0
LINE
  5
101
100
AcDbEntity
  8
0
  6
CONTINUOUS
 62
     3
100
AcDbLine
 10
97.87395
 20
14.9272
 30
0.0
 11
94.735217
 21
14.9272
 31
0.0
  0
LINE
  5
102
100
AcDbEntity
  8
0
  6
CONTINUOUS
 62
     3
100
AcDbLine
 10
101.589557
 20
15.935196
 30
0.0
 11
101.589557
 21
15.229599
 31
0.0
  0
LINE
  5
103
100
AcDbEntity
  8
0
  6
CONTINUOUS
 62
     3
100
AcDbLine
 10
101.589557
 20
15.935196
 30
0.0
 11
106.831134
 21
15.935196
 31
0.0
  0
LINE
  5
104
100
AcDbEntity
  8
0
  6
CONTINUOUS
 62
     3
100
AcDbLine
 10
106.831134
 20
15.935196
 30
0.0
 11
106.831134
 21
15.229599
 31
0.0
  0
LINE
  5
105
100
AcDbEntity
  8
0
  6
CONTINUOUS
 62
     3
100
AcDbLine
 10
106.831134
 20
15.229599
 30
0.0
 11
104.764774
 21
15.229599
 31
0.0
  0
LINE
  5
106
100
AcDbEntity
  8
0
  6
CONTINUOUS
 62
     3
100
AcDbLine
 10
104.764774
 20
15.229599
 30
0.0
 11
104.764774
 21
12.306412
 31
0.0
  0
LINE
  5
107
100
AcDbEntity
  8
0
  6
CONTINUOUS
 62
     3
100
AcDbLine
 10
104.764774
 20
12.306412
 30
0.0
 11
107.032733
 21
12.306412
 31
0.0
  0
LINE
  5
108
100
AcDbEntity
  8
0
  6
CONTINUOUS
 62
     3
100
AcDbLine
 10
107.032733
 20
12.306412
 30
0.0
 11
107.032733
 21
11.5
 31
0.0
  0
LINE
  5
109
100
AcDbEntity
  8
0
  6
CONTINUOUS
 62
     3
100
AcDbLine
 10
107.032733
 20
11.5
 30
0.0
 11
101.387958
 21
11.5
 31
0.0
  0
LINE
  5
10A
100
AcDbEntity
  8
0
  6
CONTINUOUS
 62
     3
100
AcDbLine
 10
101.387958
 20
11.5
 30
0.0
 11
101.387958
 21
12.306412
 31
0.0
  0
LINE
  5
10B
100
AcDbEntity
  8
0
  6
CONTINUOUS
 62
     3
100
AcDbLine
 10
101.387958
 20
12.306412
 30
0.0
 11
103.655917
 21
12.306412
 31
0.0
  0
LINE
  5
10C
100
AcDbEntity
  8
0
  6
CONTINUOUS
 62
     3
100
AcDbLine
 10
103.655917
 20
12.306412
 30
0.0
 11
103.655917
 21
15.229599
 31
0.0
  0
LINE
  5
10D
100
AcDbEntity
  8
0
  6
CONTINUOUS
 62
     3
100
AcDbLine
 10
103.655917
 20
15.229599
 30
0.0
 11
101.589557
 21
15.229599
 31
0.0
  0
LINE
  5
10E
100
AcDbEntity
  8
0
  6
CONTINUOUS
 62
     3
100
AcDbLine
 10
107.133624
 20
15.330399
 30
0.0
 11
107.133624
 21
14.866714
 31
0.0
  0
LINE
  5
10F
100
AcDbEntity
  8
0
  6
CONTINUOUS
 62
     3
100
AcDbLine
 10
107.133624
 20
15.330399
 30
0.0
 11
108.009311
 21
15.330399
 31
0.0
  0
LINE
  5
110
100
AcDbEntity
  8
0
  6
CONTINUOUS
 62
     3
100
AcDbLine
 10
108.009311
 20
15.330399
 30
0.0
 11
107.536823
 21
15.935196
 31
0.0
  0
LINE
  5
111
100
AcDbEntity
  8
0
  6
CONTINUOUS
 62
     3
100
AcDbLine
 10
107.536823
 20
15.935196
 30
0.0
 11
108.432193
 21
15.935196
 31
0.0
  0
LINE
  5
112
100
AcDbEntity
  8
0
  6
CONTINUOUS
 62
     3
100
AcDbLine
 10
108.432193
 20
15.935196
 30
0.0
 11
108.904681
 21
15.330399
 31
0.0
  0
LINE
  5
113
100
AcDbEntity
  8
0
  6
CONTINUOUS
 62
     3
100
AcDbLine
 10
108.904681
 20
15.330399
 30
0.0
 11
109.099307
 21
15.330399
 31
0.0
  0
LINE
  5
114
100
AcDbEntity
  8
0
  6
CONTINUOUS
 62
     3
100
AcDbLine
 10
109.099307
 20
15.330399
 30
0.0
 11
109.099307
 21
15.935196
 31
0.0
  0
LINE
  5
115
100
AcDbEntity
  8
0
  6
CONTINUOUS
 62
     3
100
AcDbLine
 10
109.099307
 20
15.935196
 30
0.0
 11
109.804767
 21
15.935196
 31
0.0
  0
LINE
  5
116
100
AcDbEntity
  8
0
  6
CONTINUOUS
 62
     3
100
AcDbLine
 10
109.804767
 20
15.935196
 30
0.0
 11
109.804767
 21
15.330399
 31
0.0
  0
LINE
  5
117
100
AcDbEntity
  8
0
  6
CONTINUOUS
 62
     3
100
AcDbLine
 10
109.804767
 20
15.330399
 30
0.0
 11
110.107257
 21
15.330399
 31
0.0
  0
LINE
  5
118
100
AcDbEntity
  8
0
  6
CONTINUOUS
 62
     3
100
AcDbLine
 10
110.107257
 20
15.330399
 30
0.0
 11
110.107257
 21
15.935196
 31
0.0
  0
LINE
  5
119
100
AcDbEntity
  8
0
  6
CONTINUOUS
 62
     3
100
AcDbLine
 10
110.107257
 20
15.935196
 30
0.0
 11
110.812732
 21
15.935196
 31
0.0
  0
LINE
  5
11A
100
AcDbEntity
  8
0
  6
CONTINUOUS
 62
     3
100
AcDbLine
 10
110.812732
 20
15.935196
 30
0.0
 11
110.812732
 21
15.330399
 31
0.0
  0
LINE
  5
11B
100
AcDbEntity
  8
0
  6
CONTINUOUS
 62
     3
100
AcDbLine
 10
110.812732
 20
15.330399
 30
0.0
 11
111.007358
 21
15.330399
 31
0.0
  0
LINE
  5
11C
100
AcDbEntity
  8
0
  6
CONTINUOUS
 62
     3
100
AcDbLine
 10
111.007358
 20
15.330399
 30
0.0
 11
111.479846
 21
15.935196
 31
0.0
  0
LINE
  5
11D
100
AcDbEntity
  8
0
  6
CONTINUOUS
 62
     3
100
AcDbLine
 10
111.479846
 20
15.935196
 30
0.0
 11
112.375217
 21
15.935196
 31
0.0
  0
LINE
  5
11E
100
AcDbEntity
  8
0
  6
CONTINUOUS
 62
     3
100
AcDbLine
 10
112.375217
 20
15.935196
 30
0.0
 11
111.902728
 21
15.330399
 31
0.0
  0
LINE
  5
11F
100
AcDbEntity
  8
0
  6
CONTINUOUS
 62
     3
100
AcDbLine
 10
111.902728
 20
15.330399
 30
0.0
 11
112.7784
 21
15.330399
 31
0.0
  0
LINE
  5
120
100
AcDbEntity
  8
0
  6
CONTINUOUS
 62
     3
100
AcDbLine
 10
112.7784
 20
15.330399
 30
0.0
 11
112.7784
 21
14.866714
 31
0.0
  0
LINE
  5
121
100
AcDbEntity
  8
0
  6
CONTINUOUS
 62
     3
100
AcDbLine
 10
112.7784
 20
14.866714
 30
0.0
 11
111.716098
 21
14.866714
 31
0.0
  0
LINE
  5
122
100
AcDbEntity
  8
0
  6
CONTINUOUS
 62
     3
100
AcDbLine
 10
111.716098
 20
14.866714
 30
0.0
 11
111.532764
 21
14.362732
 31
0.0
  0
LINE
  5
123
100
AcDbEntity
  8
0
  6
CONTINUOUS
 62
     3
100
AcDbLine
 10
111.532764
 20
14.362732
 30
0.0
 11
112.7784
 21
14.362732
 31
0.0
  0
LINE
  5
124
100
AcDbEntity
  8
0
  6
CONTINUOUS
 62
     3
100
AcDbLine
 10
112.7784
 20
14.362732
 30
0.0
 11
112.7784
 21
13.899048
 31
0.0
  0
LINE
  5
125
100
AcDbEntity
  8
0
  6
CONTINUOUS
 62
     3
100
AcDbLine
 10
112.7784
 20
13.899048
 30
0.0
 11
110.459995
 21
13.899048
 31
0.0
  0
LINE
  5
126
100
AcDbEntity
  8
0
  6
CONTINUOUS
 62
     3
100
AcDbLine
 10
110.459995
 20
13.899048
 30
0.0
 11
110.459995
 21
13.667206
 31
0.0
  0
LINE
  5
127
100
AcDbEntity
  8
0
  6
CONTINUOUS
 62
     3
100
AcDbLine
 10
110.459995
 20
13.667206
 30
0.0
 11
112.7784
 21
13.667206
 31
0.0
  0
LINE
  5
128
100
AcDbEntity
  8
0
  6
CONTINUOUS
 62
     3
100
AcDbLine
 10
112.7784
 20
13.667206
 30
0.0
 11
112.7784
 21
13.203522
 31
0.0
  0
LINE
  5
129
100
AcDbEntity
  8
0
  6
CONTINUOUS
 62
     3
100
AcDbLine
 10
112.7784
 20
13.203522
 30
0.0
 11
110.459995
 21
13.203522
 31
0.0
  0
LINE
  5
12A
100
AcDbEntity
  8
0
  6
CONTINUOUS
 62
     3
100
AcDbLine
 10
110.459995
 20
13.203522
 30
0.0
 11
110.459995
 21
12.97168
 31
0.0
  0
LINE
  5
12B
100
AcDbEntity
  8
0
  6
CONTINUOUS
 62
     3
100
AcDbLine
 10
110.459995
 20
12.97168
 30
0.0
 11
112.7784
 21
12.97168
 31
0.0
  0
LINE
  5
12C
100
AcDbEntity
  8
0
  6
CONTINUOUS
 62
     3
100
AcDbLine
 10
112.7784
 20
12.97168
 30
0.0
 11
112.7784
 21
12.507996
 31
0.0
  0
LINE
  5
12D
100
AcDbEntity
  8
0
  6
CONTINUOUS
 62
     3
100
AcDbLine
 10
112.7784
 20
12.507996
 30
0.0
 11
111.662784
 21
12.507996
 31
0.0
  0
LINE
  5
12E
100
AcDbEntity
  8
0
  6
CONTINUOUS
 62
     3
100
AcDbLine
 10
111.662784
 20
12.507996
 30
0.0
 11
112.7784
 21
11.5
 31
0.0
  0
LINE
  5
12F
100
AcDbEntity
  8
0
  6
CONTINUOUS
 62
     3
100
AcDbLine
 10
112.7784
 20
11.5
 30
0.0
 11
111.575626
 21
11.5
 31
0.0
  0
LINE
  5
130
100
AcDbEntity
  8
0
  6
CONTINUOUS
 62
     3
100
AcDbLine
 10
111.575626
 20
11.5
 30
0.0
 11
110.459995
 21
12.507996
 31
0.0
  0
LINE
  5
131
100
AcDbEntity
  8
0
  6
CONTINUOUS
 62
     3
100
AcDbLine
 10
110.459995
 20
12.507996
 30
0.0
 11
110.459995
 21
11.5
 31
0.0
  0
LINE
  5
132
100
AcDbEntity
  8
0
  6
CONTINUOUS
 62
     3
100
AcDbLine
 10
110.459995
 20
11.5
 30
0.0
 11
109.452045
 21
11.5
 31
0.0
  0
LINE
  5
133
100
AcDbEntity
  8
0
  6
CONTINUOUS
 62
     3
100
AcDbLine
 10
109.452045
 20
11.5
 30
0.0
 11
109.452045
 21
12.507996
 31
0.0
  0
LINE
  5
134
100
AcDbEntity
  8
0
  6
CONTINUOUS
 62
     3
100
AcDbLine
 10
109.452045
 20
12.507996
 30
0.0
 11
108.336414
 21
11.5
 31
0.0
  0
LINE
  5
135
100
AcDbEntity
  8
0
  6
CONTINUOUS
 62
     3
100
AcDbLine
 10
108.336414
 20
11.5
 30
0.0
 11
107.133624
 21
11.5
 31
0.0
  0
LINE
  5
136
100
AcDbEntity
  8
0
  6
CONTINUOUS
 62
     3
100
AcDbLine
 10
107.133624
 20
11.5
 30
0.0
 11
108.249255
 21
12.507996
 31
0.0
  0
LINE
  5
137
100
AcDbEntity
  8
0
  6
CONTINUOUS
 62
     3
100
AcDbLine
 10
108.249255
 20
12.507996
 30
0.0
 11
107.133624
 21
12.507996
 31
0.0
  0
LINE
  5
138
100
AcDbEntity
  8
0
  6
CONTINUOUS
 62
     3
100
AcDbLine
 10
107.133624
 20
12.507996
 30
0.0
 11
107.133624
 21
12.97168
 31
0.0
  0
LINE
  5
139
100
AcDbEntity
  8
0
  6
CONTINUOUS
 62
     3
100
AcDbLine
 10
107.133624
 20
12.97168
 30
0.0
 11
109.452045
 21
12.97168
 31
0.0
  0
LINE
  5
13A
100
AcDbEntity
  8
0
  6
CONTINUOUS
 62
     3
100
AcDbLine
 10
109.452045
 20
12.97168
 30
0.0
 11
109.452045
 21
13.203522
 31
0.0
  0
LINE
  5
13B
100
AcDbEntity
  8
0
  6
CONTINUOUS
 62
     3
100
AcDbLine
 10
109.452045
 20
13.203522
 30
0.0
 11
107.133624
 21
13.203522
 31
0.0
  0
LINE
  5
13C
100
AcDbEntity
  8
0
  6
CONTINUOUS
 62
     3
100
AcDbLine
 10
107.133624
 20
13.203522
 30
0.0
 11
107.133624
 21
13.667206
 31
0.0
  0
LINE
  5
13D
100
AcDbEntity
  8
0
  6
CONTINUOUS
 62
     3
100
AcDbLine
 10
107.133624
 20
13.667206
 30
0.0
 11
109.452045
 21
13.667206
 31
0.0
  0
LINE
  5
13E
100
AcDbEntity
  8
0
  6
CONTINUOUS
 62
     3
100
AcDbLine
 10
109.452045
 20
13.667206
 30
0.0
 11
109.452045
 21
13.899048
 31
0.0
  0
LINE
  5
13F
100
AcDbEntity
  8
0
  6
CONTINUOUS
 62
     3
100
AcDbLine
 10
109.452045
 20
13.899048
 30
0.0
 11
107.133624
 21
13.899048
 31
0.0
  0
LINE
  5
140
100
AcDbEntity
  8
0
  6
CONTINUOUS
 62
     3
100
AcDbLine
 10
107.133624
 20
13.899048
 30
0.0
 11
107.133624
 21
14.362732
 31
0.0
  0
LINE
  5
141
100
AcDbEntity
  8
0
  6
CONTINUOUS
 62
     3
100
AcDbLine
 10
107.133624
 20
14.362732
 30
0.0
 11
108.379276
 21
14.362732
 31
0.0
  0
LINE
  5
142
100
AcDbEntity
  8
0
  6
CONTINUOUS
 62
     3
100
AcDbLine
 10
108.379276
 20
14.362732
 30
0.0
 11
108.195941
 21
14.866714
 31
0.0
  0
LINE
  5
143
100
AcDbEntity
  8
0
  6
CONTINUOUS
 62
     3
100
AcDbLine
 10
108.195941
 20
14.866714
 30
0.0
 11
107.133624
 21
14.866714
 31
0.0
  0
LINE
  5
144
100
AcDbEntity
  8
0
  6
CONTINUOUS
 62
     3
100
AcDbLine
 10
109.268497
 20
14.866714
 30
0.0
 11
110.643542
 21
14.866714
 31
0.0
  0
LINE
  5
145
100
AcDbEntity
  8
0
  6
CONTINUOUS
 62
     3
100
AcDbLine
 10
110.643542
 20
14.866714
 30
0.0
 11
110.459995
 21
14.362732
 31
0.0
  0
LINE
  5
146
100
AcDbEntity
  8
0
  6
CONTINUOUS
 62
     3
100
AcDbLine
 10
110.459995
 20
14.362732
 30
0.0
 11
109.452045
 21
14.362732
 31
0.0
  0
LINE
  5
147
100
AcDbEntity
  8
0
  6
CONTINUOUS
 62
     3
100
AcDbLine
 10
109.452045
 20
14.362732
 30
0.0
 11
109.268497
 21
14.866714
 31
0.0
  0
LINE
  5
148
100
AcDbEntity
  8
0
  6
CONTINUOUS
 62
     3
100
AcDbLine
 10
115.525638
 20
15.935196
 30
0.0
 11
115.198947
 21
14.624802
 31
0.0
  0
LINE
  5
149
100
AcDbEntity
  8
0
  6
CONTINUOUS
 62
     3
100
AcDbLine
 10
115.525638
 20
15.935196
 30
0.0
 11
116.356815
 21
15.935196
 31
0.0
  0
LINE
  5
14A
100
AcDbEntity
  8
0
  6
CONTINUOUS
 62
     3
100
AcDbLine
 10
116.356815
 20
15.935196
 30
0.0
 11
116.231097
 21
15.431198
 31
0.0
  0
LINE
  5
14B
100
AcDbEntity
  8
0
  6
CONTINUOUS
 62
     3
100
AcDbLine
 10
116.231097
 20
15.431198
 30
0.0
 11
116.558414
 21
15.431198
 31
0.0
  0
LINE
  5
14C
100
AcDbEntity
  8
0
  6
CONTINUOUS
 62
     3
100
AcDbLine
 10
116.558414
 20
15.431198
 30
0.0
 11
116.558414
 21
15.935196
 31
0.0
  0
LINE
  5
14D
100
AcDbEntity
  8
0
  6
CONTINUOUS
 62
     3
100
AcDbLine
 10
116.558414
 20
15.935196
 30
0.0
 11
117.465671
 21
15.935196
 31
0.0
  0
LINE
  5
14E
100
AcDbEntity
  8
0
  6
CONTINUOUS
 62
     3
100
AcDbLine
 10
117.465671
 20
15.935196
 30
0.0
 11
117.465671
 21
15.431198
 31
0.0
  0
LINE
  5
14F
100
AcDbEntity
  8
0
  6
CONTINUOUS
 62
     3
100
AcDbLine
 10
117.465671
 20
15.431198
 30
0.0
 11
118.624774
 21
15.431198
 31
0.0
  0
LINE
  5
150
100
AcDbEntity
  8
0
  6
CONTINUOUS
 62
     3
100
AcDbLine
 10
118.624774
 20
15.431198
 30
0.0
 11
118.624774
 21
14.9272
 31
0.0
  0
LINE
  5
151
100
AcDbEntity
  8
0
  6
CONTINUOUS
 62
     3
100
AcDbLine
 10
117.465671
 20
14.9272
 30
0.0
 11
118.624774
 21
14.9272
 31
0.0
  0
LINE
  5
152
100
AcDbEntity
  8
0
  6
CONTINUOUS
 62
     3
100
AcDbLine
 10
117.465671
 20
14.9272
 30
0.0
 11
117.465671
 21
14.423203
 31
0.0
  0
LINE
  5
153
100
AcDbEntity
  8
0
  6
CONTINUOUS
 62
     3
100
AcDbLine
 10
117.465671
 20
14.423203
 30
0.0
 11
118.725665
 21
14.423203
 31
0.0
  0
LINE
  5
154
100
AcDbEntity
  8
0
  6
CONTINUOUS
 62
     3
100
AcDbLine
 10
118.725665
 20
14.423203
 30
0.0
 11
118.725665
 21
13.919205
 31
0.0
  0
LINE
  5
155
100
AcDbEntity
  8
0
  6
CONTINUOUS
 62
     3
100
AcDbLine
 10
118.725665
 20
13.919205
 30
0.0
 11
118.285159
 21
13.919205
 31
0.0
  0
LINE
  5
156
100
AcDbEntity
  8
0
  6
CONTINUOUS
 62
     3
100
AcDbLine
 10
118.285159
 20
13.919205
 30
0.0
 11
118.725665
 21
11.5
 31
0.0
  0
LINE
  5
157
100
AcDbEntity
  8
0
  6
CONTINUOUS
 62
     3
100
AcDbLine
 10
118.725665
 20
11.5
 30
0.0
 11
117.905978
 21
11.5
 31
0.0
  0
LINE
  5
158
100
AcDbEntity
  8
0
  6
CONTINUOUS
 62
     3
100
AcDbLine
 10
117.905978
 20
11.5
 30
0.0
 11
117.465671
 21
13.919174
 31
0.0
  0
LINE
  5
159
100
AcDbEntity
  8
0
  6
CONTINUOUS
 62
     3
100
AcDbLine
 10
117.465671
 20
13.919174
 30
0.0
 11
117.465671
 21
11.5
 31
0.0
  0
LINE
  5
15A
100
AcDbEntity
  8
0
  6
CONTINUOUS
 62
     3
100
AcDbLine
 10
117.465671
 20
11.5
 30
0.0
 11
116.558414
 21
11.5
 31
0.0
  0
LINE
  5
15B
100
AcDbEntity
  8
0
  6
CONTINUOUS
 62
     3
100
AcDbLine
 10
116.558414
 20
11.5
 30
0.0
 11
116.558414
 21
13.919205
 31
0.0
  0
LINE
  5
15C
100
AcDbEntity
  8
0
  6
CONTINUOUS
 62
     3
100
AcDbLine
 10
116.558414
 20
13.919205
 30
0.0
 11
116.118106
 21
11.5
 31
0.0
  0
LINE
  5
15D
100
AcDbEntity
  8
0
  6
CONTINUOUS
 62
     3
100
AcDbLine
 10
116.118106
 20
11.5
 30
0.0
 11
115.298404
 21
11.5
 31
0.0
  0
LINE
  5
15E
100
AcDbEntity
  8
0
  6
CONTINUOUS
 62
     3
100
AcDbLine
 10
115.298404
 20
11.5
 30
0.0
 11
115.738712
 21
13.919205
 31
0.0
  0
LINE
  5
15F
100
AcDbEntity
  8
0
  6
CONTINUOUS
 62
     3
100
AcDbLine
 10
115.738712
 20
13.919205
 30
0.0
 11
115.298404
 21
13.919205
 31
0.0
  0
LINE
  5
160
100
AcDbEntity
  8
0
  6
CONTINUOUS
 62
     3
100
AcDbLine
 10
115.298404
 20
13.919205
 30
0.0
 11
115.298404
 21
14.423203
 31
0.0
  0
LINE
  5
161
100
AcDbEntity
  8
0
  6
CONTINUOUS
 62
     3
100
AcDbLine
 10
115.298404
 20
14.423203
 30
0.0
 11
116.558414
 21
14.423203
 31
0.0
  0
LINE
  5
162
100
AcDbEntity
  8
0
  6
CONTINUOUS
 62
     3
100
AcDbLine
 10
116.558414
 20
14.423203
 30
0.0
 11
116.558414
 21
14.9272
 31
0.0
  0
LINE
  5
163
100
AcDbEntity
  8
0
  6
CONTINUOUS
 62
     3
100
AcDbLine
 10
116.558414
 20
14.9272
 30
0.0
 11
116.105396
 21
14.9272
 31
0.0
  0
LINE
  5
164
100
AcDbEntity
  8
0
  6
CONTINUOUS
 62
     3
100
AcDbLine
 10
116.105396
 20
14.9272
 30
0.0
 11
116.030124
 21
14.624802
 31
0.0
  0
LINE
  5
165
100
AcDbEntity
  8
0
  6
CONTINUOUS
 62
     3
100
AcDbLine
 10
116.030124
 20
14.624802
 30
0.0
 11
115.198947
 21
14.624802
 31
0.0
  0
LINE
  5
166
100
AcDbEntity
  8
0
  6
CONTINUOUS
 62
     3
100
AcDbLine
 10
112.979999
 20
15.431198
 30
0.0
 11
112.979999
 21
14.9272
 31
0.0
  0
LINE
  5
167
100
AcDbEntity
  8
0
  6
CONTINUOUS
 62
     3
100
AcDbLine
 10
112.979999
 20
15.431198
 30
0.0
 11
113.987964
 21
15.431198
 31
0.0
  0
LINE
  5
168
100
AcDbEntity
  8
0
  6
CONTINUOUS
 62
     3
100
AcDbLine
 10
113.987964
 20
15.431198
 30
0.0
 11
113.987964
 21
15.935196
 31
0.0
  0
LINE
  5
169
100
AcDbEntity
  8
0
  6
CONTINUOUS
 62
     3
100
AcDbLine
 10
113.987964
 20
15.935196
 30
0.0
 11
114.895221
 21
15.935196
 31
0.0
  0
LINE
  5
16A
100
AcDbEntity
  8
0
  6
CONTINUOUS
 62
     3
100
AcDbLine
 10
114.895221
 20
15.935196
 30
0.0
 11
114.895221
 21
15.431198
 31
0.0
  0
LINE
  5
16B
100
AcDbEntity
  8
0
  6
CONTINUOUS
 62
     3
100
AcDbLine
 10
114.895221
 20
15.431198
 30
0.0
 11
115.197513
 21
15.431198
 31
0.0
  0
LINE
  5
16C
100
AcDbEntity
  8
0
  6
CONTINUOUS
 62
     3
100
AcDbLine
 10
115.197513
 20
15.431198
 30
0.0
 11
115.197513
 21
14.9272
 31
0.0
  0
LINE
  5
16D
100
AcDbEntity
  8
0
  6
CONTINUOUS
 62
     3
100
AcDbLine
 10
115.197513
 20
14.9272
 30
0.0
 11
114.895221
 21
14.9272
 31
0.0
  0
LINE
  5
16E
100
AcDbEntity
  8
0
  6
CONTINUOUS
 62
     3
100
AcDbLine
 10
114.895221
 20
14.9272
 30
0.0
 11
115.197513
 21
14.511002
 31
0.0
  0
LINE
  5
16F
100
AcDbEntity
  8
0
  6
CONTINUOUS
 62
     3
100
AcDbLine
 10
115.197513
 20
14.511002
 30
0.0
 11
115.197513
 21
13.482071
 31
0.0
  0
LINE
  5
170
100
AcDbEntity
  8
0
  6
CONTINUOUS
 62
     3
100
AcDbLine
 10
115.197513
 20
13.482071
 30
0.0
 11
114.895221
 21
13.898285
 31
0.0
  0
LINE
  5
171
100
AcDbEntity
  8
0
  6
CONTINUOUS
 62
     3
100
AcDbLine
 10
114.895221
 20
13.898285
 30
0.0
 11
114.895221
 21
11.5
 31
0.0
  0
LINE
  5
172
100
AcDbEntity
  8
0
  6
CONTINUOUS
 62
     3
100
AcDbLine
 10
114.895221
 20
11.5
 30
0.0
 11
113.987964
 21
11.5
 31
0.0
  0
LINE
  5
173
100
AcDbEntity
  8
0
  6
CONTINUOUS
 62
     3
100
AcDbLine
 10
113.987964
 20
11.5
 30
0.0
 11
113.987964
 21
14.9272
 31
0.0
  0
LINE
  5
174
100
AcDbEntity
  8
0
  6
CONTINUOUS
 62
     3
100
AcDbLine
 10
113.948383
 20
14.9272
 30
0.0
 11
113.588062
 21
11.5
 31
0.0
  0
LINE
  5
175
100
AcDbEntity
  8
0
  6
CONTINUOUS
 62
     3
100
AcDbLine
 10
113.588062
 20
11.5
 30
0.0
 11
112.979999
 21
11.5
 31
0.0
  0
LINE
  5
176
100
AcDbEntity
  8
0
  6
CONTINUOUS
 62
     3
100
AcDbLine
 10
112.979999
 20
11.5
 30
0.0
 11
113.34032
 21
14.9272
 31
0.0
  0
LINE
  5
177
100
AcDbEntity
  8
0
  6
CONTINUOUS
 62
     3
100
AcDbLine
 10
113.34032
 20
14.9272
 30
0.0
 11
112.979999
 21
14.9272
 31
0.0
  0
LINE
  5
178
100
AcDbEntity
  8
0
  6
CONTINUOUS
 62
     3
100
AcDbLine
 10
119.229556
 20
14.322403
 30
0.0
 11
119.229556
 21
13.717606
 31
0.0
  0
LINE
  5
179
100
AcDbEntity
  8
0
  6
CONTINUOUS
 62
     3
100
AcDbLine
 10
119.229556
 20
14.322403
 30
0.0
 11
122.253635
 21
14.322403
 31
0.0
  0
LINE
  5
17A
100
AcDbEntity
  8
0
  6
CONTINUOUS
 62
     3
100
AcDbLine
 10
122.253635
 20
14.322403
 30
0.0
 11
122.253635
 21
13.717606
 31
0.0
  0
LINE
  5
17B
100
AcDbEntity
  8
0
  6
CONTINUOUS
 62
     3
100
AcDbLine
 10
122.253635
 20
13.717606
 30
0.0
 11
121.295917
 21
13.717606
 31
0.0
  0
LINE
  5
17C
100
AcDbEntity
  8
0
  6
CONTINUOUS
 62
     3
100
AcDbLine
 10
121.295917
 20
13.717606
 30
0.0
 11
121.295917
 21
12.877411
 31
0.0
  0
LINE
  5
17D
100
AcDbEntity
  8
0
  6
CONTINUOUS
 62
     3
100
AcDbLine
 10
121.295917
 20
12.877411
 30
0.0
 11
122.30408
 21
13.09166
 31
0.0
  0
LINE
  5
17E
100
AcDbEntity
  8
0
  6
CONTINUOUS
 62
     3
100
AcDbLine
 10
122.30408
 20
13.09166
 30
0.0
 11
122.30408
 21
12.1642
 31
0.0
  0
LINE
  5
17F
100
AcDbEntity
  8
0
  6
CONTINUOUS
 62
     3
100
AcDbLine
 10
122.30408
 20
12.1642
 30
0.0
 11
119.179095
 21
11.5
 31
0.0
  0
LINE
  5
180
100
AcDbEntity
  8
0
  6
CONTINUOUS
 62
     3
100
AcDbLine
 10
119.179095
 20
11.5
 30
0.0
 11
119.179095
 21
12.42746
 31
0.0
  0
LINE
  5
181
100
AcDbEntity
  8
0
  6
CONTINUOUS
 62
     3
100
AcDbLine
 10
119.179095
 20
12.42746
 30
0.0
 11
120.187259
 21
12.641724
 31
0.0
  0
LINE
  5
182
100
AcDbEntity
  8
0
  6
CONTINUOUS
 62
     3
100
AcDbLine
 10
120.187259
 20
12.641724
 30
0.0
 11
120.187259
 21
13.717606
 31
0.0
  0
LINE
  5
183
100
AcDbEntity
  8
0
  6
CONTINUOUS
 62
     3
100
AcDbLine
 10
120.187259
 20
13.717606
 30
0.0
 11
119.229556
 21
13.717606
 31
0.0
  0
LINE
  5
184
100
AcDbEntity
  8
0
  6
CONTINUOUS
 62
     3
100
AcDbLine
 10
118.927264
 20
15.531998
 30
0.0
 11
118.927264
 21
14.9272
 31
0.0
  0
LINE
  5
185
100
AcDbEntity
  8
0
  6
CONTINUOUS
 62
     3
100
AcDbLine
 10
118.927264
 20
15.531998
 30
0.0
 11
121.924487
 21
15.531998
 31
0.0
  0
LINE
  5
186
100
AcDbEntity
  8
0
  6
CONTINUOUS
 62
     3
100
AcDbLine
 10
121.924487
 20
15.531998
 30
0.0
 11
121.77785
 21
15.935196
 31
0.0
  0
LINE
  5
187
100
AcDbEntity
  8
0
  6
CONTINUOUS
 62
     3
100
AcDbLine
 10
121.77785
 20
15.935196
 30
0.0
 11
122.95766
 21
15.935196
 31
0.0
  0
LINE
  5
188
100
AcDbEntity
  8
0
  6
CONTINUOUS
 62
     3
100
AcDbLine
 10
122.95766
 20
15.935196
 30
0.0
 11
123.104495
 21
15.531998
 31
0.0
  0
LINE
  5
189
100
AcDbEntity
  8
0
  6
CONTINUOUS
 62
     3
100
AcDbLine
 10
123.104495
 20
15.531998
 30
0.0
 11
123.362491
 21
15.531998
 31
0.0
  0
LINE
  5
18A
100
AcDbEntity
  8
0
  6
CONTINUOUS
 62
     3
100
AcDbLine
 10
123.362491
 20
15.531998
 30
0.0
 11
123.362491
 21
15.935196
 31
0.0
  0
LINE
  5
18B
100
AcDbEntity
  8
0
  6
CONTINUOUS
 62
     3
100
AcDbLine
 10
123.362491
 20
15.935196
 30
0.0
 11
124.26955
 21
15.935196
 31
0.0
  0
LINE
  5
18C
100
AcDbEntity
  8
0
  6
CONTINUOUS
 62
     3
100
AcDbLine
 10
124.26955
 20
15.935196
 30
0.0
 11
124.26955
 21
15.531998
 31
0.0
  0
LINE
  5
18D
100
AcDbEntity
  8
0
  6
CONTINUOUS
 62
     3
100
AcDbLine
 10
124.26955
 20
15.531998
 30
0.0
 11
124.57204
 21
15.531998
 31
0.0
  0
LINE
  5
18E
100
AcDbEntity
  8
0
  6
CONTINUOUS
 62
     3
100
AcDbLine
 10
124.57204
 20
15.531998
 30
0.0
 11
124.57204
 21
14.9272
 31
0.0
  0
LINE
  5
18F
100
AcDbEntity
  8
0
  6
CONTINUOUS
 62
     3
100
AcDbLine
 10
124.57204
 20
14.9272
 30
0.0
 11
123.324542
 21
14.9272
 31
0.0
  0
LINE
  5
190
100
AcDbEntity
  8
0
  6
CONTINUOUS
 62
     3
100
AcDbLine
 10
123.324542
 20
14.9272
 30
0.0
 11
124.57204
 21
11.5
 31
0.0
  0
LINE
  5
191
100
AcDbEntity
  8
0
  6
CONTINUOUS
 62
     3
100
AcDbLine
 10
124.57204
 20
11.5
 30
0.0
 11
123.392017
 21
11.5
 31
0.0
  0
LINE
  5
192
100
AcDbEntity
  8
0
  6
CONTINUOUS
 62
     3
100
AcDbLine
 10
123.392017
 20
11.5
 30
0.0
 11
122.144733
 21
14.9272
 31
0.0
  0
LINE
  5
193
100
AcDbEntity
  8
0
  6
CONTINUOUS
 62
     3
100
AcDbLine
 10
122.144733
 20
14.9272
 30
0.0
 11
118.927264
 21
14.9272
 31
0.0
  0
LINE
  5
194
100
AcDbEntity
  8
0
  6
CONTINUOUS
 62
     3
100
AcDbLine
 10
124.773639
 20
15.074783
 30
0.0
 11
124.773639
 21
14.436996
 31
0.0
  0
LINE
  5
195
100
AcDbEntity
  8
0
  6
CONTINUOUS
 62
     3
100
AcDbLine
 10
124.773639
 20
15.074783
 30
0.0
 11
127.646365
 21
16.035995
 31
0.0
  0
LINE
  5
196
100
AcDbEntity
  8
0
  6
CONTINUOUS
 62
     3
100
AcDbLine
 10
127.646365
 20
16.035995
 30
0.0
 11
130.519107
 21
15.074753
 31
0.0
  0
LINE
  5
197
100
AcDbEntity
  8
0
  6
CONTINUOUS
 62
     3
100
AcDbLine
 10
130.519107
 20
15.074753
 30
0.0
 11
130.519107
 21
14.436996
 31
0.0
  0
LINE
  5
198
100
AcDbEntity
  8
0
  6
CONTINUOUS
 62
     3
100
AcDbLine
 10
130.519107
 20
14.436996
 30
0.0
 11
129.662494
 21
14.723679
 31
0.0
  0
LINE
  5
199
100
AcDbEntity
  8
0
  6
CONTINUOUS
 62
     3
100
AcDbLine
 10
129.662494
 20
14.723679
 30
0.0
 11
129.662494
 21
14.221603
 31
0.0
  0
LINE
  5
19A
100
AcDbEntity
  8
0
  6
CONTINUOUS
 62
     3
100
AcDbLine
 10
129.662494
 20
14.221603
 30
0.0
 11
125.63045
 21
14.221603
 31
0.0
  0
LINE
  5
19B
100
AcDbEntity
  8
0
  6
CONTINUOUS
 62
     3
100
AcDbLine
 10
125.63045
 20
14.221603
 30
0.0
 11
125.63045
 21
14.723679
 31
0.0
  0
LINE
  5
19C
100
AcDbEntity
  8
0
  6
CONTINUOUS
 62
     3
100
AcDbLine
 10
125.63045
 20
14.723679
 30
0.0
 11
124.773639
 21
14.436996
 31
0.0
  0
LINE
  5
19D
100
AcDbEntity
  8
0
  6
CONTINUOUS
 62
     3
100
AcDbLine
 10
125.937457
 20
14.826401
 30
0.0
 11
127.646365
 21
15.398224
 31
0.0
  0
LINE
  5
19E
100
AcDbEntity
  8
0
  6
CONTINUOUS
 62
     3
100
AcDbLine
 10
127.646365
 20
15.398224
 30
0.0
 11
129.355487
 21
14.826401
 31
0.0
  0
LINE
  5
19F
100
AcDbEntity
  8
0
  6
CONTINUOUS
 62
     3
100
AcDbLine
 10
129.355487
 20
14.826401
 30
0.0
 11
125.937457
 21
14.826401
 31
0.0
  0
LINE
  5
1A0
100
AcDbEntity
  8
0
  6
CONTINUOUS
 62
     3
100
AcDbLine
 10
124.773639
 20
13.81839
 30
0.0
 11
124.773639
 21
13.213593
 31
0.0
  0
LINE
  5
1A1
100
AcDbEntity
  8
0
  6
CONTINUOUS
 62
     3
100
AcDbLine
 10
124.773639
 20
13.81839
 30
0.0
 11
130.519107
 21
13.81839
 31
0.0
  0
LINE
  5
1A2
100
AcDbEntity
  8
0
  6
CONTINUOUS
 62
     3
100
AcDbLine
 10
130.519107
 20
13.81839
 30
0.0
 11
130.519107
 21
13.213593
 31
0.0
  0
LINE
  5
1A3
100
AcDbEntity
  8
0
  6
CONTINUOUS
 62
     3
100
AcDbLine
 10
130.519107
 20
13.213593
 30
0.0
 11
129.720111
 21
13.213593
 31
0.0
  0
LINE
  5
1A4
100
AcDbEntity
  8
0
  6
CONTINUOUS
 62
     3
100
AcDbLine
 10
129.720111
 20
13.213593
 30
0.0
 11
130.519107
 21
11.5
 31
0.0
  0
LINE
  5
1A5
100
AcDbEntity
  8
0
  6
CONTINUOUS
 62
     3
100
AcDbLine
 10
130.519107
 20
11.5
 30
0.0
 11
124.773639
 21
11.5
 31
0.0
  0
LINE
  5
1A6
100
AcDbEntity
  8
0
  6
CONTINUOUS
 62
     3
100
AcDbLine
 10
124.773639
 20
11.5
 30
0.0
 11
125.57262
 21
13.213593
 31
0.0
  0
LINE
  5
1A7
100
AcDbEntity
  8
0
  6
CONTINUOUS
 62
     3
100
AcDbLine
 10
125.57262
 20
13.213593
 30
0.0
 11
124.773639
 21
13.213593
 31
0.0
  0
LINE
  5
1A8
100
AcDbEntity
  8
0
  6
CONTINUOUS
 62
     3
100
AcDbLine
 10
126.684756
 20
13.213593
 30
0.0
 11
128.607974
 21
13.213593
 31
0.0
  0
LINE
  5
1A9
100
AcDbEntity
  8
0
  6
CONTINUOUS
 62
     3
100
AcDbLine
 10
128.607974
 20
13.213593
 30
0.0
 11
129.124973
 21
12.104797
 31
0.0
  0
LINE
  5
1AA
100
AcDbEntity
  8
0
  6
CONTINUOUS
 62
     3
100
AcDbLine
 10
129.124973
 20
12.104797
 30
0.0
 11
126.167758
 21
12.104797
 31
0.0
  0
LINE
  5
1AB
100
AcDbEntity
  8
0
  6
CONTINUOUS
 62
     3
100
AcDbLine
 10
126.684756
 20
13.213593
 30
0.0
 11
126.167758
 21
12.104797
 31
0.0
  0
LINE
  5
1AC
100
AcDbEntity
  8
0
  6
CONTINUOUS
 62
     3
100
AcDbLine
 10
133.442493
 20
14.826401
 30
0.0
 11
133.442493
 21
14.221603
 31
0.0
  0
LINE
  5
1AD
100
AcDbEntity
  8
0
  6
CONTINUOUS
 62
     3
100
AcDbLine
 10
133.442493
 20
14.826401
 30
0.0
 11
134.349551
 21
14.826401
 31
0.0
  0
LINE
  5
1AE
100
AcDbEntity
  8
0
  6
CONTINUOUS
 62
     3
100
AcDbLine
 10
134.349551
 20
14.826401
 30
0.0
 11
134.349551
 21
15.935196
 31
0.0
  0
LINE
  5
1AF
100
AcDbEntity
  8
0
  6
CONTINUOUS
 62
     3
100
AcDbLine
 10
134.349551
 20
15.935196
 30
0.0
 11
135.357501
 21
15.935196
 31
0.0
  0
LINE
  5
1B0
100
AcDbEntity
  8
0
  6
CONTINUOUS
 62
     3
100
AcDbLine
 10
135.357501
 20
15.935196
 30
0.0
 11
135.357501
 21
14.826401
 31
0.0
  0
LINE
  5
1B1
100
AcDbEntity
  8
0
  6
CONTINUOUS
 62
     3
100
AcDbLine
 10
135.357501
 20
14.826401
 30
0.0
 11
136.264774
 21
14.826401
 31
0.0
  0
LINE
  5
1B2
100
AcDbEntity
  8
0
  6
CONTINUOUS
 62
     3
100
AcDbLine
 10
136.264774
 20
14.826401
 30
0.0
 11
136.264774
 21
14.221603
 31
0.0
  0
LINE
  5
1B3
100
AcDbEntity
  8
0
  6
CONTINUOUS
 62
     3
100
AcDbLine
 10
136.264774
 20
14.221603
 30
0.0
 11
135.357501
 21
14.221603
 31
0.0
  0
LINE
  5
1B4
100
AcDbEntity
  8
0
  6
CONTINUOUS
 62
     3
100
AcDbLine
 10
135.357501
 20
14.221603
 30
0.0
 11
135.357501
 21
12.104797
 31
0.0
  0
LINE
  5
1B5
100
AcDbEntity
  8
0
  6
CONTINUOUS
 62
     3
100
AcDbLine
 10
135.357501
 20
12.104797
 30
0.0
 11
136.365665
 21
12.104797
 31
0.0
  0
LINE
  5
1B6
100
AcDbEntity
  8
0
  6
CONTINUOUS
 62
     3
100
AcDbLine
 10
136.365665
 20
12.104797
 30
0.0
 11
136.365665
 21
11.5
 31
0.0
  0
LINE
  5
1B7
100
AcDbEntity
  8
0
  6
CONTINUOUS
 62
     3
100
AcDbLine
 10
136.365665
 20
11.5
 30
0.0
 11
133.039096
 21
11.5
 31
0.0
  0
LINE
  5
1B8
100
AcDbEntity
  8
0
  6
CONTINUOUS
 62
     3
100
AcDbLine
 10
133.039096
 20
11.5
 30
0.0
 11
133.039096
 21
12.104797
 31
0.0
  0
LINE
  5
1B9
100
AcDbEntity
  8
0
  6
CONTINUOUS
 62
     3
100
AcDbLine
 10
133.039096
 20
12.104797
 30
0.0
 11
134.349551
 21
12.104797
 31
0.0
  0
LINE
  5
1BA
100
AcDbEntity
  8
0
  6
CONTINUOUS
 62
     3
100
AcDbLine
 10
134.349551
 20
12.104797
 30
0.0
 11
134.349551
 21
14.221603
 31
0.0
  0
LINE
  5
1BB
100
AcDbEntity
  8
0
  6
CONTINUOUS
 62
     3
100
AcDbLine
 10
134.349551
 20
14.221603
 30
0.0
 11
133.442493
 21
14.221603
 31
0.0
  0
LINE
  5
1BC
100
AcDbEntity
  8
0
  6
CONTINUOUS
 62
     3
100
AcDbLine
 10
130.720691
 20
15.531998
 30
0.0
 11
130.720691
 21
14.9272
 31
0.0
  0
LINE
  5
1BD
100
AcDbEntity
  8
0
  6
CONTINUOUS
 62
     3
100
AcDbLine
 10
130.720691
 20
15.531998
 30
0.0
 11
131.627963
 21
15.531998
 31
0.0
  0
LINE
  5
1BE
100
AcDbEntity
  8
0
  6
CONTINUOUS
 62
     3
100
AcDbLine
 10
131.627963
 20
15.531998
 30
0.0
 11
131.627963
 21
15.935196
 31
0.0
  0
LINE
  5
1BF
100
AcDbEntity
  8
0
  6
CONTINUOUS
 62
     3
100
AcDbLine
 10
131.627963
 20
15.935196
 30
0.0
 11
132.635913
 21
15.935196
 31
0.0
  0
LINE
  5
1C0
100
AcDbEntity
  8
0
  6
CONTINUOUS
 62
     3
100
AcDbLine
 10
132.635913
 20
15.935196
 30
0.0
 11
132.635913
 21
15.531998
 31
0.0
  0
LINE
  5
1C1
100
AcDbEntity
  8
0
  6
CONTINUOUS
 62
     3
100
AcDbLine
 10
132.635913
 20
15.531998
 30
0.0
 11
133.543185
 21
15.531998
 31
0.0
  0
LINE
  5
1C2
100
AcDbEntity
  8
0
  6
CONTINUOUS
 62
     3
100
AcDbLine
 10
133.543185
 20
15.531998
 30
0.0
 11
132.502612
 21
14.045578
 31
0.0
  0
LINE
  5
1C3
100
AcDbEntity
  8
0
  6
CONTINUOUS
 62
     3
100
AcDbLine
 10
132.502612
 20
14.045578
 30
0.0
 11
133.442493
 21
13.387589
 31
0.0
  0
LINE
  5
1C4
100
AcDbEntity
  8
0
  6
CONTINUOUS
 62
     3
100
AcDbLine
 10
133.442493
 20
13.387589
 30
0.0
 11
133.442493
 21
12.280121
 31
0.0
  0
LINE
  5
1C5
100
AcDbEntity
  8
0
  6
CONTINUOUS
 62
     3
100
AcDbLine
 10
133.442493
 20
12.280121
 30
0.0
 11
132.635913
 21
12.844772
 31
0.0
  0
LINE
  5
1C6
100
AcDbEntity
  8
0
  6
CONTINUOUS
 62
     3
100
AcDbLine
 10
132.635913
 20
12.844772
 30
0.0
 11
132.635913
 21
11.5
 31
0.0
  0
LINE
  5
1C7
100
AcDbEntity
  8
0
  6
CONTINUOUS
 62
     3
100
AcDbLine
 10
132.635913
 20
11.5
 30
0.0
 11
131.627963
 21
11.5
 31
0.0
  0
LINE
  5
1C8
100
AcDbEntity
  8
0
  6
CONTINUOUS
 62
     3
100
AcDbLine
 10
131.627963
 20
11.5
 30
0.0
 11
131.627963
 21
12.79599
 31
0.0
  0
LINE
  5
1C9
100
AcDbEntity
  8
0
  6
CONTINUOUS
 62
     3
100
AcDbLine
 10
131.627963
 20
12.79599
 30
0.0
 11
130.720691
 21
11.5
 31
0.0
  0
LINE
  5
1CA
100
AcDbEntity
  8
0
  6
CONTINUOUS
 62
     3
100
AcDbLine
 10
130.720691
 20
11.5
 30
0.0
 11
130.720691
 21
13.08194
 31
0.0
  0
LINE
  5
1CB
100
AcDbEntity
  8
0
  6
CONTINUOUS
 62
     3
100
AcDbLine
 10
130.720691
 20
13.08194
 30
0.0
 11
132.012485
 21
14.9272
 31
0.0
  0
LINE
  5
1CC
100
AcDbEntity
  8
0
  6
CONTINUOUS
 62
     3
100
AcDbLine
 10
132.012485
 20
14.9272
 30
0.0
 11
130.720691
 21
14.9272
 31
0.0
  0
ARC
  5
1CD
100
AcDbEntity
  8
0
  6
CONTINUOUS
 62
     2
100
AcDbCircle
 10
86.516101
 20
14.120041
 30
0.0
 40
0.630012
100
AcDbArc
 50
310.768311
 51
335.998779
  0
LINE
  5
1CE
100
AcDbEntity
  8
0
  6
CONTINUOUS
 62
     2
100
AcDbLine
 10
87.240024
 20
14.196411
 30
0.0
 11
87.091968
 21
13.863907
 31
0.0
  0
LINE
  5
1CF
100
AcDbEntity
  8
0
  6
CONTINUOUS
 62
     2
100
AcDbLine
 10
85.498508
 20
14.574402
 30
0.0
 11
87.821841
 21
14.574402
 31
0.0
  0
ARC
  5
1D0
100
AcDbEntity
  8
0
  6
CONTINUOUS
 62
     2
100
AcDbCircle
 10
95.829929
 20
13.314407
 30
0.0
 40
1.562401
100
AcDbArc
 50
270.000031
 51
324.00116
  0
ARC
  5
1D1
100
AcDbEntity
  8
0
  6
CONTINUOUS
 62
     2
100
AcDbCircle
 10
95.829929
 20
13.314407
 30
0.0
 40
1.310401
100
AcDbArc
 50
270.000031
 51
324.00116
  0
ARC
  5
1D2
100
AcDbEntity
  8
0
  6
CONTINUOUS
 62
     2
100
AcDbCircle
 10
80.556567
 20
13.314407
 30
0.0
 40
1.562398
100
AcDbArc
 50
270.000031
 51
333.99855
  0
ARC
  5
1D3
100
AcDbEntity
  8
0
  6
CONTINUOUS
 62
     2
100
AcDbCircle
 10
80.47655
 20
13.314407
 30
0.0
 40
1.058399
100
AcDbArc
 50
270.000031
 51
333.99855
  0
ARC
  5
1D4
100
AcDbEntity
  8
0
  6
CONTINUOUS
 62
     2
100
AcDbCircle
 10
80.516559
 20
13.314407
 30
0.0
 40
1.310399
100
AcDbArc
 50
270.000031
 51
333.99855
  0
LINE
  5
1D5
100
AcDbEntity
  8
0
  6
CONTINUOUS
 62
     2
100
AcDbLine
 10
77.884082
 20
15.703213
 30
0.0
 11
80.338397
 21
15.703213
 31
0.0
  0
LINE
  5
1D6
100
AcDbEntity
  8
0
  6
CONTINUOUS
 62
     2
100
AcDbLine
 10
77.884082
 20
15.471214
 30
0.0
 11
80.338397
 21
15.471214
 31
0.0
  0
LINE
  5
1D7
100
AcDbEntity
  8
0
  6
CONTINUOUS
 62
     2
100
AcDbLine
 10
77.884082
 20
15.239231
 30
0.0
 11
80.338397
 21
15.239231
 31
0.0
  0
LINE
  5
1D8
100
AcDbEntity
  8
0
  6
CONTINUOUS
 62
     2
100
AcDbLine
 10
77.884082
 20
14.513603
 30
0.0
 11
80.338397
 21
14.513603
 31
0.0
  0
LINE
  5
1D9
100
AcDbEntity
  8
0
  6
CONTINUOUS
 62
     2
100
AcDbLine
 10
77.884082
 20
14.261589
 30
0.0
 11
80.338397
 21
14.261589
 31
0.0
  0
LINE
  5
1DA
100
AcDbEntity
  8
0
  6
CONTINUOUS
 62
     2
100
AcDbLine
 10
77.884082
 20
14.029606
 30
0.0
 11
80.338397
 21
14.029606
 31
0.0
  0
LINE
  5
1DB
100
AcDbEntity
  8
0
  6
CONTINUOUS
 62
     2
100
AcDbLine
 10
77.884082
 20
12.255997
 30
0.0
 11
80.47655
 21
12.255997
 31
0.0
  0
LINE
  5
1DC
100
AcDbEntity
  8
0
  6
CONTINUOUS
 62
     2
100
AcDbLine
 10
77.884082
 20
12.003998
 30
0.0
 11
80.47655
 21
12.003998
 31
0.0
  0
LINE
  5
1DD
100
AcDbEntity
  8
0
  6
CONTINUOUS
 62
     2
100
AcDbLine
 10
77.884082
 20
11.751999
 30
0.0
 11
80.47655
 21
11.751999
 31
0.0
  0
LINE
  5
1DE
100
AcDbEntity
  8
0
  6
CONTINUOUS
 62
     2
100
AcDbLine
 10
81.427707
 20
12.850403
 30
0.0
 11
82.310825
 21
14.661036
 31
0.0
  0
LINE
  5
1DF
100
AcDbEntity
  8
0
  6
CONTINUOUS
 62
     2
100
AcDbLine
 10
81.694125
 20
12.73996
 30
0.0
 11
82.631168
 21
14.661037
 31
0.0
  0
LINE
  5
1E0
100
AcDbEntity
  8
0
  6
CONTINUOUS
 62
     2
100
AcDbLine
 10
81.960529
 20
12.629425
 30
0.0
 11
82.951312
 21
14.661035
 31
0.0
  0
LINE
  5
1E1
100
AcDbEntity
  8
0
  6
CONTINUOUS
 62
     2
100
AcDbLine
 10
81.613635
 20
15.669598
 30
0.0
 11
82.051837
 21
15.669598
 31
0.0
  0
LINE
  5
1E2
100
AcDbEntity
  8
0
  6
CONTINUOUS
 62
     2
100
AcDbLine
 10
81.613635
 20
15.383999
 30
0.0
 11
82.051837
 21
15.383999
 31
0.0
  0
LINE
  5
1E3
100
AcDbEntity
  8
0
  6
CONTINUOUS
 62
     2
100
AcDbLine
 10
82.722491
 20
15.669598
 30
0.0
 11
83.160693
 21
15.669598
 31
0.0
  0
LINE
  5
1E4
100
AcDbEntity
  8
0
  6
CONTINUOUS
 62
     2
100
AcDbLine
 10
82.722491
 20
15.383999
 30
0.0
 11
83.160693
 21
15.383999
 31
0.0
  0
LINE
  5
1E5
100
AcDbEntity
  8
0
  6
CONTINUOUS
 62
     2
100
AcDbLine
 10
83.831348
 20
14.322418
 30
0.0
 11
85.028064
 21
14.322418
 31
0.0
  0
LINE
  5
1E6
100
AcDbEntity
  8
0
  6
CONTINUOUS
 62
     2
100
AcDbLine
 10
84.737537
 20
15.350268
 30
0.0
 11
84.860507
 21
14.574402
 31
0.0
  0
LINE
  5
1E7
100
AcDbEntity
  8
0
  6
CONTINUOUS
 62
     2
100
AcDbLine
 10
85.318805
 20
11.68173
 30
0.0
 11
84.944904
 21
14.041904
 31
0.0
  0
ARC
  5
1E8
100
AcDbEntity
  8
0
  6
CONTINUOUS
 62
     2
100
AcDbCircle
 10
86.496097
 20
14.120041
 30
0.0
 40
0.882012
100
AcDbArc
 50
272.671387
 51
335.998779
  0
ARC
  5
1E9
100
AcDbEntity
  8
0
  6
CONTINUOUS
 62
     2
100
AcDbCircle
 10
86.476093
 20
14.120041
 30
0.0
 40
1.134011
100
AcDbArc
 50
267.367432
 51
335.998779
  0
LINE
  5
1EA
100
AcDbEntity
  8
0
  6
CONTINUOUS
 62
     2
100
AcDbLine
 10
87.935168
 20
14.609053
 30
0.0
 11
87.512149
 21
13.658859
 31
0.0
  0
LINE
  5
1EB
100
AcDbEntity
  8
0
  6
CONTINUOUS
 62
     2
100
AcDbLine
 10
85.909061
 20
11.68173
 30
0.0
 11
85.522037
 21
14.124882
 31
0.0
  0
LINE
  5
1EC
100
AcDbEntity
  8
0
  6
CONTINUOUS
 62
     2
100
AcDbLine
 10
85.633929
 20
11.68173
 30
0.0
 11
85.052844
 21
15.350267
 31
0.0
  0
LINE
  5
1ED
100
AcDbEntity
  8
0
  6
CONTINUOUS
 62
     2
100
AcDbLine
 10
85.327975
 20
15.350267
 30
0.0
 11
85.439563
 21
14.645947
 31
0.0
  0
LINE
  5
1EE
100
AcDbEntity
  8
0
  6
CONTINUOUS
 62
     2
100
AcDbLine
 10
83.831348
 20
14.574402
 30
0.0
 11
84.66051
 21
14.574402
 31
0.0
  0
LINE
  5
1EF
100
AcDbEntity
  8
0
  6
CONTINUOUS
 62
     2
100
AcDbLine
 10
87.566989
 20
14.357039
 30
0.0
 11
87.302051
 21
13.761353
 31
0.0
  0
LINE
  5
1F0
100
AcDbEntity
  8
0
  6
CONTINUOUS
 62
     2
100
AcDbLine
 10
85.410739
 20
14.322418
 30
0.0
 11
87.33382
 21
14.322418
 31
0.0
  0
ARC
  5
1F1
100
AcDbEntity
  8
0
  6
CONTINUOUS
 62
     2
100
AcDbCircle
 10
86.456088
 20
14.120041
 30
0.0
 40
1.386011
100
AcDbArc
 50
269.611328
 51
335.998779
  0
LINE
  5
1F2
100
AcDbEntity
  8
0
  6
CONTINUOUS
 62
     2
100
AcDbLine
 10
88.190982
 20
14.609056
 30
0.0
 11
87.722247
 21
13.556335
 31
0.0
  0
LINE
  5
1F3
100
AcDbEntity
  8
0
  6
CONTINUOUS
 62
     2
100
AcDbLine
 10
98.931262
 20
15.431213
 30
0.0
 11
96.888065
 21
12.618271
 31
0.0
  0
LINE
  5
1F4
100
AcDbEntity
  8
0
  6
CONTINUOUS
 62
     2
100
AcDbLine
 10
98.386813
 20
15.17923
 30
0.0
 11
96.634204
 21
12.766403
 31
0.0
  0
ARC
  5
1F5
100
AcDbEntity
  8
0
  6
CONTINUOUS
 62
     2
100
AcDbCircle
 10
95.899936
 20
13.274406
 30
0.0
 40
0.932402
100
AcDbArc
 50
270.000031
 51
324.00116
  0
LINE
  5
1F6
100
AcDbEntity
  8
0
  6
CONTINUOUS
 62
     2
100
AcDbLine
 10
88.987949
 20
15.701559
 30
0.0
 11
93.426364
 21
15.701559
 31
0.0
  0
LINE
  5
1F7
100
AcDbEntity
  8
0
  6
CONTINUOUS
 62
     2
100
AcDbLine
 10
88.987949
 20
15.439575
 30
0.0
 11
93.426364
 21
15.439575
 31
0.0
  0
LINE
  5
1F8
100
AcDbEntity
  8
0
  6
CONTINUOUS
 62
     2
100
AcDbLine
 10
88.987949
 20
15.167591
 30
0.0
 11
93.426364
 21
15.167591
 31
0.0
  0
LINE
  5
1F9
100
AcDbEntity
  8
0
  6
CONTINUOUS
 62
     2
100
AcDbLine
 10
88.584766
 20
12.264404
 30
0.0
 11
93.829547
 21
12.264404
 31
0.0
  0
LINE
  5
1FA
100
AcDbEntity
  8
0
  6
CONTINUOUS
 62
     2
100
AcDbLine
 10
88.584766
 20
12.012405
 30
0.0
 11
93.829547
 21
12.012405
 31
0.0
  0
LINE
  5
1FB
100
AcDbEntity
  8
0
  6
CONTINUOUS
 62
     2
100
AcDbLine
 10
88.584766
 20
11.740391
 30
0.0
 11
93.829547
 21
11.740391
 31
0.0
  0
LINE
  5
1FC
100
AcDbEntity
  8
0
  6
CONTINUOUS
 62
     2
100
AcDbLine
 10
94.935214
 20
15.693213
 30
0.0
 11
99.225681
 21
15.693213
 31
0.0
  0
LINE
  5
1FD
100
AcDbEntity
  8
0
  6
CONTINUOUS
 62
     2
100
AcDbLine
 10
99.48569
 20
15.683212
 30
0.0
 11
97.151904
 21
12.470062
 31
0.0
  0
LINE
  5
1FE
100
AcDbEntity
  8
0
  6
CONTINUOUS
 62
     2
100
AcDbLine
 10
94.935214
 20
15.431213
 30
0.0
 11
98.73125
 21
15.431213
 31
0.0
  0
LINE
  5
1FF
100
AcDbEntity
  8
0
  6
CONTINUOUS
 62
     2
100
AcDbLine
 10
95.829929
 20
12.265997
 30
0.0
 11
94.532031
 21
12.265997
 31
0.0
  0
LINE
  5
200
100
AcDbEntity
  8
0
  6
CONTINUOUS
 62
     2
100
AcDbLine
 10
95.829929
 20
12.003998
 30
0.0
 11
94.532031
 21
12.003998
 31
0.0
  0
LINE
  5
201
100
AcDbEntity
  8
0
  6
CONTINUOUS
 62
     2
100
AcDbLine
 10
95.829929
 20
11.741999
 30
0.0
 11
94.532031
 21
11.741999
 31
0.0
  0
LINE
  5
202
100
AcDbEntity
  8
0
  6
CONTINUOUS
 62
     2
100
AcDbLine
 10
97.843188
 20
13.073715
 30
0.0
 11
99.037158
 21
11.7
 31
0.0
  0
LINE
  5
203
100
AcDbEntity
  8
0
  6
CONTINUOUS
 62
     2
100
AcDbLine
 10
97.995349
 20
13.253051
 30
0.0
 11
99.345172
 21
11.7
 31
0.0
  0
LINE
  5
204
100
AcDbEntity
  8
0
  6
CONTINUOUS
 62
     2
100
AcDbLine
 10
98.147311
 20
13.432295
 30
0.0
 11
99.652942
 21
11.7
 31
0.0
  0
LINE
  5
205
100
AcDbEntity
  8
0
  6
CONTINUOUS
 62
     2
100
AcDbLine
 10
98.299274
 20
13.611585
 30
0.0
 11
99.960925
 21
11.7
 31
0.0
  0
LINE
  5
206
100
AcDbEntity
  8
0
  6
CONTINUOUS
 62
     2
100
AcDbLine
 10
94.935214
 20
15.159229
 30
0.0
 11
98.136798
 21
15.159229
 31
0.0
  0
LINE
  5
207
100
AcDbEntity
  8
0
  6
CONTINUOUS
 62
     2
100
AcDbLine
 10
101.789554
 20
15.703213
 30
0.0
 11
106.631137
 21
15.703213
 31
0.0
  0
LINE
  5
208
100
AcDbEntity
  8
0
  6
CONTINUOUS
 62
     2
100
AcDbLine
 10
101.789554
 20
15.451214
 30
0.0
 11
106.631137
 21
15.451214
 31
0.0
  0
LINE
  5
209
100
AcDbEntity
  8
0
  6
CONTINUOUS
 62
     2
100
AcDbLine
 10
103.86774
 20
12.247992
 30
0.0
 11
103.86774
 21
15.221222
 31
0.0
  0
LINE
  5
20A
100
AcDbEntity
  8
0
  6
CONTINUOUS
 62
     2
100
AcDbLine
 10
104.119586
 20
12.247992
 30
0.0
 11
104.119586
 21
15.221222
 31
0.0
  0
LINE
  5
20B
100
AcDbEntity
  8
0
  6
CONTINUOUS
 62
     2
100
AcDbLine
 10
104.371417
 20
12.247992
 30
0.0
 11
104.371417
 21
15.221222
 31
0.0
  0
LINE
  5
20C
100
AcDbEntity
  8
0
  6
CONTINUOUS
 62
     2
100
AcDbLine
 10
104.603244
 20
12.247992
 30
0.0
 11
104.603244
 21
15.221222
 31
0.0
  0
LINE
  5
20D
100
AcDbEntity
  8
0
  6
CONTINUOUS
 62
     2
100
AcDbLine
 10
101.587955
 20
12.047992
 30
0.0
 11
106.832736
 21
12.047992
 31
0.0
  0
LINE
  5
20E
100
AcDbEntity
  8
0
  6
CONTINUOUS
 62
     2
100
AcDbLine
 10
101.587955
 20
11.745993
 30
0.0
 11
106.832736
 21
11.745993
 31
0.0
  0
LINE
  5
20F
100
AcDbEntity
  8
0
  6
CONTINUOUS
 62
     2
100
AcDbLine
 10
108.012759
 20
15.735196
 30
0.0
 11
108.387088
 21
15.25615
 31
0.0
  0
LINE
  5
210
100
AcDbEntity
  8
0
  6
CONTINUOUS
 62
     2
100
AcDbLine
 10
108.332477
 20
15.735196
 30
0.0
 11
108.706805
 21
15.25615
 31
0.0
  0
LINE
  5
211
100
AcDbEntity
  8
0
  6
CONTINUOUS
 62
     2
100
AcDbLine
 10
109.331134
 20
15.735196
 30
0.0
 11
109.331134
 21
15.298556
 31
0.0
  0
LINE
  5
212
100
AcDbEntity
  8
0
  6
CONTINUOUS
 62
     2
100
AcDbLine
 10
109.602985
 20
15.735196
 30
0.0
 11
109.602985
 21
15.298556
 31
0.0
  0
LINE
  5
213
100
AcDbEntity
  8
0
  6
CONTINUOUS
 62
     2
100
AcDbLine
 10
110.339099
 20
15.735196
 30
0.0
 11
110.339099
 21
15.298556
 31
0.0
  0
LINE
  5
214
100
AcDbEntity
  8
0
  6
CONTINUOUS
 62
     2
100
AcDbLine
 10
110.630939
 20
15.735196
 30
0.0
 11
110.630939
 21
15.298556
 31
0.0
  0
LINE
  5
215
100
AcDbEntity
  8
0
  6
CONTINUOUS
 62
     2
100
AcDbLine
 10
111.599567
 20
15.735196
 30
0.0
 11
111.225238
 21
15.25615
 31
0.0
  0
LINE
  5
216
100
AcDbEntity
  8
0
  6
CONTINUOUS
 62
     2
100
AcDbLine
 10
111.939288
 20
15.735196
 30
0.0
 11
111.56496
 21
15.25615
 31
0.0
  0
LINE
  5
217
100
AcDbEntity
  8
0
  6
CONTINUOUS
 62
     2
100
AcDbLine
 10
107.333621
 20
15.098557
 30
0.0
 11
112.578403
 21
15.098557
 31
0.0
  0
LINE
  5
218
100
AcDbEntity
  8
0
  6
CONTINUOUS
 62
     2
100
AcDbLine
 10
108.643176
 20
14.318829
 30
0.0
 11
108.427783
 21
14.910618
 31
0.0
  0
LINE
  5
219
100
AcDbEntity
  8
0
  6
CONTINUOUS
 62
     2
100
AcDbLine
 10
108.951221
 20
14.318829
 30
0.0
 11
108.735828
 21
14.910618
 31
0.0
  0
LINE
  5
21A
100
AcDbEntity
  8
0
  6
CONTINUOUS
 62
     2
100
AcDbLine
 10
109.239261
 20
14.318851
 30
0.0
 11
109.024112
 21
14.910595
 31
0.0
  0
LINE
  5
21B
100
AcDbEntity
  8
0
  6
CONTINUOUS
 62
     2
100
AcDbLine
 10
110.691943
 20
14.318807
 30
0.0
 11
110.907565
 21
14.91064
 31
0.0
  0
LINE
  5
21C
100
AcDbEntity
  8
0
  6
CONTINUOUS
 62
     2
100
AcDbLine
 10
111.000201
 20
14.318807
 30
0.0
 11
111.215823
 21
14.91064
 31
0.0
  0
LINE
  5
21D
100
AcDbEntity
  8
0
  6
CONTINUOUS
 62
     2
100
AcDbLine
 10
111.288242
 20
14.318807
 30
0.0
 11
111.503864
 21
14.91064
 31
0.0
  0
LINE
  5
21E
100
AcDbEntity
  8
0
  6
CONTINUOUS
 62
     2
100
AcDbLine
 10
107.333621
 20
14.13089
 30
0.0
 11
112.578403
 21
14.13089
 31
0.0
  0
LINE
  5
21F
100
AcDbEntity
  8
0
  6
CONTINUOUS
 62
     2
100
AcDbLine
 10
107.333621
 20
13.435364
 30
0.0
 11
109.483875
 21
13.435364
 31
0.0
  0
LINE
  5
220
100
AcDbEntity
  8
0
  6
CONTINUOUS
 62
     2
100
AcDbLine
 10
107.333621
 20
12.739838
 30
0.0
 11
109.483875
 21
12.739838
 31
0.0
  0
LINE
  5
221
100
AcDbEntity
  8
0
  6
CONTINUOUS
 62
     2
100
AcDbLine
 10
110.447559
 20
12.739838
 30
0.0
 11
112.578403
 21
12.739838
 31
0.0
  0
LINE
  5
222
100
AcDbEntity
  8
0
  6
CONTINUOUS
 62
     2
100
AcDbLine
 10
107.650882
 20
11.7
 30
0.0
 11
108.653323
 21
12.605754
 31
0.0
  0
LINE
  5
223
100
AcDbEntity
  8
0
  6
CONTINUOUS
 62
     2
100
AcDbLine
 10
107.986774
 20
11.7
 30
0.0
 11
108.989246
 21
12.605756
 31
0.0
  0
LINE
  5
224
100
AcDbEntity
  8
0
  6
CONTINUOUS
 62
     2
100
AcDbLine
 10
108.302875
 20
11.7
 30
0.0
 11
109.305347
 21
12.605756
 31
0.0
  0
LINE
  5
225
100
AcDbEntity
  8
0
  6
CONTINUOUS
 62
     2
100
AcDbLine
 10
109.683871
 20
11.7
 30
0.0
 11
109.683871
 21
13.93089
 31
0.0
  0
LINE
  5
226
100
AcDbEntity
  8
0
  6
CONTINUOUS
 62
     2
100
AcDbLine
 10
109.975711
 20
11.7
 30
0.0
 11
109.975711
 21
13.93089
 31
0.0
  0
LINE
  5
227
100
AcDbEntity
  8
0
  6
CONTINUOUS
 62
     2
100
AcDbLine
 10
110.247562
 20
11.7
 30
0.0
 11
110.247562
 21
13.93089
 31
0.0
  0
LINE
  5
228
100
AcDbEntity
  8
0
  6
CONTINUOUS
 62
     2
100
AcDbLine
 10
111.617175
 20
11.7
 30
0.0
 11
110.614734
 21
12.605754
 31
0.0
  0
LINE
  5
229
100
AcDbEntity
  8
0
  6
CONTINUOUS
 62
     2
100
AcDbLine
 10
111.953082
 20
11.7
 30
0.0
 11
110.95061
 21
12.605756
 31
0.0
  0
LINE
  5
22A
100
AcDbEntity
  8
0
  6
CONTINUOUS
 62
     2
100
AcDbLine
 10
112.289188
 20
11.7
 30
0.0
 11
111.286716
 21
12.605756
 31
0.0
  0
LINE
  5
22B
100
AcDbEntity
  8
0
  6
CONTINUOUS
 62
     2
100
AcDbLine
 10
114.199786
 20
15.735196
 30
0.0
 11
114.199786
 21
15.379199
 31
0.0
  0
LINE
  5
22C
100
AcDbEntity
  8
0
  6
CONTINUOUS
 62
     2
100
AcDbLine
 10
114.451617
 20
15.735196
 30
0.0
 11
114.451617
 21
15.379199
 31
0.0
  0
LINE
  5
22D
100
AcDbEntity
  8
0
  6
CONTINUOUS
 62
     2
100
AcDbLine
 10
114.703464
 20
15.735196
 30
0.0
 11
114.703464
 21
15.379199
 31
0.0
  0
LINE
  5
22E
100
AcDbEntity
  8
0
  6
CONTINUOUS
 62
     2
100
AcDbLine
 10
113.179996
 20
15.179199
 30
0.0
 11
114.997516
 21
15.179199
 31
0.0
  0
LINE
  5
22F
100
AcDbEntity
  8
0
  6
CONTINUOUS
 62
     2
100
AcDbLine
 10
113.194415
 20
11.698905
 30
0.0
 11
113.539203
 21
14.980294
 31
0.0
  0
LINE
  5
230
100
AcDbEntity
  8
0
  6
CONTINUOUS
 62
     2
100
AcDbLine
 10
113.427676
 20
11.698905
 30
0.0
 11
113.772479
 21
14.980294
 31
0.0
  0
LINE
  5
231
100
AcDbEntity
  8
0
  6
CONTINUOUS
 62
     2
100
AcDbLine
 10
114.199786
 20
11.7
 30
0.0
 11
114.199786
 21
14.979199
 31
0.0
  0
LINE
  5
232
100
AcDbEntity
  8
0
  6
CONTINUOUS
 62
     2
100
AcDbLine
 10
114.451617
 20
11.7
 30
0.0
 11
114.451617
 21
14.979199
 31
0.0
  0
LINE
  5
233
100
AcDbEntity
  8
0
  6
CONTINUOUS
 62
     2
100
AcDbLine
 10
114.703464
 20
11.7
 30
0.0
 11
114.703464
 21
14.979199
 31
0.0
  0
LINE
  5
234
100
AcDbEntity
  8
0
  6
CONTINUOUS
 62
     2
100
AcDbLine
 10
114.820926
 20
14.715425
 30
0.0
 11
115.080035
 21
14.358384
 31
0.0
  0
LINE
  5
235
100
AcDbEntity
  8
0
  6
CONTINUOUS
 62
     2
100
AcDbLine
 10
114.820926
 20
14.326425
 30
0.0
 11
115.080035
 21
13.969384
 31
0.0
  0
LINE
  5
236
100
AcDbEntity
  8
0
  6
CONTINUOUS
 62
     2
100
AcDbLine
 10
115.446918
 20
14.81886
 30
0.0
 11
115.676883
 21
15.741138
 31
0.0
  0
LINE
  5
237
100
AcDbEntity
  8
0
  6
CONTINUOUS
 62
     2
100
AcDbLine
 10
115.68674
 20
14.818869
 30
0.0
 11
115.916522
 21
15.741129
 31
0.0
  0
LINE
  5
238
100
AcDbEntity
  8
0
  6
CONTINUOUS
 62
     2
100
AcDbLine
 10
115.896381
 20
14.81886
 30
0.0
 11
116.126346
 21
15.741138
 31
0.0
  0
LINE
  5
239
100
AcDbEntity
  8
0
  6
CONTINUOUS
 62
     2
100
AcDbLine
 10
116.770236
 20
15.379199
 30
0.0
 11
116.770236
 21
15.735196
 31
0.0
  0
LINE
  5
23A
100
AcDbEntity
  8
0
  6
CONTINUOUS
 62
     2
100
AcDbLine
 10
117.042072
 20
15.379199
 30
0.0
 11
117.042072
 21
15.735196
 31
0.0
  0
LINE
  5
23B
100
AcDbEntity
  8
0
  6
CONTINUOUS
 62
     2
100
AcDbLine
 10
117.293918
 20
15.379199
 30
0.0
 11
117.293918
 21
15.735196
 31
0.0
  0
LINE
  5
23C
100
AcDbEntity
  8
0
  6
CONTINUOUS
 62
     2
100
AcDbLine
 10
116.186221
 20
15.179199
 30
0.0
 11
118.424777
 21
15.179199
 31
0.0
  0
LINE
  5
23D
100
AcDbEntity
  8
0
  6
CONTINUOUS
 62
     2
100
AcDbLine
 10
116.770236
 20
14.979199
 30
0.0
 11
116.770236
 21
14.371203
 31
0.0
  0
LINE
  5
23E
100
AcDbEntity
  8
0
  6
CONTINUOUS
 62
     2
100
AcDbLine
 10
117.042072
 20
14.979199
 30
0.0
 11
117.042072
 21
14.371203
 31
0.0
  0
LINE
  5
23F
100
AcDbEntity
  8
0
  6
CONTINUOUS
 62
     2
100
AcDbLine
 10
117.293918
 20
14.979199
 30
0.0
 11
117.293918
 21
14.371203
 31
0.0
  0
LINE
  5
240
100
AcDbEntity
  8
0
  6
CONTINUOUS
 62
     2
100
AcDbLine
 10
115.498401
 20
14.171204
 30
0.0
 11
118.525668
 21
14.171204
 31
0.0
  0
LINE
  5
241
100
AcDbEntity
  8
0
  6
CONTINUOUS
 62
     2
100
AcDbLine
 10
115.944797
 20
13.974439
 30
0.0
 11
115.530078
 21
11.696765
 31
0.0
  0
LINE
  5
242
100
AcDbEntity
  8
0
  6
CONTINUOUS
 62
     2
100
AcDbLine
 10
116.180728
 20
13.974439
 30
0.0
 11
115.766025
 21
11.696765
 31
0.0
  0
LINE
  5
243
100
AcDbEntity
  8
0
  6
CONTINUOUS
 62
     2
100
AcDbLine
 10
116.388919
 20
13.974442
 30
0.0
 11
115.974002
 21
11.696762
 31
0.0
  0
LINE
  5
244
100
AcDbEntity
  8
0
  6
CONTINUOUS
 62
     2
100
AcDbLine
 10
116.770236
 20
13.971204
 30
0.0
 11
116.770236
 21
11.7
 31
0.0
  0
LINE
  5
245
100
AcDbEntity
  8
0
  6
CONTINUOUS
 62
     2
100
AcDbLine
 10
117.022067
 20
13.971204
 30
0.0
 11
117.022067
 21
11.7
 31
0.0
  0
LINE
  5
246
100
AcDbEntity
  8
0
  6
CONTINUOUS
 62
     2
100
AcDbLine
 10
117.293918
 20
13.971204
 30
0.0
 11
117.293918
 21
11.7
 31
0.0
  0
LINE
  5
247
100
AcDbEntity
  8
0
  6
CONTINUOUS
 62
     2
100
AcDbLine
 10
117.634952
 20
13.974442
 30
0.0
 11
118.049869
 21
11.696762
 31
0.0
  0
LINE
  5
248
100
AcDbEntity
  8
0
  6
CONTINUOUS
 62
     2
100
AcDbLine
 10
117.851093
 20
13.974442
 30
0.0
 11
118.26601
 21
11.696762
 31
0.0
  0
LINE
  5
249
100
AcDbEntity
  8
0
  6
CONTINUOUS
 62
     2
100
AcDbLine
 10
118.107028
 20
13.974442
 30
0.0
 11
118.521945
 21
11.696762
 31
0.0
  0
LINE
  5
24A
100
AcDbEntity
  8
0
  6
CONTINUOUS
 62
     2
100
AcDbLine
 10
119.127261
 20
15.340015
 30
0.0
 11
121.98241
 21
15.340015
 31
0.0
  0
LINE
  5
24B
100
AcDbEntity
  8
0
  6
CONTINUOUS
 62
     2
100
AcDbLine
 10
119.127261
 20
15.088017
 30
0.0
 11
122.07413
 21
15.088017
 31
0.0
  0
LINE
  5
24C
100
AcDbEntity
  8
0
  6
CONTINUOUS
 62
     2
100
AcDbLine
 10
123.511661
 20
11.687939
 30
0.0
 11
122.034198
 21
15.747257
 31
0.0
  0
LINE
  5
24D
100
AcDbEntity
  8
0
  6
CONTINUOUS
 62
     2
100
AcDbLine
 10
123.779697
 20
11.68794
 30
0.0
 11
122.302295
 21
15.747256
 31
0.0
  0
LINE
  5
24E
100
AcDbEntity
  8
0
  6
CONTINUOUS
 62
     2
100
AcDbLine
 10
124.047733
 20
11.68794
 30
0.0
 11
122.570331
 21
15.747256
 31
0.0
  0
LINE
  5
24F
100
AcDbEntity
  8
0
  6
CONTINUOUS
 62
     2
100
AcDbLine
 10
124.315768
 20
11.687936
 30
0.0
 11
122.838138
 21
15.747259
 31
0.0
  0
LINE
  5
250
100
AcDbEntity
  8
0
  6
CONTINUOUS
 62
     2
100
AcDbLine
 10
123.554309
 20
15.540015
 30
0.0
 11
123.554309
 21
15.735196
 31
0.0
  0
LINE
  5
251
100
AcDbEntity
  8
0
  6
CONTINUOUS
 62
     2
100
AcDbLine
 10
123.82616
 20
15.540015
 30
0.0
 11
123.82616
 21
15.735196
 31
0.0
  0
LINE
  5
252
100
AcDbEntity
  8
0
  6
CONTINUOUS
 62
     2
100
AcDbLine
 10
124.097995
 20
15.540015
 30
0.0
 11
124.097995
 21
15.735196
 31
0.0
  0
LINE
  5
253
100
AcDbEntity
  8
0
  6
CONTINUOUS
 62
     2
100
AcDbLine
 10
123.186374
 20
15.340015
 30
0.0
 11
124.372043
 21
15.340015
 31
0.0
  0
LINE
  5
254
100
AcDbEntity
  8
0
  6
CONTINUOUS
 62
     2
100
AcDbLine
 10
123.27811
 20
15.088017
 30
0.0
 11
124.372043
 21
15.088017
 31
0.0
  0
LINE
  5
255
100
AcDbEntity
  8
0
  6
CONTINUOUS
 62
     2
100
AcDbLine
 10
119.429553
 20
14.13641
 30
0.0
 11
122.053638
 21
14.13641
 31
0.0
  0
LINE
  5
256
100
AcDbEntity
  8
0
  6
CONTINUOUS
 62
     2
100
AcDbLine
 10
119.429553
 20
13.884396
 30
0.0
 11
122.053638
 21
13.884396
 31
0.0
  0
LINE
  5
257
100
AcDbEntity
  8
0
  6
CONTINUOUS
 62
     2
100
AcDbLine
 10
120.379092
 20
13.684396
 30
0.0
 11
120.379092
 21
12.679115
 31
0.0
  0
LINE
  5
258
100
AcDbEntity
  8
0
  6
CONTINUOUS
 62
     2
100
AcDbLine
 10
120.630923
 20
13.684396
 30
0.0
 11
120.630923
 21
12.732643
 31
0.0
  0
LINE
  5
259
100
AcDbEntity
  8
0
  6
CONTINUOUS
 62
     2
100
AcDbLine
 10
120.882755
 20
13.684396
 30
0.0
 11
120.882755
 21
12.786172
 31
0.0
  0
LINE
  5
25A
100
AcDbEntity
  8
0
  6
CONTINUOUS
 62
     2
100
AcDbLine
 10
121.134601
 20
13.684396
 30
0.0
 11
121.134601
 21
12.839703
 31
0.0
  0
LINE
  5
25B
100
AcDbEntity
  8
0
  6
CONTINUOUS
 62
     2
100
AcDbLine
 10
119.374728
 20
12.265632
 30
0.0
 11
122.108447
 21
12.8467
 31
0.0
  0
LINE
  5
25C
100
AcDbEntity
  8
0
  6
CONTINUOUS
 62
     2
100
AcDbLine
 10
119.374728
 20
11.988003
 30
0.0
 11
122.108447
 21
12.569085
 31
0.0
  0
LINE
  5
25D
100
AcDbEntity
  8
0
  6
CONTINUOUS
 62
     2
100
AcDbLine
 10
119.374728
 20
11.750373
 30
0.0
 11
122.108447
 21
12.331441
 31
0.0
  0
LINE
  5
25E
100
AcDbEntity
  8
0
  6
CONTINUOUS
 62
     2
100
AcDbLine
 10
124.963306
 20
14.932594
 30
0.0
 11
127.551532
 21
15.79854
 31
0.0
  0
LINE
  5
25F
100
AcDbEntity
  8
0
  6
CONTINUOUS
 62
     2
100
AcDbLine
 10
124.963306
 20
14.666862
 30
0.0
 11
127.551532
 21
15.532824
 31
0.0
  0
LINE
  5
260
100
AcDbEntity
  8
0
  6
CONTINUOUS
 62
     2
100
AcDbLine
 10
127.741199
 20
15.798539
 30
0.0
 11
130.32944
 21
14.93253
 31
0.0
  0
LINE
  5
261
100
AcDbEntity
  8
0
  6
CONTINUOUS
 62
     2
100
AcDbLine
 10
127.741199
 20
15.552823
 30
0.0
 11
130.32944
 21
14.686814
 31
0.0
  0
LINE
  5
262
100
AcDbEntity
  8
0
  6
CONTINUOUS
 62
     2
100
AcDbLine
 10
129.462497
 20
14.659611
 30
0.0
 11
125.830447
 21
14.659611
 31
0.0
  0
LINE
  5
263
100
AcDbEntity
  8
0
  6
CONTINUOUS
 62
     2
100
AcDbLine
 10
129.462497
 20
14.387596
 30
0.0
 11
125.830447
 21
14.387596
 31
0.0
  0
LINE
  5
264
100
AcDbEntity
  8
0
  6
CONTINUOUS
 62
     2
100
AcDbLine
 10
124.973636
 20
13.606392
 30
0.0
 11
130.31911
 21
13.606392
 31
0.0
  0
LINE
  5
265
100
AcDbEntity
  8
0
  6
CONTINUOUS
 62
     2
100
AcDbLine
 10
124.973636
 20
13.374409
 30
0.0
 11
130.31911
 21
13.374409
 31
0.0
  0
LINE
  5
266
100
AcDbEntity
  8
0
  6
CONTINUOUS
 62
     2
100
AcDbLine
 10
125.801334
 20
13.193153
 30
0.0
 11
125.291125
 21
12.099246
 31
0.0
  0
LINE
  5
267
100
AcDbEntity
  8
0
  6
CONTINUOUS
 62
     2
100
AcDbLine
 10
126.119434
 20
13.193154
 30
0.0
 11
125.60921
 21
12.099246
 31
0.0
  0
LINE
  5
268
100
AcDbEntity
  8
0
  6
CONTINUOUS
 62
     2
100
AcDbLine
 10
126.437534
 20
13.193154
 30
0.0
 11
125.92731
 21
12.099246
 31
0.0
  0
LINE
  5
269
100
AcDbEntity
  8
0
  6
CONTINUOUS
 62
     2
100
AcDbLine
 10
128.855411
 20
13.193167
 30
0.0
 11
129.365833
 21
12.099234
 31
0.0
  0
LINE
  5
26A
100
AcDbEntity
  8
0
  6
CONTINUOUS
 62
     2
100
AcDbLine
 10
129.173709
 20
13.193142
 30
0.0
 11
129.683704
 21
12.099258
 31
0.0
  0
LINE
  5
26B
100
AcDbEntity
  8
0
  6
CONTINUOUS
 62
     2
100
AcDbLine
 10
129.491992
 20
13.193131
 30
0.0
 11
130.001819
 21
12.099269
 31
0.0
  0
LINE
  5
26C
100
AcDbEntity
  8
0
  6
CONTINUOUS
 62
     2
100
AcDbLine
 10
125.168536
 20
11.917992
 30
0.0
 11
130.12421
 21
11.917992
 31
0.0
  0
LINE
  5
26D
100
AcDbEntity
  8
0
  6
CONTINUOUS
 62
     2
100
AcDbLine
 10
125.051028
 20
11.665993
 30
0.0
 11
130.241718
 21
11.665993
 31
0.0
  0
LINE
  5
26E
100
AcDbEntity
  8
0
  6
CONTINUOUS
 62
     2
100
AcDbLine
 10
131.839786
 20
15.540015
 30
0.0
 11
131.839786
 21
15.735196
 31
0.0
  0
LINE
  5
26F
100
AcDbEntity
  8
0
  6
CONTINUOUS
 62
     2
100
AcDbLine
 10
132.131625
 20
15.540015
 30
0.0
 11
132.131625
 21
15.735196
 31
0.0
  0
LINE
  5
270
100
AcDbEntity
  8
0
  6
CONTINUOUS
 62
     2
100
AcDbLine
 10
132.42348
 20
15.540015
 30
0.0
 11
132.42348
 21
15.735196
 31
0.0
  0
LINE
  5
271
100
AcDbEntity
  8
0
  6
CONTINUOUS
 62
     2
100
AcDbLine
 10
130.920688
 20
15.340015
 30
0.0
 11
133.208789
 21
15.340015
 31
0.0
  0
LINE
  5
272
100
AcDbEntity
  8
0
  6
CONTINUOUS
 62
     2
100
AcDbLine
 10
130.920688
 20
15.088017
 30
0.0
 11
133.032382
 21
15.088017
 31
0.0
  0
LINE
  5
273
100
AcDbEntity
  8
0
  6
CONTINUOUS
 62
     2
100
AcDbLine
 10
132.237918
 20
14.924168
 30
0.0
 11
130.835376
 21
12.920472
 31
0.0
  0
LINE
  5
274
100
AcDbEntity
  8
0
  6
CONTINUOUS
 62
     2
100
AcDbLine
 10
132.565662
 20
14.92418
 30
0.0
 11
130.835391
 21
12.452851
 31
0.0
  0
LINE
  5
275
100
AcDbEntity
  8
0
  6
CONTINUOUS
 62
     2
100
AcDbLine
 10
132.873798
 20
14.924177
 30
0.0
 11
130.835391
 21
12.012573
 31
0.0
  0
LINE
  5
276
100
AcDbEntity
  8
0
  6
CONTINUOUS
 62
     2
100
AcDbLine
 10
132.392993
 20
13.888691
 30
0.0
 11
133.278674
 21
13.268464
 31
0.0
  0
LINE
  5
277
100
AcDbEntity
  8
0
  6
CONTINUOUS
 62
     2
100
AcDbLine
 10
132.248447
 20
13.682199
 30
0.0
 11
133.278659
 21
12.960799
 31
0.0
  0
LINE
  5
278
100
AcDbEntity
  8
0
  6
CONTINUOUS
 62
     2
100
AcDbLine
 10
132.094501
 20
13.462313
 30
0.0
 11
133.278659
 21
12.63315
 31
0.0
  0
LINE
  5
279
100
AcDbEntity
  8
0
  6
CONTINUOUS
 62
     2
100
AcDbLine
 10
131.839786
 20
13.247223
 30
0.0
 11
131.839786
 21
11.7
 31
0.0
  0
LINE
  5
27A
100
AcDbEntity
  8
0
  6
CONTINUOUS
 62
     2
100
AcDbLine
 10
132.131625
 20
13.236316
 30
0.0
 11
132.131625
 21
11.7
 31
0.0
  0
LINE
  5
27B
100
AcDbEntity
  8
0
  6
CONTINUOUS
 62
     2
100
AcDbLine
 10
132.42348
 20
13.031957
 30
0.0
 11
132.42348
 21
11.7
 31
0.0
  0
LINE
  5
27C
100
AcDbEntity
  8
0
  6
CONTINUOUS
 62
     2
100
AcDbLine
 10
134.561374
 20
12.117991
 30
0.0
 11
134.561374
 21
15.735196
 31
0.0
  0
LINE
  5
27D
100
AcDbEntity
  8
0
  6
CONTINUOUS
 62
     2
100
AcDbLine
 10
134.853214
 20
12.117991
 30
0.0
 11
134.853214
 21
15.735196
 31
0.0
  0
LINE
  5
27E
100
AcDbEntity
  8
0
  6
CONTINUOUS
 62
     2
100
AcDbLine
 10
135.145068
 20
12.117991
 30
0.0
 11
135.145068
 21
15.735196
 31
0.0
  0
LINE
  5
27F
100
AcDbEntity
  8
0
  6
CONTINUOUS
 62
     2
100
AcDbLine
 10
133.64249
 20
14.634403
 30
0.0
 11
134.361377
 21
14.634403
 31
0.0
  0
LINE
  5
280
100
AcDbEntity
  8
0
  6
CONTINUOUS
 62
     2
100
AcDbLine
 10
133.64249
 20
14.38242
 30
0.0
 11
134.361377
 21
14.38242
 31
0.0
  0
LINE
  5
281
100
AcDbEntity
  8
0
  6
CONTINUOUS
 62
     2
100
AcDbLine
 10
135.345065
 20
14.634403
 30
0.0
 11
136.064777
 21
14.634403
 31
0.0
  0
LINE
  5
282
100
AcDbEntity
  8
0
  6
CONTINUOUS
 62
     2
100
AcDbLine
 10
135.345065
 20
14.362419
 30
0.0
 11
136.064777
 21
14.362419
 31
0.0
  0
LINE
  5
283
100
AcDbEntity
  8
0
  6
CONTINUOUS
 62
     2
100
AcDbLine
 10
133.239093
 20
11.917992
 30
0.0
 11
136.165668
 21
11.917992
 31
0.0
  0
LINE
  5
284
100
AcDbEntity
  8
0
  6
CONTINUOUS
 62
     2
100
AcDbLine
 10
133.239093
 20
11.665993
 30
0.0
 11
136.165668
 21
11.665993
 31
0.0
  0
LINE
  5
285
100
AcDbEntity
  8
0
  6
CONTINUOUS
 62
     2
100
AcDbLine
 10
110.447559
 20
13.435364
 30
0.0
 11
112.578403
 21
13.435364
 31
0.0
  0
TEXT
  5
286
100
AcDbEntity
  8
0
  6
CONTINUOUS
 62
     2
100
AcDbText
 10
82.3
 20
21.05
 30
0.0
 40
6.5
  1
樹脂製タオル掛け
 41
0.878769
  7
EXCADSTD
 72
     5
 11
136.7
 21
21.05
 31
0.0
100
AcDbText
  0
LINE
  5
287
100
AcDbEntity
  8
0
  6
EXLTYPE2
 62
     6
100
AcDbLine
 10
0.7
 20
148.5
 30
0.0
 11
18.0
 21
148.5
 31
0.0
  0
TEXT
  5
288
100
AcDbEntity
  8
0
  6
CONTINUOUS
 62
     6
100
AcDbText
 10
20.5
 20
17.0
 30
0.0
 40
5.0
  1
間瀬
 41
0.882
  7
EXCADSTD
 72
     5
 11
30.1243
 21
17.0
 31
0.0
100
AcDbText
  0
TEXT
  5
289
100
AcDbEntity
  8
0
  6
CONTINUOUS
 62
     6
100
AcDbText
 10
66.0
 20
17.0
 30
0.0
 40
5.0
  1
堀
 41
0.924
  7
EXCADSTD
 72
     5
 11
70.4
 21
17.0
 31
0.0
100
AcDbText
  0
TEXT
  5
28A
100
AcDbEntity
  8
0
  6
CONTINUOUS
 62
     6
100
AcDbText
 10
18.45
 20
9.65
 30
0.0
 40
2.5
  1
１８
 41
0.756
  7
EXCADSTD
 72
     5
 11
22.5747
 21
9.65
 31
0.0
100
AcDbText
  0
TEXT
  5
28B
100
AcDbEntity
  8
0
  6
CONTINUOUS
 62
     7
100
AcDbText
 10
152.0
 20
10.0
 30
0.0
 40
7.0
  1
９５６４００
 41
0.8
  7
EXCADSTD
 72
     5
 11
192.0
 21
10.0
 31
0.0
100
AcDbText
  0
TEXT
  5
28C
100
AcDbEntity
  8
0
  6
CONTINUOUS
 62
     6
100
AcDbText
 10
24.45
 20
9.65
 30
0.0
 40
2.5
  1
７
 41
0.84
  7
EXCADSTD
 72
     5
 11
26.45
 21
9.65
 31
0.0
100
AcDbText
  0
TEXT
  5
28D
100
AcDbEntity
  8
0
  6
CONTINUOUS
 62
     6
100
AcDbText
 10
28.45
 20
9.65
 30
0.0
 40
2.5
  1
２０
 41
0.756
  7
EXCADSTD
 72
     5
 11
32.5747
 21
9.65
 31
0.0
100
AcDbText
  0
TEXT
  5
28E
100
AcDbEntity
  8
0
  6
CONTINUOUS
 62
     2
100
AcDbText
 10
147.4
 20
21.25
 30
0.0
 40
6.5
  1
ＮＡ４９１Ｖ
 41
0.646154
  7
EXCADSTD
 72
     5
 11
177.4
 21
21.25
 31
0.0
100
AcDbText
  0
ARC
  5
28F
100
AcDbEntity
  8
1
  6
CONTINUOUS
 62
     2
100
AcDbCircle
 10
208.045
 20
109.397486
 30
0.0
 40
180.0
100
AcDbArc
 50
178.390022
 51
185.095327
  0
ARC
  5
290
100
AcDbEntity
  8
1
  6
CONTINUOUS
 62
     2
100
AcDbCircle
 10
34.345
 20
107.17
 30
0.0
 40
11.25
100
AcDbArc
 50
69.889096
 51
110.110904
  0
ARC
  5
291
100
AcDbEntity
  8
1
  6
CONTINUOUS
 62
     6
100
AcDbCircle
 10
34.345
 20
107.17
 30
0.0
 40
8.55
100
AcDbArc
 50
60.0
 51
120.0
  0
ARC
  5
292
100
AcDbEntity
  8
1
  6
CONTINUOUS
 62
     2
100
AcDbCircle
 10
34.345
 20
113.92
 30
0.0
 40
22.5
100
AcDbArc
 50
259.433744
 51
280.566256
  0
LINE
  5
293
100
AcDbEntity
  8
1
  6
CONTINUOUS
 62
     6
100
AcDbLine
 10
39.745
 20
112.62596
 30
0.0
 11
39.745
 21
93.411136
 31
0.0
  0
LINE
  5
294
100
AcDbEntity
  8
1
  6
CONTINUOUS
 62
     6
100
AcDbLine
 10
28.945
 20
112.62596
 30
0.0
 11
28.945
 21
93.411136
 31
0.0
  0
ARC
  5
295
100
AcDbEntity
  8
1
  6
CONTINUOUS
 62
     6
100
AcDbCircle
 10
37.495
 20
112.62596
 30
0.0
 40
2.25
100
AcDbArc
 50
0.0
 51
60.0
  0
ARC
  5
296
100
AcDbEntity
  8
1
  6
CONTINUOUS
 62
     6
100
AcDbCircle
 10
31.195
 20
112.62596
 30
0.0
 40
2.25
100
AcDbArc
 50
120.0
 51
180.0
  0
ARC
  5
297
100
AcDbEntity
  8
1
  6
CONTINUOUS
 62
     2
100
AcDbCircle
 10
36.975364
 20
114.353571
 30
0.0
 40
3.6
100
AcDbArc
 50
1.609978
 51
69.889096
  0
ARC
  5
298
100
AcDbEntity
  8
1
  6
CONTINUOUS
 62
     2
100
AcDbCircle
 10
31.714636
 20
114.353571
 30
0.0
 40
3.6
100
AcDbArc
 50
110.110904
 51
178.390022
  0
ARC
  5
299
100
AcDbEntity
  8
1
  6
CONTINUOUS
 62
     2
100
AcDbCircle
 10
30.549191
 20
93.570999
 30
0.0
 40
1.8
100
AcDbArc
 50
185.095327
 51
259.433744
  0
ARC
  5
29A
100
AcDbEntity
  8
1
  6
CONTINUOUS
 62
     2
100
AcDbCircle
 10
38.140809
 20
93.570999
 30
0.0
 40
1.8
100
AcDbArc
 50
280.566256
 51
354.904673
  0
ELLIPSE
  5
29B
100
AcDbEntity
  8
1
  6
CONTINUOUS
 62
     2
100
AcDbEllipse
 10
34.345
 20
91.947056
 30
0.0
 11
2.2500000000000027
 21
0.0
 31
0.0
210
0.0
220
0.0
230
1.0
 40
0.128857
 41
0.0
 42
6.2831853071796004
  0
LINE
  5
29C
100
AcDbEntity
  8
1
  6
EXLTYPE3
 62
     1
100
AcDbLine
 10
123.1
 20
178.26
 30
0.0
 11
35.6
 21
178.26
 31
0.0
  0
LINE
  5
29D
100
AcDbEntity
  8
1
  6
CONTINUOUS
 62
     2
100
AcDbLine
 10
40.645
 20
203.01
 30
0.0
 11
28.045
 21
203.01
 31
0.0
  0
LINE
  5
29E
100
AcDbEntity
  8
1
  6
CONTINUOUS
 62
     2
100
AcDbLine
 10
28.888112
 20
172.2364
 30
0.0
 11
28.045
 21
203.01
 31
0.0
  0
LINE
  5
29F
100
AcDbEntity
  8
1
  6
CONTINUOUS
 62
     2
100
AcDbLine
 10
40.645
 20
203.01
 30
0.0
 11
39.801888
 21
172.2364
 31
0.0
  0
ARC
  5
2A0
100
AcDbEntity
  8
1
  6
CONTINUOUS
 62
     2
100
AcDbCircle
 10
34.345
 20
192.66
 30
0.0
 40
22.5
100
AcDbArc
 50
259.822755
 51
280.177245
  0
ARC
  5
2A1
100
AcDbEntity
  8
1
  6
CONTINUOUS
 62
     6
100
AcDbCircle
 10
34.345
 20
192.66
 30
0.0
 40
21.6
100
AcDbArc
 50
259.280668
 51
280.719332
  0
ARC
  5
2A2
100
AcDbEntity
  8
1
  6
CONTINUOUS
 62
     2
100
AcDbCircle
 10
30.687437
 20
172.285697
 30
0.0
 40
1.8
100
AcDbArc
 50
181.569355
 51
259.822755
  0
ARC
  5
2A3
100
AcDbEntity
  8
1
  6
CONTINUOUS
 62
     2
100
AcDbCircle
 10
38.002563
 20
172.285697
 30
0.0
 40
1.8
100
AcDbArc
 50
280.177245
 51
358.430645
  0
ARC
  5
2A4
100
AcDbEntity
  8
1
  6
CONTINUOUS
 62
     6
100
AcDbCircle
 10
30.662237
 20
173.205508
 30
0.0
 40
1.8
100
AcDbArc
 50
181.569355
 51
259.280668
  0
ARC
  5
2A5
100
AcDbEntity
  8
1
  6
CONTINUOUS
 62
     6
100
AcDbCircle
 10
38.027763
 20
173.205508
 30
0.0
 40
1.8
100
AcDbArc
 50
280.719332
 51
358.430645
  0
ARC
  5
2A6
100
AcDbEntity
  8
1
  6
CONTINUOUS
 62
     2
100
AcDbCircle
 10
-49.355
 20
109.397486
 30
0.0
 40
180.0
100
AcDbArc
 50
354.904673
 51
1.609978
  0
ARC
  5
2A7
100
AcDbEntity
  8
1
  6
CONTINUOUS
 62
     2
100
AcDbCircle
 10
124.345
 20
107.17
 30
0.0
 40
11.25
100
AcDbArc
 50
69.889096
 51
110.110904
  0
ARC
  5
2A8
100
AcDbEntity
  8
1
  6
CONTINUOUS
 62
     6
100
AcDbCircle
 10
124.345
 20
107.17
 30
0.0
 40
8.55
100
AcDbArc
 50
60.0
 51
120.0
  0
ARC
  5
2A9
100
AcDbEntity
  8
1
  6
CONTINUOUS
 62
     2
100
AcDbCircle
 10
124.345
 20
113.92
 30
0.0
 40
22.5
100
AcDbArc
 50
259.433744
 51
280.566256
  0
LINE
  5
2AA
100
AcDbEntity
  8
1
  6
CONTINUOUS
 62
     6
100
AcDbLine
 10
129.745
 20
112.62596
 30
0.0
 11
129.745
 21
93.411136
 31
0.0
  0
LINE
  5
2AB
100
AcDbEntity
  8
1
  6
CONTINUOUS
 62
     6
100
AcDbLine
 10
118.945
 20
112.62596
 30
0.0
 11
118.945
 21
93.411136
 31
0.0
  0
ARC
  5
2AC
100
AcDbEntity
  8
1
  6
CONTINUOUS
 62
     6
100
AcDbCircle
 10
127.495
 20
112.62596
 30
0.0
 40
2.25
100
AcDbArc
 50
0.0
 51
60.0
  0
ARC
  5
2AD
100
AcDbEntity
  8
1
  6
CONTINUOUS
 62
     6
100
AcDbCircle
 10
121.195
 20
112.62596
 30
0.0
 40
2.25
100
AcDbArc
 50
120.0
 51
180.0
  0
ARC
  5
2AE
100
AcDbEntity
  8
1
  6
CONTINUOUS
 62
     2
100
AcDbCircle
 10
126.975364
 20
114.353571
 30
0.0
 40
3.6
100
AcDbArc
 50
1.609978
 51
69.889096
  0
ARC
  5
2AF
100
AcDbEntity
  8
1
  6
CONTINUOUS
 62
     2
100
AcDbCircle
 10
121.714636
 20
114.353571
 30
0.0
 40
3.6
100
AcDbArc
 50
110.110904
 51
178.390022
  0
ARC
  5
2B0
100
AcDbEntity
  8
1
  6
CONTINUOUS
 62
     2
100
AcDbCircle
 10
120.549191
 20
93.570999
 30
0.0
 40
1.8
100
AcDbArc
 50
185.095327
 51
259.433744
  0
ARC
  5
2B1
100
AcDbEntity
  8
1
  6
CONTINUOUS
 62
     2
100
AcDbCircle
 10
128.140809
 20
93.570999
 30
0.0
 40
1.8
100
AcDbArc
 50
280.566256
 51
354.904673
  0
ELLIPSE
  5
2B2
100
AcDbEntity
  8
1
  6
CONTINUOUS
 62
     2
100
AcDbEllipse
 10
124.345
 20
91.947056
 30
0.0
 11
2.2500000000000027
 21
0.0
 31
0.0
210
0.0
220
0.0
230
1.0
 40
0.128857
 41
0.0
 42
6.2831853071796004
  0
ARC
  5
2B3
100
AcDbEntity
  8
1
  6
CONTINUOUS
 62
     2
100
AcDbCircle
 10
95.780499
 20
107.17
 30
0.0
 40
55.899883
100
AcDbArc
 50
176.815825
 51
183.184175
  0
ARC
  5
2B4
100
AcDbEntity
  8
1
  6
CONTINUOUS
 62
     2
100
AcDbCircle
 10
-139.355
 20
109.397486
 30
0.0
 40
180.0
100
AcDbArc
 50
354.904673
 51
358.302369
  0
ARC
  5
2B5
100
AcDbEntity
  8
1
  6
CONTINUOUS
 62
     2
100
AcDbCircle
 10
-139.355
 20
109.397486
 30
0.0
 40
180.0
100
AcDbArc
 50
0.279323
 51
1.609978
  0
ARC
  5
2B6
100
AcDbEntity
  8
1
  6
CONTINUOUS
 62
     2
100
AcDbCircle
 10
62.909501
 20
107.17
 30
0.0
 40
55.899883
100
AcDbArc
 50
356.815825
 51
3.184175
  0
ARC
  5
2B7
100
AcDbEntity
  8
1
  6
CONTINUOUS
 62
     2
100
AcDbCircle
 10
298.045
 20
109.397486
 30
0.0
 40
180.0
100
AcDbArc
 50
178.390022
 51
179.720677
  0
ARC
  5
2B8
100
AcDbEntity
  8
1
  6
CONTINUOUS
 62
     2
100
AcDbCircle
 10
298.045
 20
109.397486
 30
0.0
 40
180.0
100
AcDbArc
 50
181.697631
 51
185.095327
  0
LINE
  5
2B9
100
AcDbEntity
  8
1
  6
CONTINUOUS
 62
     2
100
AcDbLine
 10
39.966918
 20
110.275
 30
0.0
 11
78.065
 21
110.275
 31
0.0
  0
LINE
  5
2BA
100
AcDbEntity
  8
1
  6
CONTINUOUS
 62
     2
100
AcDbLine
 10
80.625
 20
110.275
 30
0.0
 11
118.723082
 21
110.275
 31
0.0
  0
LINE
  5
2BB
100
AcDbEntity
  8
1
  6
CONTINUOUS
 62
     2
100
AcDbLine
 10
39.966918
 20
104.065
 30
0.0
 11
78.065
 21
104.065
 31
0.0
  0
LINE
  5
2BC
100
AcDbEntity
  8
1
  6
CONTINUOUS
 62
     2
100
AcDbLine
 10
80.625
 20
104.065
 30
0.0
 11
118.723082
 21
104.065
 31
0.0
  0
LINE
  5
2BD
100
AcDbEntity
  8
1
  6
CONTINUOUS
 62
     2
100
AcDbLine
 10
130.645
 20
203.01
 30
0.0
 11
118.045
 21
203.01
 31
0.0
  0
LINE
  5
2BE
100
AcDbEntity
  8
1
  6
CONTINUOUS
 62
     2
100
AcDbLine
 10
118.888112
 20
172.2364
 30
0.0
 11
118.045
 21
203.01
 31
0.0
  0
LINE
  5
2BF
100
AcDbEntity
  8
1
  6
CONTINUOUS
 62
     2
100
AcDbLine
 10
130.645
 20
203.01
 30
0.0
 11
129.801888
 21
172.2364
 31
0.0
  0
ARC
  5
2C0
100
AcDbEntity
  8
1
  6
CONTINUOUS
 62
     2
100
AcDbCircle
 10
124.345
 20
192.66
 30
0.0
 40
22.5
100
AcDbArc
 50
259.822755
 51
280.177245
  0
ARC
  5
2C1
100
AcDbEntity
  8
1
  6
CONTINUOUS
 62
     6
100
AcDbCircle
 10
124.345
 20
192.66
 30
0.0
 40
21.6
100
AcDbArc
 50
259.280668
 51
280.719332
  0
ARC
  5
2C2
100
AcDbEntity
  8
1
  6
CONTINUOUS
 62
     2
100
AcDbCircle
 10
120.687437
 20
172.285697
 30
0.0
 40
1.8
100
AcDbArc
 50
181.569355
 51
259.822755
  0
ARC
  5
2C3
100
AcDbEntity
  8
1
  6
CONTINUOUS
 62
     2
100
AcDbCircle
 10
128.002563
 20
172.285697
 30
0.0
 40
1.8
100
AcDbArc
 50
280.177245
 51
358.430645
  0
ARC
  5
2C4
100
AcDbEntity
  8
1
  6
CONTINUOUS
 62
     6
100
AcDbCircle
 10
120.662237
 20
173.205508
 30
0.0
 40
1.8
100
AcDbArc
 50
181.569355
 51
259.280668
  0
ARC
  5
2C5
100
AcDbEntity
  8
1
  6
CONTINUOUS
 62
     6
100
AcDbCircle
 10
128.027763
 20
173.205508
 30
0.0
 40
1.8
100
AcDbArc
 50
280.719332
 51
358.430645
  0
LINE
  5
2C6
100
AcDbEntity
  8
1
  6
CONTINUOUS
 62
     2
100
AcDbLine
 10
40.051986
 20
181.365
 30
0.0
 11
78.065
 21
181.365
 31
0.0
  0
LINE
  5
2C7
100
AcDbEntity
  8
1
  6
CONTINUOUS
 62
     2
100
AcDbLine
 10
80.625
 20
181.365
 30
0.0
 11
118.638014
 21
181.365
 31
0.0
  0
LINE
  5
2C8
100
AcDbEntity
  8
1
  6
CONTINUOUS
 62
     2
100
AcDbLine
 10
39.881849
 20
175.155
 30
0.0
 11
78.065
 21
175.155
 31
0.0
  0
LINE
  5
2C9
100
AcDbEntity
  8
1
  6
CONTINUOUS
 62
     2
100
AcDbLine
 10
80.625
 20
175.155
 30
0.0
 11
118.808151
 21
175.155
 31
0.0
  0
LINE
  5
2CA
100
AcDbEntity
  8
1
  6
CONTINUOUS
 62
     2
100
AcDbLine
 10
123.445
 20
203.450695
 30
0.0
 11
125.245
 21
203.784305
 31
0.0
  0
LINE
  5
2CB
100
AcDbEntity
  8
1
  6
CONTINUOUS
 62
     2
100
AcDbLine
 10
123.67
 20
203.01
 30
0.0
 11
123.67
 21
212.6625
 31
0.0
  0
LINE
  5
2CC
100
AcDbEntity
  8
1
  6
CONTINUOUS
 62
     2
100
AcDbLine
 10
125.02
 20
203.01
 30
0.0
 11
125.02
 21
212.6625
 31
0.0
  0
LINE
  5
2CD
100
AcDbEntity
  8
1
  6
CONTINUOUS
 62
     2
100
AcDbLine
 10
124.345
 20
214.3275
 30
0.0
 11
123.67
 21
212.6625
 31
0.0
  0
LINE
  5
2CE
100
AcDbEntity
  8
1
  6
CONTINUOUS
 62
     2
100
AcDbLine
 10
124.345
 20
214.3275
 30
0.0
 11
125.02
 21
212.6625
 31
0.0
  0
LINE
  5
2CF
100
AcDbEntity
  8
1
  6
CONTINUOUS
 62
     2
100
AcDbLine
 10
124.466399
 20
203.01
 30
0.0
 11
125.245
 21
203.154305
 31
0.0
  0
LINE
  5
2D0
100
AcDbEntity
  8
1
  6
CONTINUOUS
 62
     2
100
AcDbLine
 10
123.445
 20
204.080695
 30
0.0
 11
125.245
 21
204.414305
 31
0.0
  0
LINE
  5
2D1
100
AcDbEntity
  8
1
  6
CONTINUOUS
 62
     2
100
AcDbLine
 10
123.445
 20
204.710695
 30
0.0
 11
125.245
 21
205.044305
 31
0.0
  0
LINE
  5
2D2
100
AcDbEntity
  8
1
  6
CONTINUOUS
 62
     2
100
AcDbLine
 10
123.445
 20
205.340695
 30
0.0
 11
125.245
 21
205.674305
 31
0.0
  0
LINE
  5
2D3
100
AcDbEntity
  8
1
  6
CONTINUOUS
 62
     2
100
AcDbLine
 10
123.445
 20
205.970695
 30
0.0
 11
125.245
 21
206.304305
 31
0.0
  0
LINE
  5
2D4
100
AcDbEntity
  8
1
  6
CONTINUOUS
 62
     2
100
AcDbLine
 10
123.445
 20
206.600695
 30
0.0
 11
125.245
 21
206.934305
 31
0.0
  0
LINE
  5
2D5
100
AcDbEntity
  8
1
  6
CONTINUOUS
 62
     2
100
AcDbLine
 10
123.445
 20
207.230695
 30
0.0
 11
125.245
 21
207.564305
 31
0.0
  0
LINE
  5
2D6
100
AcDbEntity
  8
1
  6
CONTINUOUS
 62
     2
100
AcDbLine
 10
123.445
 20
207.860695
 30
0.0
 11
125.245
 21
208.194305
 31
0.0
  0
LINE
  5
2D7
100
AcDbEntity
  8
1
  6
CONTINUOUS
 62
     2
100
AcDbLine
 10
123.445
 20
208.490695
 30
0.0
 11
125.245
 21
208.824305
 31
0.0
  0
LINE
  5
2D8
100
AcDbEntity
  8
1
  6
CONTINUOUS
 62
     2
100
AcDbLine
 10
123.445
 20
209.120695
 30
0.0
 11
125.245
 21
209.454305
 31
0.0
  0
LINE
  5
2D9
100
AcDbEntity
  8
1
  6
CONTINUOUS
 62
     2
100
AcDbLine
 10
123.445
 20
209.750695
 30
0.0
 11
125.245
 21
210.084305
 31
0.0
  0
LINE
  5
2DA
100
AcDbEntity
  8
1
  6
CONTINUOUS
 62
     2
100
AcDbLine
 10
123.445
 20
210.380695
 30
0.0
 11
125.245
 21
210.714305
 31
0.0
  0
LINE
  5
2DB
100
AcDbEntity
  8
1
  6
CONTINUOUS
 62
     2
100
AcDbLine
 10
123.445
 20
211.010695
 30
0.0
 11
125.245
 21
211.344305
 31
0.0
  0
LINE
  5
2DC
100
AcDbEntity
  8
1
  6
CONTINUOUS
 62
     2
100
AcDbLine
 10
123.445
 20
211.640695
 30
0.0
 11
125.245
 21
211.974305
 31
0.0
  0
LINE
  5
2DD
100
AcDbEntity
  8
1
  6
CONTINUOUS
 62
     2
100
AcDbLine
 10
123.445
 20
212.270695
 30
0.0
 11
125.245
 21
212.604305
 31
0.0
  0
LINE
  5
2DE
100
AcDbEntity
  8
1
  6
CONTINUOUS
 62
     2
100
AcDbLine
 10
123.549411
 20
212.920046
 30
0.0
 11
125.029388
 21
213.194344
 31
0.0
  0
LINE
  5
2DF
100
AcDbEntity
  8
1
  6
CONTINUOUS
 62
     2
100
AcDbLine
 10
123.825566
 20
213.601229
 30
0.0
 11
124.791832
 21
213.780315
 31
0.0
  0
LINE
  5
2E0
100
AcDbEntity
  8
1
  6
CONTINUOUS
 62
     2
100
AcDbLine
 10
33.445
 20
203.450695
 30
0.0
 11
35.245
 21
203.784305
 31
0.0
  0
LINE
  5
2E1
100
AcDbEntity
  8
1
  6
CONTINUOUS
 62
     2
100
AcDbLine
 10
33.67
 20
203.01
 30
0.0
 11
33.67
 21
212.6625
 31
0.0
  0
LINE
  5
2E2
100
AcDbEntity
  8
1
  6
CONTINUOUS
 62
     2
100
AcDbLine
 10
35.02
 20
203.01
 30
0.0
 11
35.02
 21
212.6625
 31
0.0
  0
LINE
  5
2E3
100
AcDbEntity
  8
1
  6
CONTINUOUS
 62
     2
100
AcDbLine
 10
34.345
 20
214.3275
 30
0.0
 11
33.67
 21
212.6625
 31
0.0
  0
LINE
  5
2E4
100
AcDbEntity
  8
1
  6
CONTINUOUS
 62
     2
100
AcDbLine
 10
34.345
 20
214.3275
 30
0.0
 11
35.02
 21
212.6625
 31
0.0
  0
LINE
  5
2E5
100
AcDbEntity
  8
1
  6
CONTINUOUS
 62
     2
100
AcDbLine
 10
34.466399
 20
203.01
 30
0.0
 11
35.245
 21
203.154305
 31
0.0
  0
LINE
  5
2E6
100
AcDbEntity
  8
1
  6
CONTINUOUS
 62
     2
100
AcDbLine
 10
33.445
 20
204.080695
 30
0.0
 11
35.245
 21
204.414305
 31
0.0
  0
LINE
  5
2E7
100
AcDbEntity
  8
1
  6
CONTINUOUS
 62
     2
100
AcDbLine
 10
33.445
 20
204.710695
 30
0.0
 11
35.245
 21
205.044305
 31
0.0
  0
LINE
  5
2E8
100
AcDbEntity
  8
1
  6
CONTINUOUS
 62
     2
100
AcDbLine
 10
33.445
 20
205.340695
 30
0.0
 11
35.245
 21
205.674305
 31
0.0
  0
LINE
  5
2E9
100
AcDbEntity
  8
1
  6
CONTINUOUS
 62
     2
100
AcDbLine
 10
33.445
 20
205.970695
 30
0.0
 11
35.245
 21
206.304305
 31
0.0
  0
LINE
  5
2EA
100
AcDbEntity
  8
1
  6
CONTINUOUS
 62
     2
100
AcDbLine
 10
33.445
 20
206.600695
 30
0.0
 11
35.245
 21
206.934305
 31
0.0
  0
LINE
  5
2EB
100
AcDbEntity
  8
1
  6
CONTINUOUS
 62
     2
100
AcDbLine
 10
33.445
 20
207.230695
 30
0.0
 11
35.245
 21
207.564305
 31
0.0
  0
LINE
  5
2EC
100
AcDbEntity
  8
1
  6
CONTINUOUS
 62
     2
100
AcDbLine
 10
33.445
 20
207.860695
 30
0.0
 11
35.245
 21
208.194305
 31
0.0
  0
LINE
  5
2ED
100
AcDbEntity
  8
1
  6
CONTINUOUS
 62
     2
100
AcDbLine
 10
33.445
 20
208.490695
 30
0.0
 11
35.245
 21
208.824305
 31
0.0
  0
LINE
  5
2EE
100
AcDbEntity
  8
1
  6
CONTINUOUS
 62
     2
100
AcDbLine
 10
33.445
 20
209.120695
 30
0.0
 11
35.245
 21
209.454305
 31
0.0
  0
LINE
  5
2EF
100
AcDbEntity
  8
1
  6
CONTINUOUS
 62
     2
100
AcDbLine
 10
33.445
 20
209.750695
 30
0.0
 11
35.245
 21
210.084305
 31
0.0
  0
LINE
  5
2F0
100
AcDbEntity
  8
1
  6
CONTINUOUS
 62
     2
100
AcDbLine
 10
33.445
 20
210.380695
 30
0.0
 11
35.245
 21
210.714305
 31
0.0
  0
LINE
  5
2F1
100
AcDbEntity
  8
1
  6
CONTINUOUS
 62
     2
100
AcDbLine
 10
33.445
 20
211.010695
 30
0.0
 11
35.245
 21
211.344305
 31
0.0
  0
LINE
  5
2F2
100
AcDbEntity
  8
1
  6
CONTINUOUS
 62
     2
100
AcDbLine
 10
33.445
 20
211.640695
 30
0.0
 11
35.245
 21
211.974305
 31
0.0
  0
LINE
  5
2F3
100
AcDbEntity
  8
1
  6
CONTINUOUS
 62
     2
100
AcDbLine
 10
33.445
 20
212.270695
 30
0.0
 11
35.245
 21
212.604305
 31
0.0
  0
LINE
  5
2F4
100
AcDbEntity
  8
1
  6
CONTINUOUS
 62
     2
100
AcDbLine
 10
33.549411
 20
212.920046
 30
0.0
 11
35.029388
 21
213.194344
 31
0.0
  0
LINE
  5
2F5
100
AcDbEntity
  8
1
  6
CONTINUOUS
 62
     2
100
AcDbLine
 10
33.825566
 20
213.601229
 30
0.0
 11
34.791832
 21
213.780315
 31
0.0
  0
ARC
  5
2F6
100
AcDbEntity
  8
1
  6
CONTINUOUS
 62
     2
100
AcDbCircle
 10
188.150961
 20
-151.520858
 30
0.0
 40
270.0
100
AcDbArc
 50
91.199259
 51
97.748338
  0
ARC
  5
2F7
100
AcDbEntity
  8
1
  6
CONTINUOUS
 62
     2
100
AcDbCircle
 10
186.126132
 20
181.346921
 30
0.0
 40
90.0
100
AcDbArc
 50
252.048074
 51
267.690907
  0
ARC
  5
2F8
100
AcDbEntity
  8
1
  6
CONTINUOUS
 62
     2
100
AcDbCircle
 10
181.15
 20
108.584128
 30
0.0
 40
31.5
100
AcDbArc
 50
169.040737
 51
180.0
  0
ARC
  5
2F9
100
AcDbEntity
  8
1
  6
CONTINUOUS
 62
     2
100
AcDbCircle
 10
162.269989
 20
107.715104
 30
0.0
 40
12.6
100
AcDbArc
 50
182.635394
 51
252.048074
  0
LINE
  5
2FA
100
AcDbEntity
  8
1
  6
CONTINUOUS
 62
     2
100
AcDbLine
 10
149.65
 20
108.584128
 30
0.0
 11
149.65
 21
107.135755
 31
0.0
  0
ARC
  5
2FB
100
AcDbEntity
  8
1
  6
CONTINUOUS
 62
     2
100
AcDbCircle
 10
151.991651
 20
114.230425
 30
0.0
 40
1.8
100
AcDbArc
 50
97.748338
 51
169.040737
  0
LINE
  5
2FC
100
AcDbEntity
  8
1
  6
CONTINUOUS
 62
     2
100
AcDbLine
 10
182.5
 20
91.42
 30
0.0
 11
182.5
 21
118.42
 31
0.0
  0
LINE
  5
2FD
100
AcDbEntity
  8
1
  6
CONTINUOUS
 62
     2
100
AcDbLine
 10
182.940695
 20
112.57
 30
0.0
 11
183.274305
 21
110.77
 31
0.0
  0
LINE
  5
2FE
100
AcDbEntity
  8
1
  6
CONTINUOUS
 62
     2
100
AcDbLine
 10
182.5
 20
112.345
 30
0.0
 11
192.1525
 21
112.345
 31
0.0
  0
LINE
  5
2FF
100
AcDbEntity
  8
1
  6
CONTINUOUS
 62
     2
100
AcDbLine
 10
182.5
 20
110.995
 30
0.0
 11
192.1525
 21
110.995
 31
0.0
  0
LINE
  5
300
100
AcDbEntity
  8
1
  6
CONTINUOUS
 62
     2
100
AcDbLine
 10
193.8175
 20
111.67
 30
0.0
 11
192.1525
 21
112.345
 31
0.0
  0
LINE
  5
301
100
AcDbEntity
  8
1
  6
CONTINUOUS
 62
     2
100
AcDbLine
 10
193.8175
 20
111.67
 30
0.0
 11
192.1525
 21
110.995
 31
0.0
  0
LINE
  5
302
100
AcDbEntity
  8
1
  6
CONTINUOUS
 62
     2
100
AcDbLine
 10
182.5
 20
111.548601
 30
0.0
 11
182.644305
 21
110.77
 31
0.0
  0
LINE
  5
303
100
AcDbEntity
  8
1
  6
CONTINUOUS
 62
     2
100
AcDbLine
 10
183.570695
 20
112.57
 30
0.0
 11
183.904305
 21
110.77
 31
0.0
  0
LINE
  5
304
100
AcDbEntity
  8
1
  6
CONTINUOUS
 62
     2
100
AcDbLine
 10
184.200695
 20
112.57
 30
0.0
 11
184.534305
 21
110.77
 31
0.0
  0
LINE
  5
305
100
AcDbEntity
  8
1
  6
CONTINUOUS
 62
     2
100
AcDbLine
 10
184.830695
 20
112.57
 30
0.0
 11
185.164305
 21
110.77
 31
0.0
  0
LINE
  5
306
100
AcDbEntity
  8
1
  6
CONTINUOUS
 62
     2
100
AcDbLine
 10
185.460695
 20
112.57
 30
0.0
 11
185.794305
 21
110.77
 31
0.0
  0
LINE
  5
307
100
AcDbEntity
  8
1
  6
CONTINUOUS
 62
     2
100
AcDbLine
 10
186.090695
 20
112.57
 30
0.0
 11
186.424305
 21
110.77
 31
0.0
  0
LINE
  5
308
100
AcDbEntity
  8
1
  6
CONTINUOUS
 62
     2
100
AcDbLine
 10
186.720695
 20
112.57
 30
0.0
 11
187.054305
 21
110.77
 31
0.0
  0
LINE
  5
309
100
AcDbEntity
  8
1
  6
CONTINUOUS
 62
     2
100
AcDbLine
 10
187.350695
 20
112.57
 30
0.0
 11
187.684305
 21
110.77
 31
0.0
  0
LINE
  5
30A
100
AcDbEntity
  8
1
  6
CONTINUOUS
 62
     2
100
AcDbLine
 10
187.980695
 20
112.57
 30
0.0
 11
188.314305
 21
110.77
 31
0.0
  0
LINE
  5
30B
100
AcDbEntity
  8
1
  6
CONTINUOUS
 62
     2
100
AcDbLine
 10
188.610695
 20
112.57
 30
0.0
 11
188.944305
 21
110.77
 31
0.0
  0
LINE
  5
30C
100
AcDbEntity
  8
1
  6
CONTINUOUS
 62
     2
100
AcDbLine
 10
189.240695
 20
112.57
 30
0.0
 11
189.574305
 21
110.77
 31
0.0
  0
LINE
  5
30D
100
AcDbEntity
  8
1
  6
CONTINUOUS
 62
     2
100
AcDbLine
 10
189.870695
 20
112.57
 30
0.0
 11
190.204305
 21
110.77
 31
0.0
  0
LINE
  5
30E
100
AcDbEntity
  8
1
  6
CONTINUOUS
 62
     2
100
AcDbLine
 10
190.500695
 20
112.57
 30
0.0
 11
190.834305
 21
110.77
 31
0.0
  0
LINE
  5
30F
100
AcDbEntity
  8
1
  6
CONTINUOUS
 62
     2
100
AcDbLine
 10
191.130695
 20
112.57
 30
0.0
 11
191.464305
 21
110.77
 31
0.0
  0
LINE
  5
310
100
AcDbEntity
  8
1
  6
CONTINUOUS
 62
     2
100
AcDbLine
 10
191.760695
 20
112.57
 30
0.0
 11
192.094305
 21
110.77
 31
0.0
  0
LINE
  5
311
100
AcDbEntity
  8
1
  6
CONTINUOUS
 62
     2
100
AcDbLine
 10
192.410046
 20
112.465589
 30
0.0
 11
192.684344
 21
110.985612
 31
0.0
  0
LINE
  5
312
100
AcDbEntity
  8
1
  6
CONTINUOUS
 62
     2
100
AcDbLine
 10
193.091229
 20
112.189434
 30
0.0
 11
193.270315
 21
111.223168
 31
0.0
  0
LINE
  5
313
100
AcDbEntity
  8
1
  6
CONTINUOUS
 62
     2
100
AcDbLine
 10
182.940695
 20
103.57
 30
0.0
 11
183.274305
 21
101.77
 31
0.0
  0
LINE
  5
314
100
AcDbEntity
  8
1
  6
CONTINUOUS
 62
     2
100
AcDbLine
 10
182.5
 20
103.345
 30
0.0
 11
192.1525
 21
103.345
 31
0.0
  0
LINE
  5
315
100
AcDbEntity
  8
1
  6
CONTINUOUS
 62
     2
100
AcDbLine
 10
182.5
 20
101.995
 30
0.0
 11
192.1525
 21
101.995
 31
0.0
  0
LINE
  5
316
100
AcDbEntity
  8
1
  6
CONTINUOUS
 62
     2
100
AcDbLine
 10
193.8175
 20
102.67
 30
0.0
 11
192.1525
 21
103.345
 31
0.0
  0
LINE
  5
317
100
AcDbEntity
  8
1
  6
CONTINUOUS
 62
     2
100
AcDbLine
 10
193.8175
 20
102.67
 30
0.0
 11
192.1525
 21
101.995
 31
0.0
  0
LINE
  5
318
100
AcDbEntity
  8
1
  6
CONTINUOUS
 62
     2
100
AcDbLine
 10
182.5
 20
102.548601
 30
0.0
 11
182.644305
 21
101.77
 31
0.0
  0
LINE
  5
319
100
AcDbEntity
  8
1
  6
CONTINUOUS
 62
     2
100
AcDbLine
 10
183.570695
 20
103.57
 30
0.0
 11
183.904305
 21
101.77
 31
0.0
  0
LINE
  5
31A
100
AcDbEntity
  8
1
  6
CONTINUOUS
 62
     2
100
AcDbLine
 10
184.200695
 20
103.57
 30
0.0
 11
184.534305
 21
101.77
 31
0.0
  0
LINE
  5
31B
100
AcDbEntity
  8
1
  6
CONTINUOUS
 62
     2
100
AcDbLine
 10
184.830695
 20
103.57
 30
0.0
 11
185.164305
 21
101.77
 31
0.0
  0
LINE
  5
31C
100
AcDbEntity
  8
1
  6
CONTINUOUS
 62
     2
100
AcDbLine
 10
185.460695
 20
103.57
 30
0.0
 11
185.794305
 21
101.77
 31
0.0
  0
LINE
  5
31D
100
AcDbEntity
  8
1
  6
CONTINUOUS
 62
     2
100
AcDbLine
 10
186.090695
 20
103.57
 30
0.0
 11
186.424305
 21
101.77
 31
0.0
  0
LINE
  5
31E
100
AcDbEntity
  8
1
  6
CONTINUOUS
 62
     2
100
AcDbLine
 10
186.720695
 20
103.57
 30
0.0
 11
187.054305
 21
101.77
 31
0.0
  0
LINE
  5
31F
100
AcDbEntity
  8
1
  6
CONTINUOUS
 62
     2
100
AcDbLine
 10
187.350695
 20
103.57
 30
0.0
 11
187.684305
 21
101.77
 31
0.0
  0
LINE
  5
320
100
AcDbEntity
  8
1
  6
CONTINUOUS
 62
     2
100
AcDbLine
 10
187.980695
 20
103.57
 30
0.0
 11
188.314305
 21
101.77
 31
0.0
  0
LINE
  5
321
100
AcDbEntity
  8
1
  6
CONTINUOUS
 62
     2
100
AcDbLine
 10
188.610695
 20
103.57
 30
0.0
 11
188.944305
 21
101.77
 31
0.0
  0
LINE
  5
322
100
AcDbEntity
  8
1
  6
CONTINUOUS
 62
     2
100
AcDbLine
 10
189.240695
 20
103.57
 30
0.0
 11
189.574305
 21
101.77
 31
0.0
  0
LINE
  5
323
100
AcDbEntity
  8
1
  6
CONTINUOUS
 62
     2
100
AcDbLine
 10
189.870695
 20
103.57
 30
0.0
 11
190.204305
 21
101.77
 31
0.0
  0
LINE
  5
324
100
AcDbEntity
  8
1
  6
CONTINUOUS
 62
     2
100
AcDbLine
 10
190.500695
 20
103.57
 30
0.0
 11
190.834305
 21
101.77
 31
0.0
  0
LINE
  5
325
100
AcDbEntity
  8
1
  6
CONTINUOUS
 62
     2
100
AcDbLine
 10
191.130695
 20
103.57
 30
0.0
 11
191.464305
 21
101.77
 31
0.0
  0
LINE
  5
326
100
AcDbEntity
  8
1
  6
CONTINUOUS
 62
     2
100
AcDbLine
 10
191.760695
 20
103.57
 30
0.0
 11
192.094305
 21
101.77
 31
0.0
  0
LINE
  5
327
100
AcDbEntity
  8
1
  6
CONTINUOUS
 62
     2
100
AcDbLine
 10
192.410046
 20
103.465589
 30
0.0
 11
192.684344
 21
101.985612
 31
0.0
  0
LINE
  5
328
100
AcDbEntity
  8
1
  6
CONTINUOUS
 62
     2
100
AcDbLine
 10
193.091229
 20
103.189434
 30
0.0
 11
193.270315
 21
102.223168
 31
0.0
  0
LINE
  5
329
100
AcDbEntity
  8
1
  6
EXLTYPE3
 62
     1
100
AcDbLine
 10
157.75
 20
102.1
 30
0.0
 11
157.75
 21
112.2
 31
0.0
  0
CIRCLE
  5
32A
100
AcDbEntity
  8
1
  6
EXLTYPE2
 62
     6
100
AcDbCircle
 10
157.75
 20
107.17
 30
0.0
 40
3.15
  0
ARC
  5
32B
100
AcDbEntity
  8
1
  6
CONTINUOUS
 62
     2
100
AcDbCircle
 10
82.457203
 20
176.7075
 30
0.0
 40
2.401505
100
AcDbArc
 50
139.724043
 51
220.275957
  0
ARC
  5
32C
100
AcDbEntity
  8
1
  6
CONTINUOUS
 62
     6
100
AcDbCircle
 10
82.59216
 20
179.6375
 30
0.0
 40
2.401505
100
AcDbArc
 50
144.998443
 51
215.001557
  0
ARC
  5
32D
100
AcDbEntity
  8
1
  6
CONTINUOUS
 62
     2
100
AcDbCircle
 10
82.457203
 20
179.8125
 30
0.0
 40
2.401505
100
AcDbArc
 50
139.724043
 51
220.275957
  0
ARC
  5
32E
100
AcDbEntity
  8
1
  6
CONTINUOUS
 62
     2
100
AcDbCircle
 10
78.792797
 20
179.8125
 30
0.0
 40
2.401505
100
AcDbArc
 50
319.724043
 51
40.275957
  0
ARC
  5
32F
100
AcDbEntity
  8
1
  6
CONTINUOUS
 62
     6
100
AcDbCircle
 10
78.65784
 20
179.6375
 30
0.0
 40
2.401505
100
AcDbArc
 50
324.998443
 51
35.001557
  0
ARC
  5
330
100
AcDbEntity
  8
1
  6
CONTINUOUS
 62
     2
100
AcDbCircle
 10
76.232797
 20
176.7075
 30
0.0
 40
2.401505
100
AcDbArc
 50
319.724043
 51
40.275957
  0
ARC
  5
331
100
AcDbEntity
  8
1
  6
CONTINUOUS
 62
     2
100
AcDbCircle
 10
76.232797
 20
179.8125
 30
0.0
 40
2.401505
100
AcDbArc
 50
319.724043
 51
40.275957
  0
ARC
  5
332
100
AcDbEntity
  8
1
  6
CONTINUOUS
 62
     6
100
AcDbCircle
 10
76.09784
 20
176.8825
 30
0.0
 40
2.401505
100
AcDbArc
 50
324.998443
 51
35.001557
  0
ARC
  5
333
100
AcDbEntity
  8
1
  6
CONTINUOUS
 62
     2
100
AcDbCircle
 10
79.897203
 20
176.7075
 30
0.0
 40
2.401505
100
AcDbArc
 50
139.724043
 51
220.275957
  0
ARC
  5
334
100
AcDbEntity
  8
1
  6
CONTINUOUS
 62
     6
100
AcDbCircle
 10
80.03216
 20
176.8825
 30
0.0
 40
2.401505
100
AcDbArc
 50
144.998443
 51
215.001557
  0
ARC
  5
335
100
AcDbEntity
  8
1
  6
CONTINUOUS
 62
     2
100
AcDbCircle
 10
82.457203
 20
105.6175
 30
0.0
 40
2.401505
100
AcDbArc
 50
139.724043
 51
220.275957
  0
ARC
  5
336
100
AcDbEntity
  8
1
  6
CONTINUOUS
 62
     6
100
AcDbCircle
 10
82.59216
 20
108.5475
 30
0.0
 40
2.401505
100
AcDbArc
 50
144.998443
 51
215.001557
  0
ARC
  5
337
100
AcDbEntity
  8
1
  6
CONTINUOUS
 62
     2
100
AcDbCircle
 10
82.457203
 20
108.7225
 30
0.0
 40
2.401505
100
AcDbArc
 50
139.724043
 51
220.275957
  0
ARC
  5
338
100
AcDbEntity
  8
1
  6
CONTINUOUS
 62
     2
100
AcDbCircle
 10
78.792797
 20
108.7225
 30
0.0
 40
2.401505
100
AcDbArc
 50
319.724043
 51
40.275957
  0
ARC
  5
339
100
AcDbEntity
  8
1
  6
CONTINUOUS
 62
     6
100
AcDbCircle
 10
78.65784
 20
108.5475
 30
0.0
 40
2.401505
100
AcDbArc
 50
324.998443
 51
35.001557
  0
ARC
  5
33A
100
AcDbEntity
  8
1
  6
CONTINUOUS
 62
     2
100
AcDbCircle
 10
76.232797
 20
105.6175
 30
0.0
 40
2.401505
100
AcDbArc
 50
319.724043
 51
40.275957
  0
ARC
  5
33B
100
AcDbEntity
  8
1
  6
CONTINUOUS
 62
     2
100
AcDbCircle
 10
76.232797
 20
108.7225
 30
0.0
 40
2.401505
100
AcDbArc
 50
319.724043
 51
40.275957
  0
ARC
  5
33C
100
AcDbEntity
  8
1
  6
CONTINUOUS
 62
     6
100
AcDbCircle
 10
76.09784
 20
105.7925
 30
0.0
 40
2.401505
100
AcDbArc
 50
324.998443
 51
35.001557
  0
ARC
  5
33D
100
AcDbEntity
  8
1
  6
CONTINUOUS
 62
     2
100
AcDbCircle
 10
79.897203
 20
105.6175
 30
0.0
 40
2.401505
100
AcDbArc
 50
139.724043
 51
220.275957
  0
ARC
  5
33E
100
AcDbEntity
  8
1
  6
CONTINUOUS
 62
     6
100
AcDbCircle
 10
80.03216
 20
105.7925
 30
0.0
 40
2.401505
100
AcDbArc
 50
144.998443
 51
215.001557
  0
LINE
  5
33F
100
AcDbEntity
  8
1
  6
EXLTYPE3
 62
     1
100
AcDbLine
 10
35.3
 20
107.17
 30
0.0
 11
123.2
 21
107.17
 31
0.0
  0
LINE
  5
340
100
AcDbEntity
  8
1
  6
EXLTYPE3
 62
     1
100
AcDbLine
 10
152.7
 20
107.17
 30
0.0
 11
162.8
 21
107.17
 31
0.0
  0
LINE
  5
341
100
AcDbEntity
  8
1
  6
EXLTYPE3
 62
     1
100
AcDbLine
 10
31.1
 20
102.67
 30
0.0
 11
37.6
 21
102.67
 31
0.0
  0
LINE
  5
342
100
AcDbEntity
  8
1
  6
EXLTYPE3
 62
     1
100
AcDbLine
 10
37.6
 20
111.67
 30
0.0
 11
31.1
 21
111.67
 31
0.0
  0
LINE
  5
343
100
AcDbEntity
  8
1
  6
EXLTYPE3
 62
     1
100
AcDbLine
 10
121.09
 20
111.67
 30
0.0
 11
127.59
 21
111.67
 31
0.0
  0
LINE
  5
344
100
AcDbEntity
  8
1
  6
EXLTYPE3
 62
     1
100
AcDbLine
 10
127.59
 20
102.67
 30
0.0
 11
121.09
 21
102.67
 31
0.0
  0
LINE
  5
345
100
AcDbEntity
  8
1
  6
EXLTYPE3
 62
     1
100
AcDbLine
 10
124.345
 20
118.42
 30
0.0
 11
124.345
 21
89.42
 31
0.0
  0
LINE
  5
346
100
AcDbEntity
  8
1
  6
EXLTYPE3
 62
     1
100
AcDbLine
 10
34.345
 20
118.42
 30
0.0
 11
34.345
 21
89.42
 31
0.0
  0
LINE
  5
347
100
AcDbEntity
  8
1
  6
EXLTYPE3
 62
     1
100
AcDbLine
 10
180.6
 20
111.67
 30
0.0
 11
193.8175
 21
111.67
 31
0.0
  0
LINE
  5
348
100
AcDbEntity
  8
1
  6
EXLTYPE3
 62
     1
100
AcDbLine
 10
180.6
 20
102.67
 30
0.0
 11
193.8175
 21
102.67
 31
0.0
  0
LINE
  5
349
100
AcDbEntity
  8
1
  6
EXLTYPE3
 62
     1
100
AcDbLine
 10
34.345
 20
215.2275
 30
0.0
 11
34.345
 21
168.16
 31
0.0
  0
LINE
  5
34A
100
AcDbEntity
  8
1
  6
EXLTYPE3
 62
     1
100
AcDbLine
 10
124.345
 20
215.2275
 30
0.0
 11
124.345
 21
168.16
 31
0.0
  0
LINE
  5
34B
100
AcDbEntity
  8
2
  6
CONTINUOUS
 62
     3
100
AcDbLine
 10
117.345
 20
203.01
 30
0.0
 11
108.7
 21
203.01
 31
0.0
  0
LINE
  5
34C
100
AcDbEntity
  8
2
  6
CONTINUOUS
 62
     3
100
AcDbLine
 10
131.345
 20
203.01
 30
0.0
 11
139.3
 21
203.01
 31
0.0
  0
LINE
  5
34D
100
AcDbEntity
  8
2
  6
CONTINUOUS
 62
     3
100
AcDbLine
 10
126.345
 20
118.42
 30
0.0
 11
139.3
 21
118.42
 31
0.0
  0
LINE
  5
34E
100
AcDbEntity
  8
2
  6
CONTINUOUS
 62
     3
100
AcDbLine
 10
183.2
 20
118.42
 30
0.0
 11
198.0
 21
118.42
 31
0.0
  0
LINE
  5
34F
100
AcDbEntity
  8
2
  6
CONTINUOUS
 62
     3
100
AcDbLine
 10
122.345
 20
118.42
 30
0.0
 11
108.7
 21
118.42
 31
0.0
  0
LINE
  5
350
100
AcDbEntity
  8
2
  6
CONTINUOUS
 62
     3
100
AcDbLine
 10
124.345
 20
118.42
 30
0.0
 11
124.345
 21
129.4
 31
0.0
  0
LINE
  5
351
100
AcDbEntity
  8
2
  6
CONTINUOUS
 62
     3
100
AcDbLine
 10
34.345
 20
118.42
 30
0.0
 11
34.345
 21
129.4
 31
0.0
  0
TEXT
  5
352
100
AcDbEntity
  8
2
  6
CONTINUOUS
 62
     2
100
AcDbText
 10
109.85
 20
187.035
 30
0.0
 40
3.5
  1
^J５５
 50
90.0
 41
0.612571
  7
EXCADSTD
 72
     5
 11
109.85
 21
194.235
 31
0.0
100
AcDbText
  0
TEXT
  5
353
100
AcDbEntity
  8
2
  6
CONTINUOUS
 62
     2
100
AcDbText
 10
109.85
 20
193.835
 30
0.0
 40
3.5
  1
^J
 50
90.0
 41
0.0
  7
EXCADSTD
 72
     5
 11
109.85
 21
193.835
 31
0.0
100
AcDbText
  0
LINE
  5
354
100
AcDbEntity
  8
2
  6
CONTINUOUS
 62
     3
100
AcDbLine
 10
110.2
 20
178.26
 30
0.0
 11
110.2
 21
203.01
 31
0.0
  0
LINE
  5
355
100
AcDbEntity
  8
2
  6
CONTINUOUS
 62
     3
100
AcDbLine
 10
109.7
 20
181.26
 30
0.0
 11
110.2
 21
178.26
 31
0.0
  0
LINE
  5
356
100
AcDbEntity
  8
2
  6
CONTINUOUS
 62
     3
100
AcDbLine
 10
110.2
 20
178.26
 30
0.0
 11
110.7
 21
181.26
 31
0.0
  0
LINE
  5
357
100
AcDbEntity
  8
2
  6
CONTINUOUS
 62
     3
100
AcDbLine
 10
110.7
 20
200.01
 30
0.0
 11
110.2
 21
203.01
 31
0.0
  0
LINE
  5
358
100
AcDbEntity
  8
2
  6
CONTINUOUS
 62
     3
100
AcDbLine
 10
110.2
 20
203.01
 30
0.0
 11
109.7
 21
200.01
 31
0.0
  0
TEXT
  5
359
100
AcDbEntity
  8
2
  6
CONTINUOUS
 62
     2
100
AcDbText
 10
137.45
 20
182.985
 30
0.0
 40
3.5
  1
^J７３
 50
90.0
 41
0.612571
  7
EXCADSTD
 72
     5
 11
137.45
 21
190.185
 31
0.0
100
AcDbText
  0
TEXT
  5
35A
100
AcDbEntity
  8
2
  6
CONTINUOUS
 62
     2
100
AcDbText
 10
137.45
 20
189.785
 30
0.0
 40
3.5
  1
^J
 50
90.0
 41
0.0
  7
EXCADSTD
 72
     5
 11
137.45
 21
189.785
 31
0.0
100
AcDbText
  0
LINE
  5
35B
100
AcDbEntity
  8
2
  6
CONTINUOUS
 62
     3
100
AcDbLine
 10
137.8
 20
170.16
 30
0.0
 11
137.8
 21
203.01
 31
0.0
  0
LINE
  5
35C
100
AcDbEntity
  8
2
  6
CONTINUOUS
 62
     3
100
AcDbLine
 10
137.3
 20
173.16
 30
0.0
 11
137.8
 21
170.16
 31
0.0
  0
LINE
  5
35D
100
AcDbEntity
  8
2
  6
CONTINUOUS
 62
     3
100
AcDbLine
 10
137.8
 20
170.16
 30
0.0
 11
138.3
 21
173.16
 31
0.0
  0
LINE
  5
35E
100
AcDbEntity
  8
2
  6
CONTINUOUS
 62
     3
100
AcDbLine
 10
138.3
 20
200.01
 30
0.0
 11
137.8
 21
203.01
 31
0.0
  0
LINE
  5
35F
100
AcDbEntity
  8
2
  6
CONTINUOUS
 62
     3
100
AcDbLine
 10
137.8
 20
203.01
 30
0.0
 11
137.3
 21
200.01
 31
0.0
  0
LINE
  5
360
100
AcDbEntity
  8
2
  6
CONTINUOUS
 62
     3
100
AcDbLine
 10
34.345
 20
127.9
 30
0.0
 11
124.345
 21
127.9
 31
0.0
  0
LINE
  5
361
100
AcDbEntity
  8
2
  6
CONTINUOUS
 62
     3
100
AcDbLine
 10
37.345
 20
128.4
 30
0.0
 11
34.345
 21
127.9
 31
0.0
  0
LINE
  5
362
100
AcDbEntity
  8
2
  6
CONTINUOUS
 62
     3
100
AcDbLine
 10
34.345
 20
127.9
 30
0.0
 11
37.345
 21
127.4
 31
0.0
  0
LINE
  5
363
100
AcDbEntity
  8
2
  6
CONTINUOUS
 62
     3
100
AcDbLine
 10
121.345
 20
127.4
 30
0.0
 11
124.345
 21
127.9
 31
0.0
  0
LINE
  5
364
100
AcDbEntity
  8
2
  6
CONTINUOUS
 62
     3
100
AcDbLine
 10
124.345
 20
127.9
 30
0.0
 11
121.345
 21
128.4
 31
0.0
  0
TEXT
  5
365
100
AcDbEntity
  8
2
  6
CONTINUOUS
 62
     2
100
AcDbText
 10
72.645
 20
128.25
 30
0.0
 40
4.5
  1
４００
 41
0.833778
  7
EXCADSTD
 72
     5
 11
86.045
 21
128.25
 31
0.0
100
AcDbText
  0
TEXT
  5
366
100
AcDbEntity
  8
2
  6
CONTINUOUS
 62
     2
100
AcDbText
 10
120.745
 20
122.75
 30
0.0
 40
3.5
  1
^J２８
 41
0.612571
  7
EXCADSTD
 72
     5
 11
127.945
 21
122.75
 31
0.0
100
AcDbText
  0
TEXT
  5
367
100
AcDbEntity
  8
2
  6
CONTINUOUS
 62
     2
100
AcDbText
 10
127.545
 20
122.75
 30
0.0
 40
3.5
  1
^J
 41
0.0
  7
EXCADSTD
 72
     5
 11
127.545
 21
122.75
 31
0.0
100
AcDbText
  0
LINE
  5
368
100
AcDbEntity
  8
2
  6
CONTINUOUS
 62
     3
100
AcDbLine
 10
118.116057
 20
122.4
 30
0.0
 11
130.573943
 21
122.4
 31
0.0
  0
LINE
  5
369
100
AcDbEntity
  8
2
  6
CONTINUOUS
 62
     3
100
AcDbLine
 10
121.116057
 20
122.9
 30
0.0
 11
118.116057
 21
122.4
 31
0.0
  0
LINE
  5
36A
100
AcDbEntity
  8
2
  6
CONTINUOUS
 62
     3
100
AcDbLine
 10
118.116057
 20
122.4
 30
0.0
 11
121.116057
 21
121.9
 31
0.0
  0
LINE
  5
36B
100
AcDbEntity
  8
2
  6
CONTINUOUS
 62
     3
100
AcDbLine
 10
127.573943
 20
121.9
 30
0.0
 11
130.573943
 21
122.4
 31
0.0
  0
LINE
  5
36C
100
AcDbEntity
  8
2
  6
CONTINUOUS
 62
     3
100
AcDbLine
 10
130.573943
 20
122.4
 30
0.0
 11
127.573943
 21
122.9
 31
0.0
  0
TEXT
  5
36D
100
AcDbEntity
  8
2
  6
CONTINUOUS
 62
     2
100
AcDbText
 10
109.85
 20
109.995
 30
0.0
 40
3.5
  1
^J２５
 50
90.0
 41
0.595556
  7
EXCADSTD
 72
     5
 11
109.85
 21
116.995
 31
0.0
100
AcDbText
  0
TEXT
  5
36E
100
AcDbEntity
  8
2
  6
CONTINUOUS
 62
     2
100
AcDbText
 10
109.85
 20
116.495
 30
0.0
 40
3.5
  1
^J
 50
90.0
 41
0.0
  7
EXCADSTD
 72
     5
 11
109.85
 21
116.495
 31
0.0
100
AcDbText
  0
LINE
  5
36F
100
AcDbEntity
  8
2
  6
CONTINUOUS
 62
     3
100
AcDbLine
 10
110.2
 20
107.17
 30
0.0
 11
110.2
 21
118.42
 31
0.0
  0
LINE
  5
370
100
AcDbEntity
  8
2
  6
CONTINUOUS
 62
     3
100
AcDbLine
 10
109.7
 20
110.17
 30
0.0
 11
110.2
 21
107.17
 31
0.0
  0
LINE
  5
371
100
AcDbEntity
  8
2
  6
CONTINUOUS
 62
     3
100
AcDbLine
 10
110.2
 20
107.17
 30
0.0
 11
110.7
 21
110.17
 31
0.0
  0
LINE
  5
372
100
AcDbEntity
  8
2
  6
CONTINUOUS
 62
     3
100
AcDbLine
 10
110.7
 20
115.42
 30
0.0
 11
110.2
 21
118.42
 31
0.0
  0
LINE
  5
373
100
AcDbEntity
  8
2
  6
CONTINUOUS
 62
     3
100
AcDbLine
 10
110.2
 20
118.42
 30
0.0
 11
109.7
 21
115.42
 31
0.0
  0
TEXT
  5
374
100
AcDbEntity
  8
2
  6
CONTINUOUS
 62
     2
100
AcDbText
 10
137.45
 20
101.32
 30
0.0
 40
3.5
  1
^J６０
 50
90.0
 41
0.612571
  7
EXCADSTD
 72
     5
 11
137.45
 21
108.52
 31
0.0
100
AcDbText
  0
TEXT
  5
375
100
AcDbEntity
  8
2
  6
CONTINUOUS
 62
     2
100
AcDbText
 10
137.45
 20
108.12
 30
0.0
 40
3.5
  1
^J
 50
90.0
 41
0.0
  7
EXCADSTD
 72
     5
 11
137.45
 21
108.12
 31
0.0
100
AcDbText
  0
LINE
  5
376
100
AcDbEntity
  8
2
  6
CONTINUOUS
 62
     3
100
AcDbLine
 10
137.8
 20
91.42
 30
0.0
 11
137.8
 21
118.42
 31
0.0
  0
LINE
  5
377
100
AcDbEntity
  8
2
  6
CONTINUOUS
 62
     3
100
AcDbLine
 10
137.3
 20
94.42
 30
0.0
 11
137.8
 21
91.42
 31
0.0
  0
LINE
  5
378
100
AcDbEntity
  8
2
  6
CONTINUOUS
 62
     3
100
AcDbLine
 10
137.8
 20
91.42
 30
0.0
 11
138.3
 21
94.42
 31
0.0
  0
LINE
  5
379
100
AcDbEntity
  8
2
  6
CONTINUOUS
 62
     3
100
AcDbLine
 10
138.3
 20
115.42
 30
0.0
 11
137.8
 21
118.42
 31
0.0
  0
LINE
  5
37A
100
AcDbEntity
  8
2
  6
CONTINUOUS
 62
     3
100
AcDbLine
 10
137.8
 20
118.42
 30
0.0
 11
137.3
 21
115.42
 31
0.0
  0
TEXT
  5
37B
100
AcDbEntity
  8
2
  6
CONTINUOUS
 62
     2
100
AcDbText
 10
196.15
 20
103.67
 30
0.0
 40
3.5
  1
^J２０
 50
90.0
 41
0.595556
  7
EXCADSTD
 72
     5
 11
196.15
 21
110.67
 31
0.0
100
AcDbText
  0
TEXT
  5
37C
100
AcDbEntity
  8
2
  6
CONTINUOUS
 62
     2
100
AcDbText
 10
196.15
 20
110.17
 30
0.0
 40
3.5
  1
^J
 50
90.0
 41
0.0
  7
EXCADSTD
 72
     5
 11
196.15
 21
110.17
 31
0.0
100
AcDbText
  0
LINE
  5
37D
100
AcDbEntity
  8
2
  6
CONTINUOUS
 62
     3
100
AcDbLine
 10
196.5
 20
102.67
 30
0.0
 11
196.5
 21
111.67
 31
0.0
  0
LINE
  5
37E
100
AcDbEntity
  8
2
  6
CONTINUOUS
 62
     3
100
AcDbLine
 10
196.0
 20
105.67
 30
0.0
 11
196.5
 21
102.67
 31
0.0
  0
LINE
  5
37F
100
AcDbEntity
  8
2
  6
CONTINUOUS
 62
     3
100
AcDbLine
 10
196.5
 20
102.67
 30
0.0
 11
197.0
 21
105.67
 31
0.0
  0
LINE
  5
380
100
AcDbEntity
  8
2
  6
CONTINUOUS
 62
     3
100
AcDbLine
 10
197.0
 20
108.67
 30
0.0
 11
196.5
 21
111.67
 31
0.0
  0
LINE
  5
381
100
AcDbEntity
  8
2
  6
CONTINUOUS
 62
     3
100
AcDbLine
 10
196.5
 20
111.67
 30
0.0
 11
196.0
 21
108.67
 31
0.0
  0
TEXT
  5
382
100
AcDbEntity
  8
2
  6
CONTINUOUS
 62
     2
100
AcDbText
 10
196.15
 20
111.545
 30
0.0
 40
3.5
  1
^J１５
 50
90.0
 41
0.595556
  7
EXCADSTD
 72
     5
 11
196.15
 21
118.545
 31
0.0
100
AcDbText
  0
TEXT
  5
383
100
AcDbEntity
  8
2
  6
CONTINUOUS
 62
     2
100
AcDbText
 10
196.15
 20
118.045
 30
0.0
 40
3.5
  1
^J
 50
90.0
 41
0.0
  7
EXCADSTD
 72
     5
 11
196.15
 21
118.045
 31
0.0
100
AcDbText
  0
LINE
  5
384
100
AcDbEntity
  8
2
  6
CONTINUOUS
 62
     3
100
AcDbLine
 10
196.5
 20
111.67
 30
0.0
 11
196.5
 21
118.42
 31
0.0
  0
LINE
  5
385
100
AcDbEntity
  8
2
  6
CONTINUOUS
 62
     3
100
AcDbLine
 10
196.0
 20
114.67
 30
0.0
 11
196.5
 21
111.67
 31
0.0
  0
LINE
  5
386
100
AcDbEntity
  8
2
  6
CONTINUOUS
 62
     3
100
AcDbLine
 10
196.5
 20
111.67
 30
0.0
 11
197.0
 21
114.67
 31
0.0
  0
LINE
  5
387
100
AcDbEntity
  8
2
  6
CONTINUOUS
 62
     3
100
AcDbLine
 10
197.0
 20
115.42
 30
0.0
 11
196.5
 21
118.42
 31
0.0
  0
LINE
  5
388
100
AcDbEntity
  8
2
  6
CONTINUOUS
 62
     3
100
AcDbLine
 10
196.5
 20
118.42
 30
0.0
 11
196.0
 21
115.42
 31
0.0
  0
TEXT
  5
389
100
AcDbEntity
  8
2
  6
CONTINUOUS
 62
     2
100
AcDbText
 10
99.15
 20
92.35
 30
0.0
 40
3.5
  1
φ
 50
90.0
 41
0.96
  7
EXCADSTD
 72
     5
 11
99.15
 21
95.55
 31
0.0
100
AcDbText
  0
TEXT
  5
38A
100
AcDbEntity
  8
2
  6
CONTINUOUS
 62
     2
100
AcDbText
 10
99.15
 20
95.75
 30
0.0
 40
3.5
  1
^J１４
 50
90.0
 41
0.57854
  7
EXCADSTD
 72
     5
 11
99.15
 21
102.55
 31
0.0
100
AcDbText
  0
TEXT
  5
38B
100
AcDbEntity
  8
2
  6
CONTINUOUS
 62
     2
100
AcDbText
 10
99.15
 20
101.95
 30
0.0
 40
3.5
  1
^J
 50
90.0
 41
0.0
  7
EXCADSTD
 72
     5
 11
99.15
 21
101.95
 31
0.0
100
AcDbText
  0
LINE
  5
38C
100
AcDbEntity
  8
2
  6
CONTINUOUS
 62
     3
100
AcDbLine
 10
99.5
 20
92.1
 30
0.0
 11
99.5
 21
113.775
 31
0.0
  0
LINE
  5
38D
100
AcDbEntity
  8
2
  6
CONTINUOUS
 62
     3
100
AcDbLine
 10
100.0
 20
101.065
 30
0.0
 11
99.5
 21
104.065
 31
0.0
  0
LINE
  5
38E
100
AcDbEntity
  8
2
  6
CONTINUOUS
 62
     3
100
AcDbLine
 10
99.5
 20
104.065
 30
0.0
 11
99.0
 21
101.065
 31
0.0
  0
LINE
  5
38F
100
AcDbEntity
  8
2
  6
CONTINUOUS
 62
     3
100
AcDbLine
 10
99.0
 20
113.275
 30
0.0
 11
99.5
 21
110.275
 31
0.0
  0
LINE
  5
390
100
AcDbEntity
  8
2
  6
CONTINUOUS
 62
     3
100
AcDbLine
 10
99.5
 20
110.275
 30
0.0
 11
100.0
 21
113.275
 31
0.0
  0
LINE
  5
391
100
AcDbEntity
  8
2
  6
CONTINUOUS
 62
     3
100
AcDbLine
 10
127.345
 20
170.16
 30
0.0
 11
139.3
 21
170.16
 31
0.0
  0
LINE
  5
392
100
AcDbEntity
  8
2
  6
CONTINUOUS
 62
     3
100
AcDbLine
 10
127.345
 20
91.42
 30
0.0
 11
139.3
 21
91.42
 31
0.0
  0
LINE
  5
393
100
AcDbEntity
  8
2
  6
CONTINUOUS
 62
     3
100
AcDbLine
 10
118.116057
 20
115.954715
 30
0.0
 11
118.116057
 21
123.9
 31
0.0
  0
LINE
  5
394
100
AcDbEntity
  8
2
  6
CONTINUOUS
 62
     3
100
AcDbLine
 10
130.573943
 20
115.954715
 30
0.0
 11
130.573943
 21
123.9
 31
0.0
  0
LINE
  5
395
100
AcDbEntity
  8
2
  6
CONTINUOUS
 62
     3
100
AcDbLine
 10
194.5175
 20
102.67
 30
0.0
 11
198.0
 21
102.67
 31
0.0
  0
LINE
  5
396
100
AcDbEntity
  8
2
  6
CONTINUOUS
 62
     3
100
AcDbLine
 10
194.5175
 20
111.67
 30
0.0
 11
198.0
 21
111.67
 31
0.0
  0
CIRCLE
  5
397
100
AcDbEntity
  8
LAY-4
  6
CONTINUOUS
 62
     6
100
AcDbCircle
 10
109.9
 20
163.4
 30
0.0
 40
4.5
  0
TEXT
  5
398
100
AcDbEntity
  8
LAY-4
  6
CONTINUOUS
 62
     2
100
AcDbText
 10
106.718019
 20
160.218019
 30
0.0
 40
6.363961
  1
１
 41
0.84
  7
EXCADSTD
 72
     5
 11
111.809188
 21
160.218019
 31
0.0
100
AcDbText
  0
CIRCLE
  5
399
100
AcDbEntity
  8
LAY-4
  6
CONTINUOUS
 62
     6
100
AcDbCircle
 10
48.79
 20
163.4
 30
0.0
 40
4.5
  0
TEXT
  5
39A
100
AcDbEntity
  8
LAY-4
  6
CONTINUOUS
 62
     2
100
AcDbText
 10
45.608019
 20
160.218019
 30
0.0
 40
6.363961
  1
２
 41
0.84
  7
EXCADSTD
 72
     5
 11
50.699188
 21
160.218019
 31
0.0
100
AcDbText
  0
CIRCLE
  5
39B
100
AcDbEntity
  8
LAY-4
  6
CONTINUOUS
 62
     6
100
AcDbCircle
 10
94.7
 20
163.4
 30
0.0
 40
4.5
  0
TEXT
  5
39C
100
AcDbEntity
  8
LAY-4
  6
CONTINUOUS
 62
     2
100
AcDbText
 10
91.518019
 20
160.218019
 30
0.0
 40
6.363961
  1
３
 41
0.84
  7
EXCADSTD
 72
     5
 11
96.609188
 21
160.218019
 31
0.0
100
AcDbText
  0
CIRCLE
  5
39D
100
AcDbEntity
  8
LAY-4
  6
CONTINUOUS
 62
     6
100
AcDbCircle
 10
137.3
 20
215.1
 30
0.0
 40
4.5
  0
TEXT
  5
39E
100
AcDbEntity
  8
LAY-4
  6
CONTINUOUS
 62
     2
100
AcDbText
 10
134.118019
 20
211.918019
 30
0.0
 40
6.363961
  1
４
 41
0.84
  7
EXCADSTD
 72
     5
 11
139.209188
 21
211.918019
 31
0.0
100
AcDbText
  0
LEADER
  5
39F
100
AcDbEntity
  8
LAY-4
  6
CONTINUOUS
 62
     6
100
AcDbLeader
  3
STANDARD
 73
     3
 74
     1
 75
     0
 40
0.0
 76
     2
 10
119.220948
 20
171.241949
 30
0.0
 10
113.343423
 20
166.297039
 30
0.0
 77
     6
1001
ACAD
1000
DSTYLE
1002
{
1070
    41
1040
3.0
1070
     5
1000
_EX_NORM
1070
     6
1000
_EX_NORM
1070
     7
1000
_EX_NORM
1070
   341
1005
28
1002
}
  0
LEADER
  5
3A0
100
AcDbEntity
  8
LAY-4
  6
CONTINUOUS
 62
     6
100
AcDbLeader
  3
STANDARD
 73
     3
 74
     1
 75
     0
 40
0.0
 76
     2
 10
99.8
 20
175.155
 30
0.0
 10
96.491057
 20
167.52821
 30
0.0
 77
     6
1001
ACAD
1000
DSTYLE
1002
{
1070
    41
1040
3.0
1070
     5
1000
_EX_NORM
1070
     6
1000
_EX_NORM
1070
     7
1000
_EX_NORM
1070
   341
1005
28
1002
}
  0
LEADER
  5
3A1
100
AcDbEntity
  8
LAY-4
  6
CONTINUOUS
 62
     6
100
AcDbLeader
  3
STANDARD
 73
     3
 74
     1
 75
     0
 40
0.0
 76
     2
 10
39.543308
 20
171.355049
 30
0.0
 10
45.378694
 20
166.33479
 30
0.0
 77
     6
1001
ACAD
1000
DSTYLE
1002
{
1070
    41
1040
3.0
1070
     5
1000
_EX_NORM
1070
     6
1000
_EX_NORM
1070
     7
1000
_EX_NORM
1070
   341
1005
28
1002
}
  0
LEADER
  5
3A2
100
AcDbEntity
  8
LAY-4
  6
CONTINUOUS
 62
     6
100
AcDbLeader
  3
STANDARD
 73
     3
 74
     1
 75
     0
 40
0.0
 76
     2
 10
125.245
 20
208.194305
 30
0.0
 10
133.395297
 20
212.863195
 30
0.0
 77
     6
1001
ACAD
1000
DSTYLE
1002
{
1070
    41
1040
3.0
1070
     5
1000
_EX_NORM
1070
     6
1000
_EX_NORM
1070
     7
1000
_EX_NORM
1070
   341
1005
28
1002
}
  0
LINE
  5
3A3
100
AcDbEntity
  8
LAY-4
  6
CONTINUOUS
 62
     6
100
AcDbLine
 10
115.51
 20
214.87
 30
0.0
 11
103.39
 21
214.87
 31
0.0
  0
TEXT
  5
3A4
100
AcDbEntity
  8
LAY-4
  6
CONTINUOUS
 62
     2
100
AcDbText
 10
103.19
 20
215.22
 30
0.0
 40
3.5
  1
４×３０
 41
0.78
  7
EXCADSTD
 72
     5
 11
116.19
 21
215.22
 31
0.0
100
AcDbText
  0
LEADER
  5
3A5
100
AcDbEntity
  8
LAY-4
  6
CONTINUOUS
 62
     6
100
AcDbLeader
  3
STANDARD
 73
     3
 74
     1
 75
     0
 40
0.0
 76
     2
 10
123.445
 20
211.010695
 30
0.0
 10
115.51
 20
214.87
 30
0.0
 77
     6
1001
ACAD
1000
DSTYLE
1002
{
1070
    41
1040
3.5
1070
     5
1000
_EX_NORM
1070
     6
1000
_EX_NORM
1070
     7
1000
_EX_NORM
1070
   341
1005
28
1002
}
  0
TEXT
  5
3A6
100
AcDbEntity
  8
LAY-4
  6
CONTINUOUS
 62
     2
100
AcDbText
 10
56.4
 20
33.5
 30
0.0
 40
4.75
  1
※品番末尾にカラー記号を付す。（例：ＮＡ４９１Ｖ　ＢＮ８）
 41
0.669256
  7
EXCADSTD
 72
     5
 11
166.15
 21
33.5
 31
0.0
100
AcDbText
  0
ENDSEC
  0
SECTION
  2
OBJECTS
  0
DICTIONARY
  5
19
100
AcDbDictionary
  3
ACAD_GROUP
350
1A
  3
ACAD_MLINESTYLE
350
1B
  0
DICTIONARY
  5
1A
102
{ACAD_REACTORS
330
19
102
}
100
AcDbDictionary
  0
DICTIONARY
  5
1B
102
{ACAD_REACTORS
330
19
102
}
100
AcDbDictionary
  3
STANDARD
350
1C
  0
MLINESTYLE
  5
1C
102
{ACAD_REACTORS
330
1B
102
}
100
AcDbMlineStyle
  2
Standard
 70
     0
  3

 62
     0
 51
90.0
 52
90.0
 71
     2
 49
0.5
 62
   256
  6
ByLayer
 49
-0.5
 62
   256
  6
ByLayer
  0
ENDSEC
  0
EOF
