  0
SECTION
  2
HEADER
  9
$ACADVER
  1
AC1014
  9
$ACADMAINTVER
 70
     0
  9
$DWGCODEPAGE
  3
ANSI_932
  9
$INSBASE
 10
0.0
 20
0.0
 30
0.0
  9
$EXTMIN
 10
-2.0
 20
8.5
 30
0.0
  9
$EXTMAX
 10
200.0
 20
288.5
 30
0.0
  9
$LIMMIN
 10
0.0
 20
0.0
  9
$LIMMAX
 10
210.0
 20
297.0
  9
$ORTHOMODE
 70
     0
  9
$REGENMODE
 70
     1
  9
$FILLMODE
 70
     1
  9
$QTEXTMODE
 70
     0
  9
$MIRRTEXT
 70
     1
  9
$DRAGMODE
 70
     2
  9
$LTSCALE
 40
1.0
  9
$OSMODE
 70
     0
  9
$ATTMODE
 70
     1
  9
$TEXTSIZE
 40
0.2
  9
$TRACEWID
 40
0.05
  9
$TEXTSTYLE
  7
STANDARD
  9
$CLAYER
  8
_
  9
$CELTYPE
  6
CONTINUOUS
  9
$CECOLOR
 62
   256
  9
$CELTSCALE
 40
1.0
  9
$DELOBJ
 70
     1
  9
$DISPSILH
 70
     0
  9
$DIMSCALE
 40
1.0
  9
$DIMASZ
 40
0.18
  9
$DIMEXO
 40
0.0625
  9
$DIMDLI
 40
0.38
  9
$DIMRND
 40
0.0
  9
$DIMDLE
 40
0.0
  9
$DIMEXE
 40
0.18
  9
$DIMTP
 40
0.0
  9
$DIMTM
 40
0.0
  9
$DIMTXT
 40
0.18
  9
$DIMCEN
 40
0.09
  9
$DIMTSZ
 40
0.0
  9
$DIMTOL
 70
     0
  9
$DIMLIM
 70
     0
  9
$DIMTIH
 70
     1
  9
$DIMTOH
 70
     1
  9
$DIMSE1
 70
     0
  9
$DIMSE2
 70
     0
  9
$DIMTAD
 70
     0
  9
$DIMZIN
 70
     0
  9
$DIMBLK
  1

  9
$DIMASO
 70
     1
  9
$DIMSHO
 70
     1
  9
$DIMPOST
  1

  9
$DIMAPOST
  1

  9
$DIMALT
 70
     0
  9
$DIMALTD
 70
     2
  9
$DIMALTF
 40
25.4
  9
$DIMLFAC
 40
1.0
  9
$DIMTOFL
 70
     0
  9
$DIMTVP
 40
0.0
  9
$DIMTIX
 70
     0
  9
$DIMSOXD
 70
     0
  9
$DIMSAH
 70
     0
  9
$DIMBLK1
  1

  9
$DIMBLK2
  1

  9
$DIMSTYLE
  2
STANDARD
  9
$DIMCLRD
 70
     0
  9
$DIMCLRE
 70
     0
  9
$DIMCLRT
 70
     0
  9
$DIMTFAC
 40
1.0
  9
$DIMGAP
 40
0.09
  9
$DIMJUST
 70
     0
  9
$DIMSD1
 70
     0
  9
$DIMSD2
 70
     0
  9
$DIMTOLJ
 70
     1
  9
$DIMTZIN
 70
     0
  9
$DIMALTZ
 70
     0
  9
$DIMALTTZ
 70
     0
  9
$DIMFIT
 70
     3
  9
$DIMUPT
 70
     0
  9
$DIMUNIT
 70
     2
  9
$DIMDEC
 70
     4
  9
$DIMTDEC
 70
     4
  9
$DIMALTU
 70
     2
  9
$DIMALTTD
 70
     2
  9
$DIMTXSTY
  7
STANDARD
  9
$DIMAUNIT
 70
     0
  9
$LUNITS
 70
     2
  9
$LUPREC
 70
     4
  9
$SKETCHINC
 40
0.1
  9
$FILLETRAD
 40
0.0
  9
$AUNITS
 70
     0
  9
$AUPREC
 70
     0
  9
$MENU
  1
acad
  9
$ELEVATION
 40
0.0
  9
$PELEVATION
 40
0.0
  9
$THICKNESS
 40
0.0
  9
$LIMCHECK
 70
     0
  9
$BLIPMODE
 70
     1
  9
$CHAMFERA
 40
0.0
  9
$CHAMFERB
 40
0.0
  9
$CHAMFERC
 40
0.0
  9
$CHAMFERD
 40
0.0
  9
$SKPOLY
 70
     0
  9
$TDCREATE
 40
2454518.656542685
  9
$TDUPDATE
 40
2454518.656542685
  9
$TDINDWG
 40
0.0000000000
  9
$TDUSRTIMER
 40
0.0000000000
  9
$USRTIMER
 70
     1
  9
$ANGBASE
 50
0.0
  9
$ANGDIR
 70
     0
  9
$PDMODE
 70
     0
  9
$PDSIZE
 40
0.0
  9
$PLINEWID
 40
0.0
  9
$COORDS
 70
     1
  9
$SPLFRAME
 70
     0
  9
$SPLINETYPE
 70
     6
  9
$SPLINESEGS
 70
     8
  9
$ATTDIA
 70
     0
  9
$ATTREQ
 70
     1
  9
$HANDLING
 70
     1
  9
$HANDSEED
  5
536
  9
$SURFTAB1
 70
     6
  9
$SURFTAB2
 70
     6
  9
$SURFTYPE
 70
     6
  9
$SURFU
 70
     6
  9
$SURFV
 70
     6
  9
$UCSNAME
  2

  9
$UCSORG
 10
0.0
 20
0.0
 30
0.0
  9
$UCSXDIR
 10
1.0
 20
0.0
 30
0.0
  9
$UCSYDIR
 10
0.0
 20
1.0
 30
0.0
  9
$PUCSNAME
  2

  9
$PUCSORG
 10
0.0
 20
0.0
 30
0.0
  9
$PUCSXDIR
 10
1.0
 20
0.0
 30
0.0
  9
$PUCSYDIR
 10
0.0
 20
1.0
 30
0.0
  9
$USERI1
 70
     0
  9
$USERI2
 70
     0
  9
$USERI3
 70
     0
  9
$USERI4
 70
     0
  9
$USERI5
 70
     0
  9
$USERR1
 40
0.0
  9
$USERR2
 40
0.0
  9
$USERR3
 40
0.0
  9
$USERR4
 40
0.0
  9
$USERR5
 40
0.0
  9
$WORLDVIEW
 70
     1
  9
$SHADEDGE
 70
     3
  9
$SHADEDIF
 70
    70
  9
$TILEMODE
 70
     1
  9
$MAXACTVP
 70
    16
  9
$PINSBASE
 10
0.0
 20
0.0
 30
0.0
  9
$PLIMCHECK
 70
     0
  9
$PEXTMIN
 10
1.000000E+20
 20
1.000000E+20
 30
1.000000E+20
  9
$PEXTMAX
 10
-1.000000E+20
 20
-1.000000E+20
 30
-1.000000E+20
  9
$PLIMMIN
 10
0.0
 20
0.0
  9
$PLIMMAX
 10
12.0
 20
9.0
  9
$UNITMODE
 70
     0
  9
$VISRETAIN
 70
     0
  9
$PLINEGEN
 70
     1
  9
$PSLTSCALE
 70
     0
  9
$TREEDEPTH
 70
  3020
  9
$PICKSTYLE
 70
     1
  9
$CMLSTYLE
  2
Standard
  9
$CMLJUST
 70
     0
  9
$CMLSCALE
 40
1.0
  9
$PROXYGRAPHICS
 70
     0
  9
$MEASUREMENT
 70
     0
  0
ENDSEC
  0
SECTION
  2
CLASSES
  0
CLASS
  1
LWPOLYLINE
  2
AcDbPolyline
  3
"AutoCAD"
 90
        0
280
     0
281
     1
  0
CLASS
  1
IMAGE
  2
AcDbRasterImage
  3
ISM
 90
      127
280
     0
281
     1
  0
CLASS
  1
OLE2FRAME
  2
AcDbOle2Frame
  3
""
 90
        0
280
     0
281
     1
  0
CLASS
  1
HATCH
  2
AcDbHatch
  3
"ACAD_SEDONA"
 90
        0
280
     0
281
     1
  0
CLASS
  1
DICTIONARYVAR
  2
AcDbDictionaryVar
  3
"AutoCAD"
 90
        0
280
     0
281
     0
  0
CLASS
  1
RASTERVARIABLES
  2
AcDbRasterVariables
  3
ISM
 90
        0
280
     0
281
     0
  0
CLASS
  1
IMAGEDEF
  2
AcDbRasterImageDef
  3
ISM
 90
        0
280
     0
281
     0
  0
CLASS
  1
IMAGEDEF_REACTOR
  2
AcDbRasterImageDefReactor
  3
ISM
 90
        1
280
     0
281
     0
  0
CLASS
  1
IDBUFFER
  2
AcDbIdBuffer
  3
"Acad"
 90
        0
280
     0
281
     0
  0
CLASS
  1
SPATIAL_FILTER
  2
AcDbSpatialFilter
  3
"Acad"
 90
        0
280
     0
281
     0
  0
CLASS
  1
XRECORD
  2
AcDbXrecord
  3
"<Built In>"
 90
        0
280
     0
281
     0
  0
CLASS
  1
SORTENTSTABLE
  2
AcDbSortentsTable
  3
"AutoCAD"
 90
        0
280
     0
281
     0
  0
CLASS
  1
LAYER_INDEX
  2
AcDbLayerIndex
  3
"Acad"
 90
        0
280
     0
281
     0
  0
CLASS
  1
SPATIAL_INDEX
  2
AcDbSpatialIndex
  3
"Acad"
 90
        0
280
     0
281
     0
  0
CLASS
  1
OBJECT_PTR
  2
CAseDLPNTableRecord
  3
"ASE-LPNTableRecord"
 90
        1
280
     0
281
     0
  0
CLASS
  1
LAYOUT
  2
AcDbLayout
  3
"AutoCAD 2000"
 90
        1
280
     0
281
     0
  0
CLASS
  1
PLOTSETTINGS
  2
AcDbPlotSettings
  3
"AutoCAD 2000"
 90
        1
280
     0
281
     0
  0
CLASS
  1
ACDBDICTIONARYWDFLT
  2
AcDbDictionaryWithDefault
  3
"AutoCAD 2000"
 90
        1
280
     0
281
     0
  0
CLASS
  1
ACDBPLACEHOLDER
  2
AcDbPlaceHolder
  3
"AutoCAD 2000"
 90
        1
280
     0
281
     0
  0
CLASS
  1
VBA_PROJECT
  2
AcDbVbaProject
  3
"acadvba"
 90
        1
280
     0
281
     0
  0
CLASS
  1
WIPEOUT
  2
AcDbWipeout
  3
WipeOut|AutoCAD Express Tool|expresstools@autodesk.com
 90
      127
280
     0
281
     1
  0
CLASS
  1
WIPEOUTVARIABLES
  2
AcDbWipeoutVariables
  3
WipeOut|AutoCAD Express Tool|expresstools@autodesk.com
 90
        0
280
     0
281
     0
  0
CLASS
  1
RTEXT
  2
RText
  3
RText|AutoCAD Express Tool|expresstools@autodesk.com
 90
        0
280
     0
281
     1
  0
CLASS
  1
ARCALIGNEDTEXT
  2
AcDbArcAlignedText
  3
ATEXT|AutoCAD Express Tool|expresstools@autodesk.com
 90
        0
280
     0
281
     1
  0
ENDSEC
  0
SECTION
  2
TABLES
  0
TABLE
  2
VPORT
  5
7
100
AcDbSymbolTable
 70
     1
  0
VPORT
  5
15
100
AcDbSymbolTableRecord
100
AcDbViewportTableRecord
  2
*ACTIVE
 70
     0
 10
0.0
 20
0.0
 11
1.0
 21
1.0
 12
198.0
 22
297.0
 13
0.0
 23
0.0
 14
1.0
 24
1.0
 15
0.0
 25
0.0
 16
0.0
 26
0.0
 36
1.0
 17
0.0
 27
0.0
 37
0.0
 40
560.0
 41
1.722533
 42
50.0
 43
0.0
 44
0.0
 50
0.0
 51
0.0
 71
     0
 72
   100
 73
     1
 74
     1
 75
     0
 76
     0
 77
     0
 78
     0
  0
ENDTAB
  0
TABLE
  2
LTYPE
  5
4
100
AcDbSymbolTable
 70
     9
  0
LTYPE
  5
11
100
AcDbSymbolTableRecord
100
AcDbLinetypeTableRecord
  2
BYBLOCK
 70
    64
  3

 72
    65
 73
     0
 40
0.0
  0
LTYPE
  5
12
100
AcDbSymbolTableRecord
100
AcDbLinetypeTableRecord
  2
BYLAYER
 70
    64
  3

 72
    65
 73
     0
 40
0.0
  0
LTYPE
  5
13
100
AcDbSymbolTableRecord
100
AcDbLinetypeTableRecord
  2
CONTINUOUS
 70
    64
  3
実線
 72
    65
 73
     0
 40
0.0
  0
LTYPE
  5
1D
100
AcDbSymbolTableRecord
100
AcDbLinetypeTableRecord
  2
EXLTYPE1
 70
    64
  3
破線
 72
    65
 73
     2
 40
3.0
 49
2.0
 74
     0
 49
-1.0
 74
     0
  0
LTYPE
  5
1E
100
AcDbSymbolTableRecord
100
AcDbLinetypeTableRecord
  2
EXLTYPE2
 70
    64
  3
点線
 72
    65
 73
     2
 40
2.0
 49
1.0
 74
     0
 49
-1.0
 74
     0
  0
LTYPE
  5
1F
100
AcDbSymbolTableRecord
100
AcDbLinetypeTableRecord
  2
EXLTYPE3
 70
    64
  3
一点鎖線
 72
    65
 73
     4
 40
10.0
 49
7.0
 74
     0
 49
-1.0
 74
     0
 49
1.0
 74
     0
 49
-1.0
 74
     0
  0
LTYPE
  5
20
100
AcDbSymbolTableRecord
100
AcDbLinetypeTableRecord
  2
EXLTYPE4
 70
    64
  3
二点鎖線
 72
    65
 73
     6
 40
12.0
 49
7.0
 74
     0
 49
-1.0
 74
     0
 49
1.0
 74
     0
 49
-1.0
 74
     0
 49
1.0
 74
     0
 49
-1.0
 74
     0
  0
LTYPE
  5
21
100
AcDbSymbolTableRecord
100
AcDbLinetypeTableRecord
  2
EXLTYPE5
 70
    64
  3
三点鎖線
 72
    65
 73
     8
 40
37.0
 49
30.0
 74
     0
 49
-1.0
 74
     0
 49
1.0
 74
     0
 49
-1.0
 74
     0
 49
1.0
 74
     0
 49
-1.0
 74
     0
 49
1.0
 74
     0
 49
-1.0
 74
     0
  0
LTYPE
  5
22
100
AcDbSymbolTableRecord
100
AcDbLinetypeTableRecord
  2
EXLTYPE6
 70
    64
  3
四点鎖線
 72
    65
 73
    10
 40
39.0
 49
30.0
 74
     0
 49
-1.0
 74
     0
 49
1.0
 74
     0
 49
-1.0
 74
     0
 49
1.0
 74
     0
 49
-1.0
 74
     0
 49
1.0
 74
     0
 49
-1.0
 74
     0
 49
1.0
 74
     0
 49
-1.0
 74
     0
  0
ENDTAB
  0
TABLE
  2
LAYER
  5
2
100
AcDbSymbolTable
 70
     4
  0
LAYER
  5
14
100
AcDbSymbolTableRecord
100
AcDbLayerTableRecord
  2
0
 70
     0
 62
     7
  6
CONTINUOUS
  0
LAYER
  5
25
100
AcDbSymbolTableRecord
100
AcDbLayerTableRecord
  2
_
 70
    64
 62
     7
  6
CONTINUOUS
  0
LAYER
  5
26
100
AcDbSymbolTableRecord
100
AcDbLayerTableRecord
  2
_2
 70
    64
 62
     7
  6
CONTINUOUS
  0
LAYER
  5
27
100
AcDbSymbolTableRecord
100
AcDbLayerTableRecord
  2
LAY-3
 70
    64
 62
     7
  6
CONTINUOUS
  0
ENDTAB
  0
TABLE
  2
STYLE
  5
3
100
AcDbSymbolTable
 70
     3
  0
STYLE
  5
17
100
AcDbSymbolTableRecord
100
AcDbTextStyleTableRecord
  2
STANDARD
 70
     0
 40
0.0
 41
1.0
 50
0.0
 71
     0
 42
0.0
  3
monotxt
  4
extfont
  0
STYLE
  5
23
100
AcDbSymbolTableRecord
100
AcDbTextStyleTableRecord
  2
EXCADSTD
 70
    64
 40
0.0
 41
1.0
 50
0.0
 71
     0
 42
0.2
  3
monotxt
  4
extfont
  0
STYLE
  5
24
100
AcDbSymbolTableRecord
100
AcDbTextStyleTableRecord
  2
EXCADVERT
 70
    68
 40
0.0
 41
1.0
 50
0.0
 71
     0
 42
0.286885
  3
monotxt
  4
extfont
  0
ENDTAB
  0
TABLE
  2
VIEW
  5
5
100
AcDbSymbolTable
 70
     0
  0
ENDTAB
  0
TABLE
  2
UCS
  5
6
100
AcDbSymbolTable
 70
     0
  0
ENDTAB
  0
TABLE
  2
APPID
  5
8
100
AcDbSymbolTable
 70
     1
  0
APPID
  5
16
100
AcDbSymbolTableRecord
100
AcDbRegAppTableRecord
  2
ACAD
 70
     0
  0
ENDTAB
  0
TABLE
  2
DIMSTYLE
  5
9
100
AcDbSymbolTable
 70
     1
  0
DIMSTYLE
105
18
100
AcDbSymbolTableRecord
100
AcDbDimStyleTableRecord
  2
STANDARD
 70
     0
  3

  4

  5

  6

  7

 40
1.0
 41
0.18
 42
0.0625
 43
0.38
 44
0.18
 45
0.0
 46
0.0
 47
0.0
 48
0.0
 71
     0
 72
     0
 73
     1
 74
     1
 75
     0
 76
     0
 77
     0
 78
     0
140
0.18
141
0.09
142
0.0
143
25.4
144
1.0
145
0.0
146
1.0
147
0.09
170
     0
171
     2
172
     1
173
     0
174
     0
175
     0
176
     0
177
     0
178
     0
270
     2
271
     4
272
     4
273
     2
274
     2
275
     0
280
     0
281
     0
282
     0
283
     1
284
     0
285
     0
286
     0
287
     0
288
     0
340
17
  0
ENDTAB
  0
TABLE
  2
BLOCK_RECORD
  5
1
100
AcDbSymbolTable
 70
    14
  0
BLOCK_RECORD
  5
A
100
AcDbSymbolTableRecord
100
AcDbBlockTableRecord
  2
*MODEL_SPACE
  0
BLOCK_RECORD
  5
B
100
AcDbSymbolTableRecord
100
AcDbBlockTableRecord
  2
*PAPER_SPACE
  0
BLOCK_RECORD
  5
28
100
AcDbSymbolTableRecord
100
AcDbBlockTableRecord
  2
_EX_NORM
  0
BLOCK_RECORD
  5
29
100
AcDbSymbolTableRecord
100
AcDbBlockTableRecord
  2
_EX_BNORM
  0
BLOCK_RECORD
  5
2A
100
AcDbSymbolTableRecord
100
AcDbBlockTableRecord
  2
_EX_BCIR
  0
BLOCK_RECORD
  5
2B
100
AcDbSymbolTableRecord
100
AcDbBlockTableRecord
  2
_EX_RCIVIL
  0
BLOCK_RECORD
  5
2C
100
AcDbSymbolTableRecord
100
AcDbBlockTableRecord
  2
_EX_SLANT
  0
BLOCK_RECORD
  5
2D
100
AcDbSymbolTableRecord
100
AcDbBlockTableRecord
  2
_EX_NONE
  0
BLOCK_RECORD
  5
2E
100
AcDbSymbolTableRecord
100
AcDbBlockTableRecord
  2
_EX_CIVIL
  0
BLOCK_RECORD
  5
2F
100
AcDbSymbolTableRecord
100
AcDbBlockTableRecord
  2
_EX_WCIR
  0
BLOCK_RECORD
  5
30
100
AcDbSymbolTableRecord
100
AcDbBlockTableRecord
  2
_EX_WCIR2
  0
BLOCK_RECORD
  5
31
100
AcDbSymbolTableRecord
100
AcDbBlockTableRecord
  2
_EX_WNORM
  0
BLOCK_RECORD
  5
32
100
AcDbSymbolTableRecord
100
AcDbBlockTableRecord
  2
_EX_NNORM
  0
BLOCK_RECORD
  5
33
100
AcDbSymbolTableRecord
100
AcDbBlockTableRecord
  2
_EX_BBOX
  0
BLOCK_RECORD
  5
34
100
AcDbSymbolTableRecord
100
AcDbBlockTableRecord
  2
_EX_WBOX
  0
BLOCK_RECORD
  5
35
100
AcDbSymbolTableRecord
100
AcDbBlockTableRecord
  2
_EX_INTEGRAL
  0
ENDTAB
  0
ENDSEC
  0
SECTION
  2
BLOCKS
  0
BLOCK
  5
D
100
AcDbEntity
  8
0
100
AcDbBlockBegin
  2
*MODEL_SPACE
 70
     0
 10
0.0
 20
0.0
 30
0.0
  3
*MODEL_SPACE
  1

  0
ENDBLK
  5
E
100
AcDbEntity
  8
0
100
AcDbBlockEnd
  0
BLOCK
  5
F
100
AcDbEntity
 67
     1
  8
0
100
AcDbBlockBegin
  2
*PAPER_SPACE
 70
     0
 10
0.0
 20
0.0
 30
0.0
  3
*PAPER_SPACE
  1

  0
ENDBLK
  5
10
100
AcDbEntity
 67
     1
  8
0
100
AcDbBlockEnd
  0
BLOCK
  5
36
100
AcDbEntity
  8
0
100
AcDbBlockBegin
  2
_EX_NORM
 70
     0
 10
0.0
 20
0.0
 30
0.0
  3
_EX_NORM
  1

  0
LINE
  5
37
100
AcDbEntity
  8
0
  6
CONTINUOUS
 62
     0
100
AcDbLine
 10
0.0
 20
0.0
 30
0.0
 11
-1.0
 21
0.0
 31
0.0
  0
LINE
  5
38
100
AcDbEntity
  8
0
  6
CONTINUOUS
 62
     0
100
AcDbLine
 10
0.0
 20
0.0
 30
0.0
 11
-1.0
 21
0.166667
 31
0.0
  0
LINE
  5
39
100
AcDbEntity
  8
0
  6
CONTINUOUS
 62
     0
100
AcDbLine
 10
0.0
 20
0.0
 30
0.0
 11
-1.0
 21
-0.166667
 31
0.0
  0
ENDBLK
  5
3A
100
AcDbEntity
  8
0
100
AcDbBlockEnd
  0
BLOCK
  5
3B
100
AcDbEntity
  8
0
100
AcDbBlockBegin
  2
_EX_BNORM
 70
     0
 10
0.0
 20
0.0
 30
0.0
  3
_EX_BNORM
  1

  0
LINE
  5
3C
100
AcDbEntity
  8
0
  6
CONTINUOUS
 62
     0
100
AcDbLine
 10
0.0
 20
0.0
 30
0.0
 11
-1.0
 21
0.0
 31
0.0
  0
LINE
  5
3D
100
AcDbEntity
  8
0
  6
CONTINUOUS
 62
     0
100
AcDbLine
 10
0.0
 20
0.0
 30
0.0
 11
-1.0
 21
0.166667
 31
0.0
  0
LINE
  5
3E
100
AcDbEntity
  8
0
  6
CONTINUOUS
 62
     0
100
AcDbLine
 10
0.0
 20
0.0
 30
0.0
 11
-1.0
 21
-0.166667
 31
0.0
  0
LINE
  5
3F
100
AcDbEntity
  8
0
  6
CONTINUOUS
 62
     0
100
AcDbLine
 10
0.0
 20
0.0
 30
0.0
 11
-1.0
 21
0.083333
 31
0.0
  0
LINE
  5
40
100
AcDbEntity
  8
0
  6
CONTINUOUS
 62
     0
100
AcDbLine
 10
0.0
 20
0.0
 30
0.0
 11
-1.0
 21
-0.083333
 31
0.0
  0
LINE
  5
41
100
AcDbEntity
  8
0
  6
CONTINUOUS
 62
     0
100
AcDbLine
 10
-1.0
 20
0.166667
 30
0.0
 11
-1.0
 21
-0.166667
 31
0.0
  0
ENDBLK
  5
42
100
AcDbEntity
  8
0
100
AcDbBlockEnd
  0
BLOCK
  5
43
100
AcDbEntity
  8
0
100
AcDbBlockBegin
  2
_EX_BCIR
 70
     0
 10
0.0
 20
0.0
 30
0.0
  3
_EX_BCIR
  1

  0
LINE
  5
44
100
AcDbEntity
  8
0
  6
CONTINUOUS
 62
     0
100
AcDbLine
 10
0.0
 20
0.0
 30
0.0
 11
-1.0
 21
0.0
 31
0.0
  0
CIRCLE
  5
45
100
AcDbEntity
  8
0
  6
CONTINUOUS
 62
     0
100
AcDbCircle
 10
0.0
 20
0.0
 30
0.0
 40
0.5
  0
CIRCLE
  5
46
100
AcDbEntity
  8
0
  6
CONTINUOUS
 62
     0
100
AcDbCircle
 10
0.0
 20
0.0
 30
0.0
 40
0.25
  0
ENDBLK
  5
47
100
AcDbEntity
  8
0
100
AcDbBlockEnd
  0
BLOCK
  5
48
100
AcDbEntity
  8
0
100
AcDbBlockBegin
  2
_EX_RCIVIL
 70
     0
 10
0.0
 20
0.0
 30
0.0
  3
_EX_RCIVIL
  1

  0
LINE
  5
49
100
AcDbEntity
  8
0
  6
CONTINUOUS
 62
     0
100
AcDbLine
 10
0.0
 20
0.0
 30
0.0
 11
-1.0
 21
0.0
 31
0.0
  0
LINE
  5
4A
100
AcDbEntity
  8
0
  6
CONTINUOUS
 62
     0
100
AcDbLine
 10
-1.0
 20
-0.25
 30
0.0
 11
0.0
 21
-0.25
 31
0.0
  0
LINE
  5
4B
100
AcDbEntity
  8
0
  6
CONTINUOUS
 62
     0
100
AcDbLine
 10
-1.0
 20
-0.125
 30
0.0
 11
0.0
 21
-0.125
 31
0.0
  0
ENDBLK
  5
4C
100
AcDbEntity
  8
0
100
AcDbBlockEnd
  0
BLOCK
  5
4D
100
AcDbEntity
  8
0
100
AcDbBlockBegin
  2
_EX_SLANT
 70
     0
 10
0.0
 20
0.0
 30
0.0
  3
_EX_SLANT
  1

  0
LINE
  5
4E
100
AcDbEntity
  8
0
  6
CONTINUOUS
 62
     0
100
AcDbLine
 10
0.0
 20
0.0
 30
0.0
 11
-1.0
 21
0.0
 31
0.0
  0
LINE
  5
4F
100
AcDbEntity
  8
0
  6
CONTINUOUS
 62
     0
100
AcDbLine
 10
0.707107
 20
0.707107
 30
0.0
 11
-0.707107
 21
-0.707107
 31
0.0
  0
ENDBLK
  5
50
100
AcDbEntity
  8
0
100
AcDbBlockEnd
  0
BLOCK
  5
51
100
AcDbEntity
  8
0
100
AcDbBlockBegin
  2
_EX_NONE
 70
     0
 10
0.0
 20
0.0
 30
0.0
  3
_EX_NONE
  1

  0
LINE
  5
52
100
AcDbEntity
  8
0
  6
CONTINUOUS
 62
     0
100
AcDbLine
 10
0.0
 20
0.0
 30
0.0
 11
-1.0
 21
0.0
 31
0.0
  0
ENDBLK
  5
53
100
AcDbEntity
  8
0
100
AcDbBlockEnd
  0
BLOCK
  5
54
100
AcDbEntity
  8
0
100
AcDbBlockBegin
  2
_EX_CIVIL
 70
     0
 10
0.0
 20
0.0
 30
0.0
  3
_EX_CIVIL
  1

  0
LINE
  5
55
100
AcDbEntity
  8
0
  6
CONTINUOUS
 62
     0
100
AcDbLine
 10
0.0
 20
0.0
 30
0.0
 11
-1.0
 21
0.0
 31
0.0
  0
LINE
  5
56
100
AcDbEntity
  8
0
  6
CONTINUOUS
 62
     0
100
AcDbLine
 10
-1.0
 20
0.25
 30
0.0
 11
0.0
 21
0.25
 31
0.0
  0
LINE
  5
57
100
AcDbEntity
  8
0
  6
CONTINUOUS
 62
     0
100
AcDbLine
 10
-1.0
 20
0.125
 30
0.0
 11
0.0
 21
0.125
 31
0.0
  0
ENDBLK
  5
58
100
AcDbEntity
  8
0
100
AcDbBlockEnd
  0
BLOCK
  5
59
100
AcDbEntity
  8
0
100
AcDbBlockBegin
  2
_EX_WCIR
 70
     0
 10
0.0
 20
0.0
 30
0.0
  3
_EX_WCIR
  1

  0
LINE
  5
5A
100
AcDbEntity
  8
0
  6
CONTINUOUS
 62
     0
100
AcDbLine
 10
0.0
 20
0.0
 30
0.0
 11
-1.0
 21
0.0
 31
0.0
  0
CIRCLE
  5
5B
100
AcDbEntity
  8
0
  6
CONTINUOUS
 62
     0
100
AcDbCircle
 10
0.0
 20
0.0
 30
0.0
 40
0.5
  0
ENDBLK
  5
5C
100
AcDbEntity
  8
0
100
AcDbBlockEnd
  0
BLOCK
  5
5D
100
AcDbEntity
  8
0
100
AcDbBlockBegin
  2
_EX_WCIR2
 70
     0
 10
0.0
 20
0.0
 30
0.0
  3
_EX_WCIR2
  1

  0
LINE
  5
5E
100
AcDbEntity
  8
0
  6
CONTINUOUS
 62
     0
100
AcDbLine
 10
-0.5
 20
0.0
 30
0.0
 11
-1.0
 21
0.0
 31
0.0
  0
CIRCLE
  5
5F
100
AcDbEntity
  8
0
  6
CONTINUOUS
 62
     0
100
AcDbCircle
 10
0.0
 20
0.0
 30
0.0
 40
0.5
  0
ENDBLK
  5
60
100
AcDbEntity
  8
0
100
AcDbBlockEnd
  0
BLOCK
  5
61
100
AcDbEntity
  8
0
100
AcDbBlockBegin
  2
_EX_WNORM
 70
     0
 10
0.0
 20
0.0
 30
0.0
  3
_EX_WNORM
  1

  0
LINE
  5
62
100
AcDbEntity
  8
0
  6
CONTINUOUS
 62
     0
100
AcDbLine
 10
-1.0
 20
0.0
 30
0.0
 11
-1.0
 21
0.0
 31
0.0
  0
LINE
  5
63
100
AcDbEntity
  8
0
  6
CONTINUOUS
 62
     0
100
AcDbLine
 10
0.0
 20
0.0
 30
0.0
 11
-1.0
 21
0.166667
 31
0.0
  0
LINE
  5
64
100
AcDbEntity
  8
0
  6
CONTINUOUS
 62
     0
100
AcDbLine
 10
0.0
 20
0.0
 30
0.0
 11
-1.0
 21
-0.166667
 31
0.0
  0
LINE
  5
65
100
AcDbEntity
  8
0
  6
CONTINUOUS
 62
     0
100
AcDbLine
 10
-1.0
 20
0.166667
 30
0.0
 11
-1.0
 21
-0.166667
 31
0.0
  0
ENDBLK
  5
66
100
AcDbEntity
  8
0
100
AcDbBlockEnd
  0
BLOCK
  5
67
100
AcDbEntity
  8
0
100
AcDbBlockBegin
  2
_EX_NNORM
 70
     0
 10
0.0
 20
0.0
 30
0.0
  3
_EX_NNORM
  1

  0
LINE
  5
68
100
AcDbEntity
  8
0
  6
CONTINUOUS
 62
     0
100
AcDbLine
 10
0.0
 20
0.0
 30
0.0
 11
-1.0
 21
0.0
 31
0.0
  0
LINE
  5
69
100
AcDbEntity
  8
0
  6
CONTINUOUS
 62
     0
100
AcDbLine
 10
0.0
 20
0.0
 30
0.0
 11
-1.0
 21
0.166667
 31
0.0
  0
LINE
  5
6A
100
AcDbEntity
  8
0
  6
CONTINUOUS
 62
     0
100
AcDbLine
 10
0.0
 20
0.0
 30
0.0
 11
-1.0
 21
-0.166667
 31
0.0
  0
LINE
  5
6B
100
AcDbEntity
  8
0
  6
CONTINUOUS
 62
     0
100
AcDbLine
 10
-1.0
 20
0.166667
 30
0.0
 11
-1.0
 21
-0.166667
 31
0.0
  0
ENDBLK
  5
6C
100
AcDbEntity
  8
0
100
AcDbBlockEnd
  0
BLOCK
  5
6D
100
AcDbEntity
  8
0
100
AcDbBlockBegin
  2
_EX_BBOX
 70
     0
 10
0.0
 20
0.0
 30
0.0
  3
_EX_BBOX
  1

  0
LINE
  5
6E
100
AcDbEntity
  8
0
  6
CONTINUOUS
 62
     0
100
AcDbLine
 10
0.0
 20
0.0
 30
0.0
 11
-1.0
 21
0.0
 31
0.0
  0
LINE
  5
6F
100
AcDbEntity
  8
0
  6
CONTINUOUS
 62
     0
100
AcDbLine
 10
-0.5
 20
0.5
 30
0.0
 11
0.5
 21
0.5
 31
0.0
  0
LINE
  5
70
100
AcDbEntity
  8
0
  6
CONTINUOUS
 62
     0
100
AcDbLine
 10
0.5
 20
0.5
 30
0.0
 11
0.5
 21
-0.5
 31
0.0
  0
LINE
  5
71
100
AcDbEntity
  8
0
  6
CONTINUOUS
 62
     0
100
AcDbLine
 10
0.5
 20
-0.5
 30
0.0
 11
-0.5
 21
-0.5
 31
0.0
  0
LINE
  5
72
100
AcDbEntity
  8
0
  6
CONTINUOUS
 62
     0
100
AcDbLine
 10
-0.5
 20
-0.5
 30
0.0
 11
-0.5
 21
0.5
 31
0.0
  0
LINE
  5
73
100
AcDbEntity
  8
0
  6
CONTINUOUS
 62
     0
100
AcDbLine
 10
-0.25
 20
0.25
 30
0.0
 11
0.25
 21
0.25
 31
0.0
  0
LINE
  5
74
100
AcDbEntity
  8
0
  6
CONTINUOUS
 62
     0
100
AcDbLine
 10
0.25
 20
0.25
 30
0.0
 11
0.25
 21
-0.25
 31
0.0
  0
LINE
  5
75
100
AcDbEntity
  8
0
  6
CONTINUOUS
 62
     0
100
AcDbLine
 10
0.25
 20
-0.25
 30
0.0
 11
-0.25
 21
-0.25
 31
0.0
  0
LINE
  5
76
100
AcDbEntity
  8
0
  6
CONTINUOUS
 62
     0
100
AcDbLine
 10
-0.25
 20
-0.25
 30
0.0
 11
-0.25
 21
0.25
 31
0.0
  0
ENDBLK
  5
77
100
AcDbEntity
  8
0
100
AcDbBlockEnd
  0
BLOCK
  5
78
100
AcDbEntity
  8
0
100
AcDbBlockBegin
  2
_EX_WBOX
 70
     0
 10
0.0
 20
0.0
 30
0.0
  3
_EX_WBOX
  1

  0
LINE
  5
79
100
AcDbEntity
  8
0
  6
CONTINUOUS
 62
     0
100
AcDbLine
 10
-0.5
 20
0.0
 30
0.0
 11
-1.0
 21
0.0
 31
0.0
  0
LINE
  5
7A
100
AcDbEntity
  8
0
  6
CONTINUOUS
 62
     0
100
AcDbLine
 10
-0.5
 20
0.5
 30
0.0
 11
0.5
 21
0.5
 31
0.0
  0
LINE
  5
7B
100
AcDbEntity
  8
0
  6
CONTINUOUS
 62
     0
100
AcDbLine
 10
0.5
 20
0.5
 30
0.0
 11
0.5
 21
-0.5
 31
0.0
  0
LINE
  5
7C
100
AcDbEntity
  8
0
  6
CONTINUOUS
 62
     0
100
AcDbLine
 10
0.5
 20
-0.5
 30
0.0
 11
-0.5
 21
-0.5
 31
0.0
  0
LINE
  5
7D
100
AcDbEntity
  8
0
  6
CONTINUOUS
 62
     0
100
AcDbLine
 10
-0.5
 20
-0.5
 30
0.0
 11
-0.5
 21
0.5
 31
0.0
  0
ENDBLK
  5
7E
100
AcDbEntity
  8
0
100
AcDbBlockEnd
  0
BLOCK
  5
7F
100
AcDbEntity
  8
0
100
AcDbBlockBegin
  2
_EX_INTEGRAL
 70
     0
 10
0.0
 20
0.0
 30
0.0
  3
_EX_INTEGRAL
  1

  0
LINE
  5
80
100
AcDbEntity
  8
0
  6
CONTINUOUS
 62
     0
100
AcDbLine
 10
0.0
 20
0.0
 30
0.0
 11
-1.0
 21
0.0
 31
0.0
  0
ARC
  5
81
100
AcDbEntity
  8
0
  6
CONTINUOUS
 62
     0
100
AcDbCircle
 10
0.542115
 20
0.164992
 30
0.0
 40
0.56667
100
AcDbArc
 50
73.07249
 51
196.927513
  0
ARC
  5
82
100
AcDbEntity
  8
0
  6
CONTINUOUS
 62
     0
100
AcDbCircle
 10
-0.542115
 20
-0.164992
 30
0.0
 40
0.56667
100
AcDbArc
 50
253.072487
 51
16.927513
  0
ENDBLK
  5
83
100
AcDbEntity
  8
0
100
AcDbBlockEnd
  0
ENDSEC
  0
SECTION
  2
ENTITIES
  0
TEXT
  5
84
100
AcDbEntity
  8
LAY-3
  6
CONTINUOUS
 62
     2
100
AcDbText
 10
258.3
 20
533.5
 30
0.0
 40
8.0
  1
８
 50
90.0
 41
0.945
  7
EXCADSTD
 72
     5
 11
258.3
 21
540.7
 31
0.0
100
AcDbText
  0
LINE
  5
85
100
AcDbEntity
  8
LAY-3
  6
CONTINUOUS
 62
     3
100
AcDbLine
 10
259.0
 20
551.0
 30
0.0
 11
259.0
 21
525.0
 31
0.0
  0
LINE
  5
86
100
AcDbEntity
  8
LAY-3
  6
CONTINUOUS
 62
     3
100
AcDbLine
 10
257.833333
 20
549.0
 30
0.0
 11
259.0
 21
542.0
 31
0.0
  0
LINE
  5
87
100
AcDbEntity
  8
LAY-3
  6
CONTINUOUS
 62
     3
100
AcDbLine
 10
259.0
 20
542.0
 30
0.0
 11
260.166667
 21
549.0
 31
0.0
  0
LINE
  5
88
100
AcDbEntity
  8
LAY-3
  6
CONTINUOUS
 62
     3
100
AcDbLine
 10
260.166667
 20
527.0
 30
0.0
 11
259.0
 21
534.0
 31
0.0
  0
LINE
  5
89
100
AcDbEntity
  8
LAY-3
  6
CONTINUOUS
 62
     3
100
AcDbLine
 10
259.0
 20
534.0
 30
0.0
 11
257.833333
 21
527.0
 31
0.0
  0
TEXT
  5
8A
100
AcDbEntity
  8
LAY-3
  6
CONTINUOUS
 62
     2
100
AcDbText
 10
246.3
 20
519.8
 30
0.0
 40
8.0
  1
２８
 50
90.0
 41
0.861
  7
EXCADSTD
 72
     5
 11
246.3
 21
534.83224
 31
0.0
100
AcDbText
  0
LINE
  5
8B
100
AcDbEntity
  8
LAY-3
  6
CONTINUOUS
 62
     3
100
AcDbLine
 10
247.0
 20
542.0
 30
0.0
 11
247.0
 21
514.0
 31
0.0
  0
LINE
  5
8C
100
AcDbEntity
  8
LAY-3
  6
CONTINUOUS
 62
     3
100
AcDbLine
 10
248.166667
 20
535.0
 30
0.0
 11
247.0
 21
542.0
 31
0.0
  0
LINE
  5
8D
100
AcDbEntity
  8
LAY-3
  6
CONTINUOUS
 62
     3
100
AcDbLine
 10
247.0
 20
542.0
 30
0.0
 11
245.833333
 21
535.0
 31
0.0
  0
LINE
  5
8E
100
AcDbEntity
  8
LAY-3
  6
CONTINUOUS
 62
     3
100
AcDbLine
 10
245.833333
 20
521.0
 30
0.0
 11
247.0
 21
514.0
 31
0.0
  0
LINE
  5
8F
100
AcDbEntity
  8
LAY-3
  6
CONTINUOUS
 62
     3
100
AcDbLine
 10
247.0
 20
514.0
 30
0.0
 11
248.166667
 21
521.0
 31
0.0
  0
TEXT
  5
90
100
AcDbEntity
  8
LAY-3
  6
CONTINUOUS
 62
     2
100
AcDbText
 10
277.8
 20
492.1
 30
0.0
 40
8.0
  1
３０
 41
0.861
  7
EXCADSTD
 72
     5
 11
292.83224
 21
492.1
 31
0.0
100
AcDbText
  0
LINE
  5
91
100
AcDbEntity
  8
LAY-3
  6
CONTINUOUS
 62
     3
100
AcDbLine
 10
271.0
 20
491.4
 30
0.0
 11
301.0
 21
491.4
 31
0.0
  0
LINE
  5
92
100
AcDbEntity
  8
LAY-3
  6
CONTINUOUS
 62
     3
100
AcDbLine
 10
278.0
 20
492.566667
 30
0.0
 11
271.0
 21
491.4
 31
0.0
  0
LINE
  5
93
100
AcDbEntity
  8
LAY-3
  6
CONTINUOUS
 62
     3
100
AcDbLine
 10
271.0
 20
491.4
 30
0.0
 11
278.0
 21
490.233333
 31
0.0
  0
LINE
  5
94
100
AcDbEntity
  8
LAY-3
  6
CONTINUOUS
 62
     3
100
AcDbLine
 10
294.0
 20
490.233333
 30
0.0
 11
301.0
 21
491.4
 31
0.0
  0
LINE
  5
95
100
AcDbEntity
  8
LAY-3
  6
CONTINUOUS
 62
     3
100
AcDbLine
 10
301.0
 20
491.4
 30
0.0
 11
294.0
 21
492.566667
 31
0.0
  0
TEXT
  5
96
100
AcDbEntity
  8
LAY-3
  6
CONTINUOUS
 62
     2
100
AcDbText
 10
297.4
 20
519.8
 30
0.0
 40
8.0
  1
１８
 50
90.0
 41
0.861
  7
EXCADSTD
 72
     5
 11
297.4
 21
534.83224
 31
0.0
100
AcDbText
  0
LINE
  5
97
100
AcDbEntity
  8
LAY-3
  6
CONTINUOUS
 62
     3
100
AcDbLine
 10
298.1
 20
537.0
 30
0.0
 11
298.1
 21
519.0
 31
0.0
  0
LINE
  5
98
100
AcDbEntity
  8
LAY-3
  6
CONTINUOUS
 62
     3
100
AcDbLine
 10
299.266667
 20
530.0
 30
0.0
 11
298.1
 21
537.0
 31
0.0
  0
LINE
  5
99
100
AcDbEntity
  8
LAY-3
  6
CONTINUOUS
 62
     3
100
AcDbLine
 10
298.1
 20
537.0
 30
0.0
 11
296.933333
 21
530.0
 31
0.0
  0
LINE
  5
9A
100
AcDbEntity
  8
LAY-3
  6
CONTINUOUS
 62
     3
100
AcDbLine
 10
296.933333
 20
526.0
 30
0.0
 11
298.1
 21
519.0
 31
0.0
  0
LINE
  5
9B
100
AcDbEntity
  8
LAY-3
  6
CONTINUOUS
 62
     3
100
AcDbLine
 10
298.1
 20
519.0
 30
0.0
 11
299.266667
 21
526.0
 31
0.0
  0
TEXT
  5
9C
100
AcDbEntity
  8
LAY-3
  6
CONTINUOUS
 62
     2
100
AcDbText
 10
297.4
 20
500.7
 30
0.0
 40
8.0
  1
５
 50
90.0
 41
0.945
  7
EXCADSTD
 72
     5
 11
297.4
 21
507.9
 31
0.0
100
AcDbText
  0
LINE
  5
9D
100
AcDbEntity
  8
LAY-3
  6
CONTINUOUS
 62
     3
100
AcDbLine
 10
298.1
 20
528.0
 30
0.0
 11
298.1
 21
502.4
 31
0.0
  0
LINE
  5
9E
100
AcDbEntity
  8
LAY-3
  6
CONTINUOUS
 62
     3
100
AcDbLine
 10
296.933333
 20
526.0
 30
0.0
 11
298.1
 21
519.0
 31
0.0
  0
LINE
  5
9F
100
AcDbEntity
  8
LAY-3
  6
CONTINUOUS
 62
     3
100
AcDbLine
 10
298.1
 20
519.0
 30
0.0
 11
299.266667
 21
526.0
 31
0.0
  0
LINE
  5
A0
100
AcDbEntity
  8
LAY-3
  6
CONTINUOUS
 62
     3
100
AcDbLine
 10
299.266667
 20
507.0
 30
0.0
 11
298.1
 21
514.0
 31
0.0
  0
LINE
  5
A1
100
AcDbEntity
  8
LAY-3
  6
CONTINUOUS
 62
     3
100
AcDbLine
 10
298.1
 20
514.0
 30
0.0
 11
296.933333
 21
507.0
 31
0.0
  0
LINE
  5
A2
100
AcDbEntity
  8
LAY-3
  6
CONTINUOUS
 62
     3
100
AcDbLine
 10
46.0
 20
553.0
 30
0.0
 11
314.0
 21
553.0
 31
0.0
  0
LINE
  5
A3
100
AcDbEntity
  8
LAY-3
  6
CONTINUOUS
 62
     3
100
AcDbLine
 10
53.0
 20
554.166667
 30
0.0
 11
46.0
 21
553.0
 31
0.0
  0
LINE
  5
A4
100
AcDbEntity
  8
LAY-3
  6
CONTINUOUS
 62
     3
100
AcDbLine
 10
46.0
 20
553.0
 30
0.0
 11
53.0
 21
551.833333
 31
0.0
  0
LINE
  5
A5
100
AcDbEntity
  8
LAY-3
  6
CONTINUOUS
 62
     3
100
AcDbLine
 10
307.0
 20
551.833333
 30
0.0
 11
314.0
 21
553.0
 31
0.0
  0
LINE
  5
A6
100
AcDbEntity
  8
LAY-3
  6
CONTINUOUS
 62
     3
100
AcDbLine
 10
314.0
 20
553.0
 30
0.0
 11
307.0
 21
554.166667
 31
0.0
  0
TEXT
  5
A7
100
AcDbEntity
  8
LAY-3
  6
CONTINUOUS
 62
     2
100
AcDbText
 10
168.1
 20
553.7
 30
0.0
 40
8.0
  1
３５６
 41
0.833
  7
EXCADSTD
 72
     5
 11
191.9
 21
553.7
 31
0.0
100
AcDbText
  0
TEXT
  5
A8
100
AcDbEntity
  8
LAY-3
  6
CONTINUOUS
 62
     2
100
AcDbText
 10
355.2
 20
277.7
 30
0.0
 40
8.0
  1
５
 41
0.945
  7
EXCADSTD
 72
     5
 11
362.4
 21
277.7
 31
0.0
100
AcDbText
  0
LINE
  5
A9
100
AcDbEntity
  8
LAY-3
  6
CONTINUOUS
 62
     3
100
AcDbLine
 10
335.0
 20
277.0
 30
0.0
 11
361.9
 21
277.0
 31
0.0
  0
LINE
  5
AA
100
AcDbEntity
  8
LAY-3
  6
CONTINUOUS
 62
     3
100
AcDbLine
 10
337.0
 20
275.833333
 30
0.0
 11
344.0
 21
277.0
 31
0.0
  0
LINE
  5
AB
100
AcDbEntity
  8
LAY-3
  6
CONTINUOUS
 62
     3
100
AcDbLine
 10
344.0
 20
277.0
 30
0.0
 11
337.0
 21
278.166667
 31
0.0
  0
LINE
  5
AC
100
AcDbEntity
  8
LAY-3
  6
CONTINUOUS
 62
     3
100
AcDbLine
 10
356.0
 20
278.166667
 30
0.0
 11
349.0
 21
277.0
 31
0.0
  0
LINE
  5
AD
100
AcDbEntity
  8
LAY-3
  6
CONTINUOUS
 62
     3
100
AcDbLine
 10
349.0
 20
277.0
 30
0.0
 11
356.0
 21
275.833333
 31
0.0
  0
LINE
  5
AE
100
AcDbEntity
  8
LAY-3
  6
CONTINUOUS
 62
     3
100
AcDbLine
 10
301.74
 20
519.0
 30
0.0
 11
286.0
 21
519.0
 31
0.0
  0
LINE
  5
AF
100
AcDbEntity
  8
LAY-3
  6
CONTINUOUS
 62
     6
100
AcDbLine
 10
286.0
 20
529.1
 30
0.0
 11
286.0
 21
540.5
 31
0.0
  0
LINE
  5
B0
100
AcDbEntity
  8
LAY-3
  6
CONTINUOUS
 62
     6
100
AcDbLine
 10
286.0
 20
517.0
 30
0.0
 11
286.0
 21
522.7
 31
0.0
  0
LINE
  5
B1
100
AcDbEntity
  8
LAY-3
  6
CONTINUOUS
 62
     6
100
AcDbLine
 10
286.0
 20
525.1
 30
0.0
 11
286.0
 21
526.7
 31
0.0
  0
LINE
  5
B2
100
AcDbEntity
  8
LAY-3
  6
CONTINUOUS
 62
     6
100
AcDbLine
 10
286.0
 20
95.6
 30
0.0
 11
286.0
 21
107.0
 31
0.0
  0
LINE
  5
B3
100
AcDbEntity
  8
LAY-3
  6
CONTINUOUS
 62
     6
100
AcDbLine
 10
286.0
 20
83.5
 30
0.0
 11
286.0
 21
89.2
 31
0.0
  0
LINE
  5
B4
100
AcDbEntity
  8
LAY-3
  6
CONTINUOUS
 62
     6
100
AcDbLine
 10
286.0
 20
91.6
 30
0.0
 11
286.0
 21
93.2
 31
0.0
  0
LINE
  5
B5
100
AcDbEntity
  8
LAY-3
  6
CONTINUOUS
 62
     6
100
AcDbLine
 10
74.0
 20
95.6
 30
0.0
 11
74.0
 21
107.0
 31
0.0
  0
LINE
  5
B6
100
AcDbEntity
  8
LAY-3
  6
CONTINUOUS
 62
     6
100
AcDbLine
 10
74.0
 20
83.5
 30
0.0
 11
74.0
 21
89.2
 31
0.0
  0
LINE
  5
B7
100
AcDbEntity
  8
LAY-3
  6
CONTINUOUS
 62
     6
100
AcDbLine
 10
74.0
 20
91.6
 30
0.0
 11
74.0
 21
93.2
 31
0.0
  0
TEXT
  5
B8
100
AcDbEntity
  8
LAY-3
  6
CONTINUOUS
 62
     2
100
AcDbText
 10
329.3
 20
300.6
 30
0.0
 40
8.0
  1
４５７
 50
90.0
 41
0.833
  7
EXCADSTD
 72
     5
 11
329.3
 21
324.4
 31
0.0
100
AcDbText
  0
LINE
  5
B9
100
AcDbEntity
  8
LAY-3
  6
CONTINUOUS
 62
     3
100
AcDbLine
 10
330.0
 20
541.0
 30
0.0
 11
330.0
 21
84.0
 31
0.0
  0
LINE
  5
BA
100
AcDbEntity
  8
LAY-3
  6
CONTINUOUS
 62
     3
100
AcDbLine
 10
331.166667
 20
534.0
 30
0.0
 11
330.0
 21
541.0
 31
0.0
  0
LINE
  5
BB
100
AcDbEntity
  8
LAY-3
  6
CONTINUOUS
 62
     3
100
AcDbLine
 10
330.0
 20
541.0
 30
0.0
 11
328.833333
 21
534.0
 31
0.0
  0
LINE
  5
BC
100
AcDbEntity
  8
LAY-3
  6
CONTINUOUS
 62
     3
100
AcDbLine
 10
328.833333
 20
91.0
 30
0.0
 11
330.0
 21
84.0
 31
0.0
  0
LINE
  5
BD
100
AcDbEntity
  8
LAY-3
  6
CONTINUOUS
 62
     3
100
AcDbLine
 10
330.0
 20
84.0
 30
0.0
 11
331.166667
 21
91.0
 31
0.0
  0
POLYLINE
  5
BE
100
AcDbEntity
  8
LAY-3
  6
CONTINUOUS
 62
     6
100
AcDb2dPolyline
 66
     1
 10
0.0
 20
0.0
 30
0.0
 70
   128
  0
VERTEX
  5
BF
100
AcDbEntity
  8
LAY-3
  6
CONTINUOUS
 62
     6
100
AcDbVertex
100
AcDb2dVertex
 10
176.829765
 20
547.0
 30
0.0
  0
VERTEX
  5
C0
100
AcDbEntity
  8
LAY-3
  6
CONTINUOUS
 62
     6
100
AcDbVertex
100
AcDb2dVertex
 10
176.741386
 20
546.620922
 30
0.0
  0
VERTEX
  5
C1
100
AcDbEntity
  8
LAY-3
  6
CONTINUOUS
 62
     6
100
AcDbVertex
100
AcDb2dVertex
 10
176.502092
 20
545.546724
 30
0.0
  0
VERTEX
  5
C2
100
AcDbEntity
  8
LAY-3
  6
CONTINUOUS
 62
     6
100
AcDbVertex
100
AcDb2dVertex
 10
176.150646
 20
543.87196
 30
0.0
  0
VERTEX
  5
C3
100
AcDbEntity
  8
LAY-3
  6
CONTINUOUS
 62
     6
100
AcDbVertex
100
AcDb2dVertex
 10
175.725811
 20
541.691182
 30
0.0
  0
VERTEX
  5
C4
100
AcDbEntity
  8
LAY-3
  6
CONTINUOUS
 62
     6
100
AcDbVertex
100
AcDb2dVertex
 10
175.26635
 20
539.098944
 30
0.0
  0
VERTEX
  5
C5
100
AcDbEntity
  8
LAY-3
  6
CONTINUOUS
 62
     6
100
AcDbVertex
100
AcDb2dVertex
 10
174.811028
 20
536.189799
 30
0.0
  0
VERTEX
  5
C6
100
AcDbEntity
  8
LAY-3
  6
CONTINUOUS
 62
     6
100
AcDbVertex
100
AcDb2dVertex
 10
174.398607
 20
533.058301
 30
0.0
  0
VERTEX
  5
C7
100
AcDbEntity
  8
LAY-3
  6
CONTINUOUS
 62
     6
100
AcDbVertex
100
AcDb2dVertex
 10
174.067851
 20
529.799003
 30
0.0
  0
VERTEX
  5
C8
100
AcDbEntity
  8
LAY-3
  6
CONTINUOUS
 62
     6
100
AcDbVertex
100
AcDb2dVertex
 10
173.857523
 20
526.506459
 30
0.0
  0
VERTEX
  5
C9
100
AcDbEntity
  8
LAY-3
  6
CONTINUOUS
 62
     6
100
AcDbVertex
100
AcDb2dVertex
 10
173.806386
 20
523.275221
 30
0.0
  0
VERTEX
  5
CA
100
AcDbEntity
  8
LAY-3
  6
CONTINUOUS
 62
     6
100
AcDbVertex
100
AcDb2dVertex
 10
173.953204
 20
520.199843
 30
0.0
  0
VERTEX
  5
CB
100
AcDbEntity
  8
LAY-3
  6
CONTINUOUS
 62
     6
100
AcDbVertex
100
AcDb2dVertex
 10
174.198229
 20
518.119403
 30
0.0
  0
VERTEX
  5
CC
100
AcDbEntity
  8
LAY-3
  6
CONTINUOUS
 62
     6
100
AcDbVertex
100
AcDb2dVertex
 10
174.544363
 20
516.154967
 30
0.0
  0
VERTEX
  5
CD
100
AcDbEntity
  8
LAY-3
  6
CONTINUOUS
 62
     6
100
AcDbVertex
100
AcDb2dVertex
 10
174.969092
 20
514.291765
 30
0.0
  0
VERTEX
  5
CE
100
AcDbEntity
  8
LAY-3
  6
CONTINUOUS
 62
     6
100
AcDbVertex
100
AcDb2dVertex
 10
175.449903
 20
512.515024
 30
0.0
  0
VERTEX
  5
CF
100
AcDbEntity
  8
LAY-3
  6
CONTINUOUS
 62
     6
100
AcDbVertex
100
AcDb2dVertex
 10
175.964281
 20
510.809973
 30
0.0
  0
VERTEX
  5
D0
100
AcDbEntity
  8
LAY-3
  6
CONTINUOUS
 62
     6
100
AcDbVertex
100
AcDb2dVertex
 10
176.489711
 20
509.16184
 30
0.0
  0
VERTEX
  5
D1
100
AcDbEntity
  8
LAY-3
  6
CONTINUOUS
 62
     6
100
AcDbVertex
100
AcDb2dVertex
 10
177.00368
 20
507.555854
 30
0.0
  0
VERTEX
  5
D2
100
AcDbEntity
  8
LAY-3
  6
CONTINUOUS
 62
     6
100
AcDbVertex
100
AcDb2dVertex
 10
177.483673
 20
505.977243
 30
0.0
  0
VERTEX
  5
D3
100
AcDbEntity
  8
LAY-3
  6
CONTINUOUS
 62
     6
100
AcDbVertex
100
AcDb2dVertex
 10
177.907176
 20
504.411236
 30
0.0
  0
VERTEX
  5
D4
100
AcDbEntity
  8
LAY-3
  6
CONTINUOUS
 62
     6
100
AcDbVertex
100
AcDb2dVertex
 10
178.251675
 20
502.843061
 30
0.0
  0
VERTEX
  5
D5
100
AcDbEntity
  8
LAY-3
  6
CONTINUOUS
 62
     6
100
AcDbVertex
100
AcDb2dVertex
 10
178.494655
 20
501.257946
 30
0.0
  0
VERTEX
  5
D6
100
AcDbEntity
  8
LAY-3
  6
CONTINUOUS
 62
     6
100
AcDbVertex
100
AcDb2dVertex
 10
178.640274
 20
498.705812
 30
0.0
  0
VERTEX
  5
D7
100
AcDbEntity
  8
LAY-3
  6
CONTINUOUS
 62
     6
100
AcDbVertex
100
AcDb2dVertex
 10
178.530052
 20
496.084386
 30
0.0
  0
VERTEX
  5
D8
100
AcDbEntity
  8
LAY-3
  6
CONTINUOUS
 62
     6
100
AcDbVertex
100
AcDb2dVertex
 10
178.21504
 20
493.402838
 30
0.0
  0
VERTEX
  5
D9
100
AcDbEntity
  8
LAY-3
  6
CONTINUOUS
 62
     6
100
AcDbVertex
100
AcDb2dVertex
 10
177.74629
 20
490.670338
 30
0.0
  0
VERTEX
  5
DA
100
AcDbEntity
  8
LAY-3
  6
CONTINUOUS
 62
     6
100
AcDbVertex
100
AcDb2dVertex
 10
177.174854
 20
487.896057
 30
0.0
  0
VERTEX
  5
DB
100
AcDbEntity
  8
LAY-3
  6
CONTINUOUS
 62
     6
100
AcDbVertex
100
AcDb2dVertex
 10
176.551782
 20
485.089166
 30
0.0
  0
VERTEX
  5
DC
100
AcDbEntity
  8
LAY-3
  6
CONTINUOUS
 62
     6
100
AcDbVertex
100
AcDb2dVertex
 10
175.928128
 20
482.258833
 30
0.0
  0
VERTEX
  5
DD
100
AcDbEntity
  8
LAY-3
  6
CONTINUOUS
 62
     6
100
AcDbVertex
100
AcDb2dVertex
 10
175.354941
 20
479.414231
 30
0.0
  0
VERTEX
  5
DE
100
AcDbEntity
  8
LAY-3
  6
CONTINUOUS
 62
     6
100
AcDbVertex
100
AcDb2dVertex
 10
174.883274
 20
476.564528
 30
0.0
  0
VERTEX
  5
DF
100
AcDbEntity
  8
LAY-3
  6
CONTINUOUS
 62
     6
100
AcDbVertex
100
AcDb2dVertex
 10
174.564179
 20
473.718895
 30
0.0
  0
VERTEX
  5
E0
100
AcDbEntity
  8
LAY-3
  6
CONTINUOUS
 62
     6
100
AcDbVertex
100
AcDb2dVertex
 10
174.448705
 20
470.886502
 30
0.0
  0
VERTEX
  5
E1
100
AcDbEntity
  8
LAY-3
  6
CONTINUOUS
 62
     6
100
AcDbVertex
100
AcDb2dVertex
 10
174.568763
 20
468.105104
 30
0.0
  0
VERTEX
  5
E2
100
AcDbEntity
  8
LAY-3
  6
CONTINUOUS
 62
     6
100
AcDbVertex
100
AcDb2dVertex
 10
174.890952
 20
465.343118
 30
0.0
  0
VERTEX
  5
E3
100
AcDbEntity
  8
LAY-3
  6
CONTINUOUS
 62
     6
100
AcDbVertex
100
AcDb2dVertex
 10
175.368251
 20
462.598032
 30
0.0
  0
VERTEX
  5
E4
100
AcDbEntity
  8
LAY-3
  6
CONTINUOUS
 62
     6
100
AcDbVertex
100
AcDb2dVertex
 10
175.95364
 20
459.867334
 30
0.0
  0
VERTEX
  5
E5
100
AcDbEntity
  8
LAY-3
  6
CONTINUOUS
 62
     6
100
AcDbVertex
100
AcDb2dVertex
 10
176.6001
 20
457.14851
 30
0.0
  0
VERTEX
  5
E6
100
AcDbEntity
  8
LAY-3
  6
CONTINUOUS
 62
     6
100
AcDbVertex
100
AcDb2dVertex
 10
177.260608
 20
454.439049
 30
0.0
  0
VERTEX
  5
E7
100
AcDbEntity
  8
LAY-3
  6
CONTINUOUS
 62
     6
100
AcDbVertex
100
AcDb2dVertex
 10
177.888145
 20
451.736438
 30
0.0
  0
VERTEX
  5
E8
100
AcDbEntity
  8
LAY-3
  6
CONTINUOUS
 62
     6
100
AcDbVertex
100
AcDb2dVertex
 10
178.435691
 20
449.038165
 30
0.0
  0
VERTEX
  5
E9
100
AcDbEntity
  8
LAY-3
  6
CONTINUOUS
 62
     6
100
AcDbVertex
100
AcDb2dVertex
 10
178.856224
 20
446.341717
 30
0.0
  0
VERTEX
  5
EA
100
AcDbEntity
  8
LAY-3
  6
CONTINUOUS
 62
     6
100
AcDbVertex
100
AcDb2dVertex
 10
179.102726
 20
443.644582
 30
0.0
  0
VERTEX
  5
EB
100
AcDbEntity
  8
LAY-3
  6
CONTINUOUS
 62
     6
100
AcDbVertex
100
AcDb2dVertex
 10
179.128174
 20
440.944248
 30
0.0
  0
VERTEX
  5
EC
100
AcDbEntity
  8
LAY-3
  6
CONTINUOUS
 62
     6
100
AcDbVertex
100
AcDb2dVertex
 10
178.925187
 20
438.420344
 30
0.0
  0
VERTEX
  5
ED
100
AcDbEntity
  8
LAY-3
  6
CONTINUOUS
 62
     6
100
AcDbVertex
100
AcDb2dVertex
 10
178.534926
 20
435.892361
 30
0.0
  0
VERTEX
  5
EE
100
AcDbEntity
  8
LAY-3
  6
CONTINUOUS
 62
     6
100
AcDbVertex
100
AcDb2dVertex
 10
178.00345
 20
433.361189
 30
0.0
  0
VERTEX
  5
EF
100
AcDbEntity
  8
LAY-3
  6
CONTINUOUS
 62
     6
100
AcDbVertex
100
AcDb2dVertex
 10
177.376816
 20
430.827721
 30
0.0
  0
VERTEX
  5
F0
100
AcDbEntity
  8
LAY-3
  6
CONTINUOUS
 62
     6
100
AcDbVertex
100
AcDb2dVertex
 10
176.701083
 20
428.292849
 30
0.0
  0
VERTEX
  5
F1
100
AcDbEntity
  8
LAY-3
  6
CONTINUOUS
 62
     6
100
AcDbVertex
100
AcDb2dVertex
 10
176.02231
 20
425.757464
 30
0.0
  0
VERTEX
  5
F2
100
AcDbEntity
  8
LAY-3
  6
CONTINUOUS
 62
     6
100
AcDbVertex
100
AcDb2dVertex
 10
175.386555
 20
423.222459
 30
0.0
  0
VERTEX
  5
F3
100
AcDbEntity
  8
LAY-3
  6
CONTINUOUS
 62
     6
100
AcDbVertex
100
AcDb2dVertex
 10
174.839877
 20
420.688725
 30
0.0
  0
VERTEX
  5
F4
100
AcDbEntity
  8
LAY-3
  6
CONTINUOUS
 62
     6
100
AcDbVertex
100
AcDb2dVertex
 10
174.428334
 20
418.157154
 30
0.0
  0
VERTEX
  5
F5
100
AcDbEntity
  8
LAY-3
  6
CONTINUOUS
 62
     6
100
AcDbVertex
100
AcDb2dVertex
 10
174.197986
 20
415.628637
 30
0.0
  0
VERTEX
  5
F6
100
AcDbEntity
  8
LAY-3
  6
CONTINUOUS
 62
     6
100
AcDbVertex
100
AcDb2dVertex
 10
174.194889
 20
413.104068
 30
0.0
  0
VERTEX
  5
F7
100
AcDbEntity
  8
LAY-3
  6
CONTINUOUS
 62
     6
100
AcDbVertex
100
AcDb2dVertex
 10
174.415351
 20
410.812272
 30
0.0
  0
VERTEX
  5
F8
100
AcDbEntity
  8
LAY-3
  6
CONTINUOUS
 62
     6
100
AcDbVertex
100
AcDb2dVertex
 10
174.819706
 20
408.523991
 30
0.0
  0
VERTEX
  5
F9
100
AcDbEntity
  8
LAY-3
  6
CONTINUOUS
 62
     6
100
AcDbVertex
100
AcDb2dVertex
 10
175.365829
 20
406.238737
 30
0.0
  0
VERTEX
  5
FA
100
AcDbEntity
  8
LAY-3
  6
CONTINUOUS
 62
     6
100
AcDbVertex
100
AcDb2dVertex
 10
176.011594
 20
403.956022
 30
0.0
  0
VERTEX
  5
FB
100
AcDbEntity
  8
LAY-3
  6
CONTINUOUS
 62
     6
100
AcDbVertex
100
AcDb2dVertex
 10
176.714876
 20
401.67536
 30
0.0
  0
VERTEX
  5
FC
100
AcDbEntity
  8
LAY-3
  6
CONTINUOUS
 62
     6
100
AcDbVertex
100
AcDb2dVertex
 10
177.43355
 20
399.396263
 30
0.0
  0
VERTEX
  5
FD
100
AcDbEntity
  8
LAY-3
  6
CONTINUOUS
 62
     6
100
AcDbVertex
100
AcDb2dVertex
 10
178.125492
 20
397.118244
 30
0.0
  0
VERTEX
  5
FE
100
AcDbEntity
  8
LAY-3
  6
CONTINUOUS
 62
     6
100
AcDbVertex
100
AcDb2dVertex
 10
178.748576
 20
394.840816
 30
0.0
  0
VERTEX
  5
FF
100
AcDbEntity
  8
LAY-3
  6
CONTINUOUS
 62
     6
100
AcDbVertex
100
AcDb2dVertex
 10
179.260676
 20
392.563491
 30
0.0
  0
VERTEX
  5
100
100
AcDbEntity
  8
LAY-3
  6
CONTINUOUS
 62
     6
100
AcDbVertex
100
AcDb2dVertex
 10
179.619669
 20
390.285784
 30
0.0
  0
VERTEX
  5
101
100
AcDbEntity
  8
LAY-3
  6
CONTINUOUS
 62
     6
100
AcDbVertex
100
AcDb2dVertex
 10
179.783428
 20
388.007205
 30
0.0
  0
VERTEX
  5
102
100
AcDbEntity
  8
LAY-3
  6
CONTINUOUS
 62
     6
100
AcDbVertex
100
AcDb2dVertex
 10
179.717734
 20
385.653086
 30
0.0
  0
VERTEX
  5
103
100
AcDbEntity
  8
LAY-3
  6
CONTINUOUS
 62
     6
100
AcDbVertex
100
AcDb2dVertex
 10
179.441224
 20
383.297384
 30
0.0
  0
VERTEX
  5
104
100
AcDbEntity
  8
LAY-3
  6
CONTINUOUS
 62
     6
100
AcDbVertex
100
AcDb2dVertex
 10
178.996146
 20
380.939965
 30
0.0
  0
VERTEX
  5
105
100
AcDbEntity
  8
LAY-3
  6
CONTINUOUS
 62
     6
100
AcDbVertex
100
AcDb2dVertex
 10
178.424748
 20
378.580693
 30
0.0
  0
VERTEX
  5
106
100
AcDbEntity
  8
LAY-3
  6
CONTINUOUS
 62
     6
100
AcDbVertex
100
AcDb2dVertex
 10
177.769278
 20
376.219433
 30
0.0
  0
VERTEX
  5
107
100
AcDbEntity
  8
LAY-3
  6
CONTINUOUS
 62
     6
100
AcDbVertex
100
AcDb2dVertex
 10
177.071984
 20
373.856051
 30
0.0
  0
VERTEX
  5
108
100
AcDbEntity
  8
LAY-3
  6
CONTINUOUS
 62
     6
100
AcDbVertex
100
AcDb2dVertex
 10
176.375113
 20
371.490411
 30
0.0
  0
VERTEX
  5
109
100
AcDbEntity
  8
LAY-3
  6
CONTINUOUS
 62
     6
100
AcDbVertex
100
AcDb2dVertex
 10
175.720914
 20
369.122378
 30
0.0
  0
VERTEX
  5
10A
100
AcDbEntity
  8
LAY-3
  6
CONTINUOUS
 62
     6
100
AcDbVertex
100
AcDb2dVertex
 10
175.151634
 20
366.751818
 30
0.0
  0
VERTEX
  5
10B
100
AcDbEntity
  8
LAY-3
  6
CONTINUOUS
 62
     6
100
AcDbVertex
100
AcDb2dVertex
 10
174.709522
 20
364.378596
 30
0.0
  0
VERTEX
  5
10C
100
AcDbEntity
  8
LAY-3
  6
CONTINUOUS
 62
     6
100
AcDbVertex
100
AcDb2dVertex
 10
174.436826
 20
362.002576
 30
0.0
  0
VERTEX
  5
10D
100
AcDbEntity
  8
LAY-3
  6
CONTINUOUS
 62
     6
100
AcDbVertex
100
AcDb2dVertex
 10
174.364247
 20
359.548275
 30
0.0
  0
VERTEX
  5
10E
100
AcDbEntity
  8
LAY-3
  6
CONTINUOUS
 62
     6
100
AcDbVertex
100
AcDb2dVertex
 10
174.482117
 20
357.091137
 30
0.0
  0
VERTEX
  5
10F
100
AcDbEntity
  8
LAY-3
  6
CONTINUOUS
 62
     6
100
AcDbVertex
100
AcDb2dVertex
 10
174.755597
 20
354.631444
 30
0.0
  0
VERTEX
  5
110
100
AcDbEntity
  8
LAY-3
  6
CONTINUOUS
 62
     6
100
AcDbVertex
100
AcDb2dVertex
 10
175.149848
 20
352.169481
 30
0.0
  0
VERTEX
  5
111
100
AcDbEntity
  8
LAY-3
  6
CONTINUOUS
 62
     6
100
AcDbVertex
100
AcDb2dVertex
 10
175.630031
 20
349.705531
 30
0.0
  0
VERTEX
  5
112
100
AcDbEntity
  8
LAY-3
  6
CONTINUOUS
 62
     6
100
AcDbVertex
100
AcDb2dVertex
 10
176.161307
 20
347.239878
 30
0.0
  0
VERTEX
  5
113
100
AcDbEntity
  8
LAY-3
  6
CONTINUOUS
 62
     6
100
AcDbVertex
100
AcDb2dVertex
 10
176.708838
 20
344.772805
 30
0.0
  0
VERTEX
  5
114
100
AcDbEntity
  8
LAY-3
  6
CONTINUOUS
 62
     6
100
AcDbVertex
100
AcDb2dVertex
 10
177.237784
 20
342.304596
 30
0.0
  0
VERTEX
  5
115
100
AcDbEntity
  8
LAY-3
  6
CONTINUOUS
 62
     6
100
AcDbVertex
100
AcDb2dVertex
 10
177.713306
 20
339.835534
 30
0.0
  0
VERTEX
  5
116
100
AcDbEntity
  8
LAY-3
  6
CONTINUOUS
 62
     6
100
AcDbVertex
100
AcDb2dVertex
 10
178.100566
 20
337.365903
 30
0.0
  0
VERTEX
  5
117
100
AcDbEntity
  8
LAY-3
  6
CONTINUOUS
 62
     6
100
AcDbVertex
100
AcDb2dVertex
 10
178.364724
 20
334.895987
 30
0.0
  0
VERTEX
  5
118
100
AcDbEntity
  8
LAY-3
  6
CONTINUOUS
 62
     6
100
AcDbVertex
100
AcDb2dVertex
 10
178.475619
 20
332.620454
 30
0.0
  0
VERTEX
  5
119
100
AcDbEntity
  8
LAY-3
  6
CONTINUOUS
 62
     6
100
AcDbVertex
100
AcDb2dVertex
 10
178.464222
 20
330.345146
 30
0.0
  0
VERTEX
  5
11A
100
AcDbEntity
  8
LAY-3
  6
CONTINUOUS
 62
     6
100
AcDbVertex
100
AcDb2dVertex
 10
178.342301
 20
328.070291
 30
0.0
  0
VERTEX
  5
11B
100
AcDbEntity
  8
LAY-3
  6
CONTINUOUS
 62
     6
100
AcDbVertex
100
AcDb2dVertex
 10
178.12162
 20
325.796116
 30
0.0
  0
VERTEX
  5
11C
100
AcDbEntity
  8
LAY-3
  6
CONTINUOUS
 62
     6
100
AcDbVertex
100
AcDb2dVertex
 10
177.813948
 20
323.522847
 30
0.0
  0
VERTEX
  5
11D
100
AcDbEntity
  8
LAY-3
  6
CONTINUOUS
 62
     6
100
AcDbVertex
100
AcDb2dVertex
 10
177.43105
 20
321.250713
 30
0.0
  0
VERTEX
  5
11E
100
AcDbEntity
  8
LAY-3
  6
CONTINUOUS
 62
     6
100
AcDbVertex
100
AcDb2dVertex
 10
176.984693
 20
318.97994
 30
0.0
  0
VERTEX
  5
11F
100
AcDbEntity
  8
LAY-3
  6
CONTINUOUS
 62
     6
100
AcDbVertex
100
AcDb2dVertex
 10
176.486643
 20
316.710755
 30
0.0
  0
VERTEX
  5
120
100
AcDbEntity
  8
LAY-3
  6
CONTINUOUS
 62
     6
100
AcDbVertex
100
AcDb2dVertex
 10
175.948666
 20
314.443385
 30
0.0
  0
VERTEX
  5
121
100
AcDbEntity
  8
LAY-3
  6
CONTINUOUS
 62
     6
100
AcDbVertex
100
AcDb2dVertex
 10
175.38253
 20
312.178058
 30
0.0
  0
VERTEX
  5
122
100
AcDbEntity
  8
LAY-3
  6
CONTINUOUS
 62
     6
100
AcDbVertex
100
AcDb2dVertex
 10
174.8
 20
309.915
 30
0.0
  0
VERTEX
  5
123
100
AcDbEntity
  8
LAY-3
  6
CONTINUOUS
 62
     6
100
AcDbVertex
100
AcDb2dVertex
 10
174.418854
 20
308.446016
 30
0.0
  0
VERTEX
  5
124
100
AcDbEntity
  8
LAY-3
  6
CONTINUOUS
 62
     6
100
AcDbVertex
100
AcDb2dVertex
 10
174.04216
 20
306.977921
 30
0.0
  0
VERTEX
  5
125
100
AcDbEntity
  8
LAY-3
  6
CONTINUOUS
 62
     6
100
AcDbVertex
100
AcDb2dVertex
 10
173.676323
 20
305.510549
 30
0.0
  0
VERTEX
  5
126
100
AcDbEntity
  8
LAY-3
  6
CONTINUOUS
 62
     6
100
AcDbVertex
100
AcDb2dVertex
 10
173.327748
 20
304.043735
 30
0.0
  0
VERTEX
  5
127
100
AcDbEntity
  8
LAY-3
  6
CONTINUOUS
 62
     6
100
AcDbVertex
100
AcDb2dVertex
 10
173.00284
 20
302.577313
 30
0.0
  0
VERTEX
  5
128
100
AcDbEntity
  8
LAY-3
  6
CONTINUOUS
 62
     6
100
AcDbVertex
100
AcDb2dVertex
 10
172.708004
 20
301.11112
 30
0.0
  0
VERTEX
  5
129
100
AcDbEntity
  8
LAY-3
  6
CONTINUOUS
 62
     6
100
AcDbVertex
100
AcDb2dVertex
 10
172.449645
 20
299.644988
 30
0.0
  0
VERTEX
  5
12A
100
AcDbEntity
  8
LAY-3
  6
CONTINUOUS
 62
     6
100
AcDbVertex
100
AcDb2dVertex
 10
172.234168
 20
298.178754
 30
0.0
  0
VERTEX
  5
12B
100
AcDbEntity
  8
LAY-3
  6
CONTINUOUS
 62
     6
100
AcDbVertex
100
AcDb2dVertex
 10
172.067978
 20
296.712251
 30
0.0
  0
VERTEX
  5
12C
100
AcDbEntity
  8
LAY-3
  6
CONTINUOUS
 62
     6
100
AcDbVertex
100
AcDb2dVertex
 10
171.95748
 20
295.245314
 30
0.0
  0
VERTEX
  5
12D
100
AcDbEntity
  8
LAY-3
  6
CONTINUOUS
 62
     6
100
AcDbVertex
100
AcDb2dVertex
 10
171.909079
 20
293.777779
 30
0.0
  0
VERTEX
  5
12E
100
AcDbEntity
  8
LAY-3
  6
CONTINUOUS
 62
     6
100
AcDbVertex
100
AcDb2dVertex
 10
172.00123
 20
290.919807
 30
0.0
  0
VERTEX
  5
12F
100
AcDbEntity
  8
LAY-3
  6
CONTINUOUS
 62
     6
100
AcDbVertex
100
AcDb2dVertex
 10
172.305124
 20
288.059193
 30
0.0
  0
VERTEX
  5
130
100
AcDbEntity
  8
LAY-3
  6
CONTINUOUS
 62
     6
100
AcDbVertex
100
AcDb2dVertex
 10
172.773086
 20
285.196188
 30
0.0
  0
VERTEX
  5
131
100
AcDbEntity
  8
LAY-3
  6
CONTINUOUS
 62
     6
100
AcDbVertex
100
AcDb2dVertex
 10
173.357437
 20
282.331045
 30
0.0
  0
VERTEX
  5
132
100
AcDbEntity
  8
LAY-3
  6
CONTINUOUS
 62
     6
100
AcDbVertex
100
AcDb2dVertex
 10
174.010502
 20
279.464014
 30
0.0
  0
VERTEX
  5
133
100
AcDbEntity
  8
LAY-3
  6
CONTINUOUS
 62
     6
100
AcDbVertex
100
AcDb2dVertex
 10
174.684602
 20
276.595347
 30
0.0
  0
VERTEX
  5
134
100
AcDbEntity
  8
LAY-3
  6
CONTINUOUS
 62
     6
100
AcDbVertex
100
AcDb2dVertex
 10
175.332061
 20
273.725296
 30
0.0
  0
VERTEX
  5
135
100
AcDbEntity
  8
LAY-3
  6
CONTINUOUS
 62
     6
100
AcDbVertex
100
AcDb2dVertex
 10
175.905202
 20
270.854113
 30
0.0
  0
VERTEX
  5
136
100
AcDbEntity
  8
LAY-3
  6
CONTINUOUS
 62
     6
100
AcDbVertex
100
AcDb2dVertex
 10
176.356347
 20
267.982048
 30
0.0
  0
VERTEX
  5
137
100
AcDbEntity
  8
LAY-3
  6
CONTINUOUS
 62
     6
100
AcDbVertex
100
AcDb2dVertex
 10
176.637821
 20
265.109355
 30
0.0
  0
VERTEX
  5
138
100
AcDbEntity
  8
LAY-3
  6
CONTINUOUS
 62
     6
100
AcDbVertex
100
AcDb2dVertex
 10
176.701945
 20
262.236283
 30
0.0
  0
VERTEX
  5
139
100
AcDbEntity
  8
LAY-3
  6
CONTINUOUS
 62
     6
100
AcDbVertex
100
AcDb2dVertex
 10
176.548947
 20
259.668459
 30
0.0
  0
VERTEX
  5
13A
100
AcDbEntity
  8
LAY-3
  6
CONTINUOUS
 62
     6
100
AcDbVertex
100
AcDb2dVertex
 10
176.225453
 20
257.100804
 30
0.0
  0
VERTEX
  5
13B
100
AcDbEntity
  8
LAY-3
  6
CONTINUOUS
 62
     6
100
AcDbVertex
100
AcDb2dVertex
 10
175.772652
 20
254.533588
 30
0.0
  0
VERTEX
  5
13C
100
AcDbEntity
  8
LAY-3
  6
CONTINUOUS
 62
     6
100
AcDbVertex
100
AcDb2dVertex
 10
175.231733
 20
251.967081
 30
0.0
  0
VERTEX
  5
13D
100
AcDbEntity
  8
LAY-3
  6
CONTINUOUS
 62
     6
100
AcDbVertex
100
AcDb2dVertex
 10
174.643886
 20
249.401552
 30
0.0
  0
VERTEX
  5
13E
100
AcDbEntity
  8
LAY-3
  6
CONTINUOUS
 62
     6
100
AcDbVertex
100
AcDb2dVertex
 10
174.050302
 20
246.837271
 30
0.0
  0
VERTEX
  5
13F
100
AcDbEntity
  8
LAY-3
  6
CONTINUOUS
 62
     6
100
AcDbVertex
100
AcDb2dVertex
 10
173.492168
 20
244.274508
 30
0.0
  0
VERTEX
  5
140
100
AcDbEntity
  8
LAY-3
  6
CONTINUOUS
 62
     6
100
AcDbVertex
100
AcDb2dVertex
 10
173.010676
 20
241.713533
 30
0.0
  0
VERTEX
  5
141
100
AcDbEntity
  8
LAY-3
  6
CONTINUOUS
 62
     6
100
AcDbVertex
100
AcDb2dVertex
 10
172.647014
 20
239.154616
 30
0.0
  0
VERTEX
  5
142
100
AcDbEntity
  8
LAY-3
  6
CONTINUOUS
 62
     6
100
AcDbVertex
100
AcDb2dVertex
 10
172.442373
 20
236.598026
 30
0.0
  0
VERTEX
  5
143
100
AcDbEntity
  8
LAY-3
  6
CONTINUOUS
 62
     6
100
AcDbVertex
100
AcDb2dVertex
 10
172.437942
 20
234.044034
 30
0.0
  0
VERTEX
  5
144
100
AcDbEntity
  8
LAY-3
  6
CONTINUOUS
 62
     6
100
AcDbVertex
100
AcDb2dVertex
 10
172.609377
 20
231.904199
 30
0.0
  0
VERTEX
  5
145
100
AcDbEntity
  8
LAY-3
  6
CONTINUOUS
 62
     6
100
AcDbVertex
100
AcDb2dVertex
 10
172.919327
 20
229.765981
 30
0.0
  0
VERTEX
  5
146
100
AcDbEntity
  8
LAY-3
  6
CONTINUOUS
 62
     6
100
AcDbVertex
100
AcDb2dVertex
 10
173.336515
 20
227.628984
 30
0.0
  0
VERTEX
  5
147
100
AcDbEntity
  8
LAY-3
  6
CONTINUOUS
 62
     6
100
AcDbVertex
100
AcDb2dVertex
 10
173.829666
 20
225.492808
 30
0.0
  0
VERTEX
  5
148
100
AcDbEntity
  8
LAY-3
  6
CONTINUOUS
 62
     6
100
AcDbVertex
100
AcDb2dVertex
 10
174.367505
 20
223.357054
 30
0.0
  0
VERTEX
  5
149
100
AcDbEntity
  8
LAY-3
  6
CONTINUOUS
 62
     6
100
AcDbVertex
100
AcDb2dVertex
 10
174.918755
 20
221.221325
 30
0.0
  0
VERTEX
  5
14A
100
AcDbEntity
  8
LAY-3
  6
CONTINUOUS
 62
     6
100
AcDbVertex
100
AcDb2dVertex
 10
175.45214
 20
219.085222
 30
0.0
  0
VERTEX
  5
14B
100
AcDbEntity
  8
LAY-3
  6
CONTINUOUS
 62
     6
100
AcDbVertex
100
AcDb2dVertex
 10
175.936385
 20
216.948346
 30
0.0
  0
VERTEX
  5
14C
100
AcDbEntity
  8
LAY-3
  6
CONTINUOUS
 62
     6
100
AcDbVertex
100
AcDb2dVertex
 10
176.340215
 20
214.8103
 30
0.0
  0
VERTEX
  5
14D
100
AcDbEntity
  8
LAY-3
  6
CONTINUOUS
 62
     6
100
AcDbVertex
100
AcDb2dVertex
 10
176.632352
 20
212.670683
 30
0.0
  0
VERTEX
  5
14E
100
AcDbEntity
  8
LAY-3
  6
CONTINUOUS
 62
     6
100
AcDbVertex
100
AcDb2dVertex
 10
176.781522
 20
210.529099
 30
0.0
  0
VERTEX
  5
14F
100
AcDbEntity
  8
LAY-3
  6
CONTINUOUS
 62
     6
100
AcDbVertex
100
AcDb2dVertex
 10
176.741752
 20
207.916441
 30
0.0
  0
VERTEX
  5
150
100
AcDbEntity
  8
LAY-3
  6
CONTINUOUS
 62
     6
100
AcDbVertex
100
AcDb2dVertex
 10
176.489056
 20
205.300982
 30
0.0
  0
VERTEX
  5
151
100
AcDbEntity
  8
LAY-3
  6
CONTINUOUS
 62
     6
100
AcDbVertex
100
AcDb2dVertex
 10
176.069245
 20
202.683437
 30
0.0
  0
VERTEX
  5
152
100
AcDbEntity
  8
LAY-3
  6
CONTINUOUS
 62
     6
100
AcDbVertex
100
AcDb2dVertex
 10
175.528127
 20
200.06452
 30
0.0
  0
VERTEX
  5
153
100
AcDbEntity
  8
LAY-3
  6
CONTINUOUS
 62
     6
100
AcDbVertex
100
AcDb2dVertex
 10
174.911512
 20
197.444944
 30
0.0
  0
VERTEX
  5
154
100
AcDbEntity
  8
LAY-3
  6
CONTINUOUS
 62
     6
100
AcDbVertex
100
AcDb2dVertex
 10
174.265208
 20
194.825423
 30
0.0
  0
VERTEX
  5
155
100
AcDbEntity
  8
LAY-3
  6
CONTINUOUS
 62
     6
100
AcDbVertex
100
AcDb2dVertex
 10
173.635025
 20
192.206672
 30
0.0
  0
VERTEX
  5
156
100
AcDbEntity
  8
LAY-3
  6
CONTINUOUS
 62
     6
100
AcDbVertex
100
AcDb2dVertex
 10
173.066771
 20
189.589402
 30
0.0
  0
VERTEX
  5
157
100
AcDbEntity
  8
LAY-3
  6
CONTINUOUS
 62
     6
100
AcDbVertex
100
AcDb2dVertex
 10
172.606257
 20
186.97433
 30
0.0
  0
VERTEX
  5
158
100
AcDbEntity
  8
LAY-3
  6
CONTINUOUS
 62
     6
100
AcDbVertex
100
AcDb2dVertex
 10
172.29929
 20
184.362167
 30
0.0
  0
VERTEX
  5
159
100
AcDbEntity
  8
LAY-3
  6
CONTINUOUS
 62
     6
100
AcDbVertex
100
AcDb2dVertex
 10
172.191681
 20
181.753629
 30
0.0
  0
VERTEX
  5
15A
100
AcDbEntity
  8
LAY-3
  6
CONTINUOUS
 62
     6
100
AcDbVertex
100
AcDb2dVertex
 10
172.344053
 20
178.833655
 30
0.0
  0
VERTEX
  5
15B
100
AcDbEntity
  8
LAY-3
  6
CONTINUOUS
 62
     6
100
AcDbVertex
100
AcDb2dVertex
 10
172.744888
 20
175.917372
 30
0.0
  0
VERTEX
  5
15C
100
AcDbEntity
  8
LAY-3
  6
CONTINUOUS
 62
     6
100
AcDbVertex
100
AcDb2dVertex
 10
173.334454
 20
173.003021
 30
0.0
  0
VERTEX
  5
15D
100
AcDbEntity
  8
LAY-3
  6
CONTINUOUS
 62
     6
100
AcDbVertex
100
AcDb2dVertex
 10
174.053014
 20
170.088839
 30
0.0
  0
VERTEX
  5
15E
100
AcDbEntity
  8
LAY-3
  6
CONTINUOUS
 62
     6
100
AcDbVertex
100
AcDb2dVertex
 10
174.840835
 20
167.173065
 30
0.0
  0
VERTEX
  5
15F
100
AcDbEntity
  8
LAY-3
  6
CONTINUOUS
 62
     6
100
AcDbVertex
100
AcDb2dVertex
 10
175.638182
 20
164.253939
 30
0.0
  0
VERTEX
  5
160
100
AcDbEntity
  8
LAY-3
  6
CONTINUOUS
 62
     6
100
AcDbVertex
100
AcDb2dVertex
 10
176.385321
 20
161.3297
 30
0.0
  0
VERTEX
  5
161
100
AcDbEntity
  8
LAY-3
  6
CONTINUOUS
 62
     6
100
AcDbVertex
100
AcDb2dVertex
 10
177.022517
 20
158.398585
 30
0.0
  0
VERTEX
  5
162
100
AcDbEntity
  8
LAY-3
  6
CONTINUOUS
 62
     6
100
AcDbVertex
100
AcDb2dVertex
 10
177.490035
 20
155.458834
 30
0.0
  0
VERTEX
  5
163
100
AcDbEntity
  8
LAY-3
  6
CONTINUOUS
 62
     6
100
AcDbVertex
100
AcDb2dVertex
 10
177.728141
 20
152.508686
 30
0.0
  0
VERTEX
  5
164
100
AcDbEntity
  8
LAY-3
  6
CONTINUOUS
 62
     6
100
AcDbVertex
100
AcDb2dVertex
 10
177.677101
 20
149.54638
 30
0.0
  0
VERTEX
  5
165
100
AcDbEntity
  8
LAY-3
  6
CONTINUOUS
 62
     6
100
AcDbVertex
100
AcDb2dVertex
 10
177.428951
 20
147.351781
 30
0.0
  0
VERTEX
  5
166
100
AcDbEntity
  8
LAY-3
  6
CONTINUOUS
 62
     6
100
AcDbVertex
100
AcDb2dVertex
 10
177.026649
 20
145.154259
 30
0.0
  0
VERTEX
  5
167
100
AcDbEntity
  8
LAY-3
  6
CONTINUOUS
 62
     6
100
AcDbVertex
100
AcDb2dVertex
 10
176.506144
 20
142.958475
 30
0.0
  0
VERTEX
  5
168
100
AcDbEntity
  8
LAY-3
  6
CONTINUOUS
 62
     6
100
AcDbVertex
100
AcDb2dVertex
 10
175.903385
 20
140.769091
 30
0.0
  0
VERTEX
  5
169
100
AcDbEntity
  8
LAY-3
  6
CONTINUOUS
 62
     6
100
AcDbVertex
100
AcDb2dVertex
 10
175.254319
 20
138.590768
 30
0.0
  0
VERTEX
  5
16A
100
AcDbEntity
  8
LAY-3
  6
CONTINUOUS
 62
     6
100
AcDbVertex
100
AcDb2dVertex
 10
174.594895
 20
136.428167
 30
0.0
  0
VERTEX
  5
16B
100
AcDbEntity
  8
LAY-3
  6
CONTINUOUS
 62
     6
100
AcDbVertex
100
AcDb2dVertex
 10
173.961061
 20
134.285951
 30
0.0
  0
VERTEX
  5
16C
100
AcDbEntity
  8
LAY-3
  6
CONTINUOUS
 62
     6
100
AcDbVertex
100
AcDb2dVertex
 10
173.388766
 20
132.168781
 30
0.0
  0
VERTEX
  5
16D
100
AcDbEntity
  8
LAY-3
  6
CONTINUOUS
 62
     6
100
AcDbVertex
100
AcDb2dVertex
 10
172.913958
 20
130.081317
 30
0.0
  0
VERTEX
  5
16E
100
AcDbEntity
  8
LAY-3
  6
CONTINUOUS
 62
     6
100
AcDbVertex
100
AcDb2dVertex
 10
172.572585
 20
128.028221
 30
0.0
  0
VERTEX
  5
16F
100
AcDbEntity
  8
LAY-3
  6
CONTINUOUS
 62
     6
100
AcDbVertex
100
AcDb2dVertex
 10
172.400595
 20
126.014156
 30
0.0
  0
VERTEX
  5
170
100
AcDbEntity
  8
LAY-3
  6
CONTINUOUS
 62
     6
100
AcDbVertex
100
AcDb2dVertex
 10
172.423157
 20
124.022834
 30
0.0
  0
VERTEX
  5
171
100
AcDbEntity
  8
LAY-3
  6
CONTINUOUS
 62
     6
100
AcDbVertex
100
AcDb2dVertex
 10
172.619119
 20
122.055305
 30
0.0
  0
VERTEX
  5
172
100
AcDbEntity
  8
LAY-3
  6
CONTINUOUS
 62
     6
100
AcDbVertex
100
AcDb2dVertex
 10
172.95301
 20
120.090916
 30
0.0
  0
VERTEX
  5
173
100
AcDbEntity
  8
LAY-3
  6
CONTINUOUS
 62
     6
100
AcDbVertex
100
AcDb2dVertex
 10
173.38936
 20
118.109016
 30
0.0
  0
VERTEX
  5
174
100
AcDbEntity
  8
LAY-3
  6
CONTINUOUS
 62
     6
100
AcDbVertex
100
AcDb2dVertex
 10
173.892697
 20
116.088953
 30
0.0
  0
VERTEX
  5
175
100
AcDbEntity
  8
LAY-3
  6
CONTINUOUS
 62
     6
100
AcDbVertex
100
AcDb2dVertex
 10
174.427549
 20
114.010075
 30
0.0
  0
VERTEX
  5
176
100
AcDbEntity
  8
LAY-3
  6
CONTINUOUS
 62
     6
100
AcDbVertex
100
AcDb2dVertex
 10
174.958447
 20
111.851729
 30
0.0
  0
VERTEX
  5
177
100
AcDbEntity
  8
LAY-3
  6
CONTINUOUS
 62
     6
100
AcDbVertex
100
AcDb2dVertex
 10
175.449918
 20
109.593265
 30
0.0
  0
VERTEX
  5
178
100
AcDbEntity
  8
LAY-3
  6
CONTINUOUS
 62
     6
100
AcDbVertex
100
AcDb2dVertex
 10
175.866492
 20
107.214029
 30
0.0
  0
VERTEX
  5
179
100
AcDbEntity
  8
LAY-3
  6
CONTINUOUS
 62
     6
100
AcDbVertex
100
AcDb2dVertex
 10
176.172698
 20
104.693371
 30
0.0
  0
VERTEX
  5
17A
100
AcDbEntity
  8
LAY-3
  6
CONTINUOUS
 62
     6
100
AcDbVertex
100
AcDb2dVertex
 10
176.333065
 20
102.010638
 30
0.0
  0
VERTEX
  5
17B
100
AcDbEntity
  8
LAY-3
  6
CONTINUOUS
 62
     6
100
AcDbVertex
100
AcDb2dVertex
 10
176.32047
 20
99.075863
 30
0.0
  0
VERTEX
  5
17C
100
AcDbEntity
  8
LAY-3
  6
CONTINUOUS
 62
     6
100
AcDbVertex
100
AcDb2dVertex
 10
176.149437
 20
96.029845
 30
0.0
  0
VERTEX
  5
17D
100
AcDbEntity
  8
LAY-3
  6
CONTINUOUS
 62
     6
100
AcDbVertex
100
AcDb2dVertex
 10
175.853601
 20
92.954914
 30
0.0
  0
VERTEX
  5
17E
100
AcDbEntity
  8
LAY-3
  6
CONTINUOUS
 62
     6
100
AcDbVertex
100
AcDb2dVertex
 10
175.4666
 20
89.933402
 30
0.0
  0
VERTEX
  5
17F
100
AcDbEntity
  8
LAY-3
  6
CONTINUOUS
 62
     6
100
AcDbVertex
100
AcDb2dVertex
 10
175.022069
 20
87.04764
 30
0.0
  0
VERTEX
  5
180
100
AcDbEntity
  8
LAY-3
  6
CONTINUOUS
 62
     6
100
AcDbVertex
100
AcDb2dVertex
 10
174.553644
 20
84.379958
 30
0.0
  0
VERTEX
  5
181
100
AcDbEntity
  8
LAY-3
  6
CONTINUOUS
 62
     6
100
AcDbVertex
100
AcDb2dVertex
 10
174.094961
 20
82.012689
 30
0.0
  0
VERTEX
  5
182
100
AcDbEntity
  8
LAY-3
  6
CONTINUOUS
 62
     6
100
AcDbVertex
100
AcDb2dVertex
 10
173.679656
 20
80.028162
 30
0.0
  0
VERTEX
  5
183
100
AcDbEntity
  8
LAY-3
  6
CONTINUOUS
 62
     6
100
AcDbVertex
100
AcDb2dVertex
 10
173.341364
 20
78.50871
 30
0.0
  0
VERTEX
  5
184
100
AcDbEntity
  8
LAY-3
  6
CONTINUOUS
 62
     6
100
AcDbVertex
100
AcDb2dVertex
 10
173.113723
 20
77.536662
 30
0.0
  0
VERTEX
  5
185
100
AcDbEntity
  8
LAY-3
  6
CONTINUOUS
 62
     6
100
AcDbVertex
100
AcDb2dVertex
 10
173.030368
 20
77.19435
 30
0.0
  0
SEQEND
  5
186
100
AcDbEntity
  8
LAY-3
  6
CONTINUOUS
 62
     6
  0
POLYLINE
  5
187
100
AcDbEntity
  8
LAY-3
  6
CONTINUOUS
 62
     6
100
AcDb2dPolyline
 66
     1
 10
0.0
 20
0.0
 30
0.0
 70
   128
  0
VERTEX
  5
188
100
AcDbEntity
  8
LAY-3
  6
CONTINUOUS
 62
     6
100
AcDbVertex
100
AcDb2dVertex
 10
180.660485
 20
547.2
 30
0.0
  0
VERTEX
  5
189
100
AcDbEntity
  8
LAY-3
  6
CONTINUOUS
 62
     6
100
AcDbVertex
100
AcDb2dVertex
 10
180.572106
 20
546.820922
 30
0.0
  0
VERTEX
  5
18A
100
AcDbEntity
  8
LAY-3
  6
CONTINUOUS
 62
     6
100
AcDbVertex
100
AcDb2dVertex
 10
180.332812
 20
545.746724
 30
0.0
  0
VERTEX
  5
18B
100
AcDbEntity
  8
LAY-3
  6
CONTINUOUS
 62
     6
100
AcDbVertex
100
AcDb2dVertex
 10
179.981366
 20
544.07196
 30
0.0
  0
VERTEX
  5
18C
100
AcDbEntity
  8
LAY-3
  6
CONTINUOUS
 62
     6
100
AcDbVertex
100
AcDb2dVertex
 10
179.556531
 20
541.891182
 30
0.0
  0
VERTEX
  5
18D
100
AcDbEntity
  8
LAY-3
  6
CONTINUOUS
 62
     6
100
AcDbVertex
100
AcDb2dVertex
 10
179.097071
 20
539.298944
 30
0.0
  0
VERTEX
  5
18E
100
AcDbEntity
  8
LAY-3
  6
CONTINUOUS
 62
     6
100
AcDbVertex
100
AcDb2dVertex
 10
178.641749
 20
536.389799
 30
0.0
  0
VERTEX
  5
18F
100
AcDbEntity
  8
LAY-3
  6
CONTINUOUS
 62
     6
100
AcDbVertex
100
AcDb2dVertex
 10
178.229328
 20
533.258301
 30
0.0
  0
VERTEX
  5
190
100
AcDbEntity
  8
LAY-3
  6
CONTINUOUS
 62
     6
100
AcDbVertex
100
AcDb2dVertex
 10
177.898572
 20
529.999003
 30
0.0
  0
VERTEX
  5
191
100
AcDbEntity
  8
LAY-3
  6
CONTINUOUS
 62
     6
100
AcDbVertex
100
AcDb2dVertex
 10
177.688243
 20
526.706459
 30
0.0
  0
VERTEX
  5
192
100
AcDbEntity
  8
LAY-3
  6
CONTINUOUS
 62
     6
100
AcDbVertex
100
AcDb2dVertex
 10
177.637107
 20
523.475221
 30
0.0
  0
VERTEX
  5
193
100
AcDbEntity
  8
LAY-3
  6
CONTINUOUS
 62
     6
100
AcDbVertex
100
AcDb2dVertex
 10
177.783925
 20
520.399843
 30
0.0
  0
VERTEX
  5
194
100
AcDbEntity
  8
LAY-3
  6
CONTINUOUS
 62
     6
100
AcDbVertex
100
AcDb2dVertex
 10
178.028949
 20
518.319403
 30
0.0
  0
VERTEX
  5
195
100
AcDbEntity
  8
LAY-3
  6
CONTINUOUS
 62
     6
100
AcDbVertex
100
AcDb2dVertex
 10
178.375083
 20
516.354967
 30
0.0
  0
VERTEX
  5
196
100
AcDbEntity
  8
LAY-3
  6
CONTINUOUS
 62
     6
100
AcDbVertex
100
AcDb2dVertex
 10
178.799813
 20
514.491765
 30
0.0
  0
VERTEX
  5
197
100
AcDbEntity
  8
LAY-3
  6
CONTINUOUS
 62
     6
100
AcDbVertex
100
AcDb2dVertex
 10
179.280623
 20
512.715024
 30
0.0
  0
VERTEX
  5
198
100
AcDbEntity
  8
LAY-3
  6
CONTINUOUS
 62
     6
100
AcDbVertex
100
AcDb2dVertex
 10
179.795001
 20
511.009973
 30
0.0
  0
VERTEX
  5
199
100
AcDbEntity
  8
LAY-3
  6
CONTINUOUS
 62
     6
100
AcDbVertex
100
AcDb2dVertex
 10
180.320432
 20
509.36184
 30
0.0
  0
VERTEX
  5
19A
100
AcDbEntity
  8
LAY-3
  6
CONTINUOUS
 62
     6
100
AcDbVertex
100
AcDb2dVertex
 10
180.8344
 20
507.755854
 30
0.0
  0
VERTEX
  5
19B
100
AcDbEntity
  8
LAY-3
  6
CONTINUOUS
 62
     6
100
AcDbVertex
100
AcDb2dVertex
 10
181.314394
 20
506.177243
 30
0.0
  0
VERTEX
  5
19C
100
AcDbEntity
  8
LAY-3
  6
CONTINUOUS
 62
     6
100
AcDbVertex
100
AcDb2dVertex
 10
181.737897
 20
504.611236
 30
0.0
  0
VERTEX
  5
19D
100
AcDbEntity
  8
LAY-3
  6
CONTINUOUS
 62
     6
100
AcDbVertex
100
AcDb2dVertex
 10
182.082396
 20
503.043061
 30
0.0
  0
VERTEX
  5
19E
100
AcDbEntity
  8
LAY-3
  6
CONTINUOUS
 62
     6
100
AcDbVertex
100
AcDb2dVertex
 10
182.325376
 20
501.457946
 30
0.0
  0
VERTEX
  5
19F
100
AcDbEntity
  8
LAY-3
  6
CONTINUOUS
 62
     6
100
AcDbVertex
100
AcDb2dVertex
 10
182.470995
 20
498.905812
 30
0.0
  0
VERTEX
  5
1A0
100
AcDbEntity
  8
LAY-3
  6
CONTINUOUS
 62
     6
100
AcDbVertex
100
AcDb2dVertex
 10
182.360772
 20
496.284386
 30
0.0
  0
VERTEX
  5
1A1
100
AcDbEntity
  8
LAY-3
  6
CONTINUOUS
 62
     6
100
AcDbVertex
100
AcDb2dVertex
 10
182.04576
 20
493.602838
 30
0.0
  0
VERTEX
  5
1A2
100
AcDbEntity
  8
LAY-3
  6
CONTINUOUS
 62
     6
100
AcDbVertex
100
AcDb2dVertex
 10
181.57701
 20
490.870338
 30
0.0
  0
VERTEX
  5
1A3
100
AcDbEntity
  8
LAY-3
  6
CONTINUOUS
 62
     6
100
AcDbVertex
100
AcDb2dVertex
 10
181.005574
 20
488.096057
 30
0.0
  0
VERTEX
  5
1A4
100
AcDbEntity
  8
LAY-3
  6
CONTINUOUS
 62
     6
100
AcDbVertex
100
AcDb2dVertex
 10
180.382503
 20
485.289166
 30
0.0
  0
VERTEX
  5
1A5
100
AcDbEntity
  8
LAY-3
  6
CONTINUOUS
 62
     6
100
AcDbVertex
100
AcDb2dVertex
 10
179.758848
 20
482.458833
 30
0.0
  0
VERTEX
  5
1A6
100
AcDbEntity
  8
LAY-3
  6
CONTINUOUS
 62
     6
100
AcDbVertex
100
AcDb2dVertex
 10
179.185662
 20
479.614231
 30
0.0
  0
VERTEX
  5
1A7
100
AcDbEntity
  8
LAY-3
  6
CONTINUOUS
 62
     6
100
AcDbVertex
100
AcDb2dVertex
 10
178.713995
 20
476.764528
 30
0.0
  0
VERTEX
  5
1A8
100
AcDbEntity
  8
LAY-3
  6
CONTINUOUS
 62
     6
100
AcDbVertex
100
AcDb2dVertex
 10
178.394899
 20
473.918895
 30
0.0
  0
VERTEX
  5
1A9
100
AcDbEntity
  8
LAY-3
  6
CONTINUOUS
 62
     6
100
AcDbVertex
100
AcDb2dVertex
 10
178.279426
 20
471.086502
 30
0.0
  0
VERTEX
  5
1AA
100
AcDbEntity
  8
LAY-3
  6
CONTINUOUS
 62
     6
100
AcDbVertex
100
AcDb2dVertex
 10
178.399484
 20
468.305104
 30
0.0
  0
VERTEX
  5
1AB
100
AcDbEntity
  8
LAY-3
  6
CONTINUOUS
 62
     6
100
AcDbVertex
100
AcDb2dVertex
 10
178.721672
 20
465.543118
 30
0.0
  0
VERTEX
  5
1AC
100
AcDbEntity
  8
LAY-3
  6
CONTINUOUS
 62
     6
100
AcDbVertex
100
AcDb2dVertex
 10
179.198972
 20
462.798032
 30
0.0
  0
VERTEX
  5
1AD
100
AcDbEntity
  8
LAY-3
  6
CONTINUOUS
 62
     6
100
AcDbVertex
100
AcDb2dVertex
 10
179.784361
 20
460.067334
 30
0.0
  0
VERTEX
  5
1AE
100
AcDbEntity
  8
LAY-3
  6
CONTINUOUS
 62
     6
100
AcDbVertex
100
AcDb2dVertex
 10
180.43082
 20
457.34851
 30
0.0
  0
VERTEX
  5
1AF
100
AcDbEntity
  8
LAY-3
  6
CONTINUOUS
 62
     6
100
AcDbVertex
100
AcDb2dVertex
 10
181.091328
 20
454.639049
 30
0.0
  0
VERTEX
  5
1B0
100
AcDbEntity
  8
LAY-3
  6
CONTINUOUS
 62
     6
100
AcDbVertex
100
AcDb2dVertex
 10
181.718866
 20
451.936438
 30
0.0
  0
VERTEX
  5
1B1
100
AcDbEntity
  8
LAY-3
  6
CONTINUOUS
 62
     6
100
AcDbVertex
100
AcDb2dVertex
 10
182.266411
 20
449.238165
 30
0.0
  0
VERTEX
  5
1B2
100
AcDbEntity
  8
LAY-3
  6
CONTINUOUS
 62
     6
100
AcDbVertex
100
AcDb2dVertex
 10
182.686945
 20
446.541717
 30
0.0
  0
VERTEX
  5
1B3
100
AcDbEntity
  8
LAY-3
  6
CONTINUOUS
 62
     6
100
AcDbVertex
100
AcDb2dVertex
 10
182.933446
 20
443.844582
 30
0.0
  0
VERTEX
  5
1B4
100
AcDbEntity
  8
LAY-3
  6
CONTINUOUS
 62
     6
100
AcDbVertex
100
AcDb2dVertex
 10
182.958895
 20
441.144248
 30
0.0
  0
VERTEX
  5
1B5
100
AcDbEntity
  8
LAY-3
  6
CONTINUOUS
 62
     6
100
AcDbVertex
100
AcDb2dVertex
 10
182.755908
 20
438.620344
 30
0.0
  0
VERTEX
  5
1B6
100
AcDbEntity
  8
LAY-3
  6
CONTINUOUS
 62
     6
100
AcDbVertex
100
AcDb2dVertex
 10
182.365647
 20
436.092361
 30
0.0
  0
VERTEX
  5
1B7
100
AcDbEntity
  8
LAY-3
  6
CONTINUOUS
 62
     6
100
AcDbVertex
100
AcDb2dVertex
 10
181.83417
 20
433.561189
 30
0.0
  0
VERTEX
  5
1B8
100
AcDbEntity
  8
LAY-3
  6
CONTINUOUS
 62
     6
100
AcDbVertex
100
AcDb2dVertex
 10
181.207536
 20
431.027721
 30
0.0
  0
VERTEX
  5
1B9
100
AcDbEntity
  8
LAY-3
  6
CONTINUOUS
 62
     6
100
AcDbVertex
100
AcDb2dVertex
 10
180.531803
 20
428.492849
 30
0.0
  0
VERTEX
  5
1BA
100
AcDbEntity
  8
LAY-3
  6
CONTINUOUS
 62
     6
100
AcDbVertex
100
AcDb2dVertex
 10
179.85303
 20
425.957464
 30
0.0
  0
VERTEX
  5
1BB
100
AcDbEntity
  8
LAY-3
  6
CONTINUOUS
 62
     6
100
AcDbVertex
100
AcDb2dVertex
 10
179.217276
 20
423.422459
 30
0.0
  0
VERTEX
  5
1BC
100
AcDbEntity
  8
LAY-3
  6
CONTINUOUS
 62
     6
100
AcDbVertex
100
AcDb2dVertex
 10
178.670598
 20
420.888725
 30
0.0
  0
VERTEX
  5
1BD
100
AcDbEntity
  8
LAY-3
  6
CONTINUOUS
 62
     6
100
AcDbVertex
100
AcDb2dVertex
 10
178.259055
 20
418.357154
 30
0.0
  0
VERTEX
  5
1BE
100
AcDbEntity
  8
LAY-3
  6
CONTINUOUS
 62
     6
100
AcDbVertex
100
AcDb2dVertex
 10
178.028706
 20
415.828637
 30
0.0
  0
VERTEX
  5
1BF
100
AcDbEntity
  8
LAY-3
  6
CONTINUOUS
 62
     6
100
AcDbVertex
100
AcDb2dVertex
 10
178.02561
 20
413.304068
 30
0.0
  0
VERTEX
  5
1C0
100
AcDbEntity
  8
LAY-3
  6
CONTINUOUS
 62
     6
100
AcDbVertex
100
AcDb2dVertex
 10
178.246072
 20
411.012272
 30
0.0
  0
VERTEX
  5
1C1
100
AcDbEntity
  8
LAY-3
  6
CONTINUOUS
 62
     6
100
AcDbVertex
100
AcDb2dVertex
 10
178.650427
 20
408.723991
 30
0.0
  0
VERTEX
  5
1C2
100
AcDbEntity
  8
LAY-3
  6
CONTINUOUS
 62
     6
100
AcDbVertex
100
AcDb2dVertex
 10
179.196549
 20
406.438737
 30
0.0
  0
VERTEX
  5
1C3
100
AcDbEntity
  8
LAY-3
  6
CONTINUOUS
 62
     6
100
AcDbVertex
100
AcDb2dVertex
 10
179.842314
 20
404.156022
 30
0.0
  0
VERTEX
  5
1C4
100
AcDbEntity
  8
LAY-3
  6
CONTINUOUS
 62
     6
100
AcDbVertex
100
AcDb2dVertex
 10
180.545596
 20
401.87536
 30
0.0
  0
VERTEX
  5
1C5
100
AcDbEntity
  8
LAY-3
  6
CONTINUOUS
 62
     6
100
AcDbVertex
100
AcDb2dVertex
 10
181.264271
 20
399.596263
 30
0.0
  0
VERTEX
  5
1C6
100
AcDbEntity
  8
LAY-3
  6
CONTINUOUS
 62
     6
100
AcDbVertex
100
AcDb2dVertex
 10
181.956212
 20
397.318244
 30
0.0
  0
VERTEX
  5
1C7
100
AcDbEntity
  8
LAY-3
  6
CONTINUOUS
 62
     6
100
AcDbVertex
100
AcDb2dVertex
 10
182.579296
 20
395.040816
 30
0.0
  0
VERTEX
  5
1C8
100
AcDbEntity
  8
LAY-3
  6
CONTINUOUS
 62
     6
100
AcDbVertex
100
AcDb2dVertex
 10
183.091397
 20
392.763491
 30
0.0
  0
VERTEX
  5
1C9
100
AcDbEntity
  8
LAY-3
  6
CONTINUOUS
 62
     6
100
AcDbVertex
100
AcDb2dVertex
 10
183.450389
 20
390.485784
 30
0.0
  0
VERTEX
  5
1CA
100
AcDbEntity
  8
LAY-3
  6
CONTINUOUS
 62
     6
100
AcDbVertex
100
AcDb2dVertex
 10
183.614148
 20
388.207205
 30
0.0
  0
VERTEX
  5
1CB
100
AcDbEntity
  8
LAY-3
  6
CONTINUOUS
 62
     6
100
AcDbVertex
100
AcDb2dVertex
 10
183.548454
 20
385.853086
 30
0.0
  0
VERTEX
  5
1CC
100
AcDbEntity
  8
LAY-3
  6
CONTINUOUS
 62
     6
100
AcDbVertex
100
AcDb2dVertex
 10
183.271945
 20
383.497384
 30
0.0
  0
VERTEX
  5
1CD
100
AcDbEntity
  8
LAY-3
  6
CONTINUOUS
 62
     6
100
AcDbVertex
100
AcDb2dVertex
 10
182.826867
 20
381.139965
 30
0.0
  0
VERTEX
  5
1CE
100
AcDbEntity
  8
LAY-3
  6
CONTINUOUS
 62
     6
100
AcDbVertex
100
AcDb2dVertex
 10
182.255469
 20
378.780693
 30
0.0
  0
VERTEX
  5
1CF
100
AcDbEntity
  8
LAY-3
  6
CONTINUOUS
 62
     6
100
AcDbVertex
100
AcDb2dVertex
 10
181.599999
 20
376.419433
 30
0.0
  0
VERTEX
  5
1D0
100
AcDbEntity
  8
LAY-3
  6
CONTINUOUS
 62
     6
100
AcDbVertex
100
AcDb2dVertex
 10
180.902704
 20
374.056051
 30
0.0
  0
VERTEX
  5
1D1
100
AcDbEntity
  8
LAY-3
  6
CONTINUOUS
 62
     6
100
AcDbVertex
100
AcDb2dVertex
 10
180.205834
 20
371.690411
 30
0.0
  0
VERTEX
  5
1D2
100
AcDbEntity
  8
LAY-3
  6
CONTINUOUS
 62
     6
100
AcDbVertex
100
AcDb2dVertex
 10
179.551634
 20
369.322378
 30
0.0
  0
VERTEX
  5
1D3
100
AcDbEntity
  8
LAY-3
  6
CONTINUOUS
 62
     6
100
AcDbVertex
100
AcDb2dVertex
 10
178.982355
 20
366.951818
 30
0.0
  0
VERTEX
  5
1D4
100
AcDbEntity
  8
LAY-3
  6
CONTINUOUS
 62
     6
100
AcDbVertex
100
AcDb2dVertex
 10
178.540243
 20
364.578596
 30
0.0
  0
VERTEX
  5
1D5
100
AcDbEntity
  8
LAY-3
  6
CONTINUOUS
 62
     6
100
AcDbVertex
100
AcDb2dVertex
 10
178.267546
 20
362.202576
 30
0.0
  0
VERTEX
  5
1D6
100
AcDbEntity
  8
LAY-3
  6
CONTINUOUS
 62
     6
100
AcDbVertex
100
AcDb2dVertex
 10
178.194967
 20
359.748275
 30
0.0
  0
VERTEX
  5
1D7
100
AcDbEntity
  8
LAY-3
  6
CONTINUOUS
 62
     6
100
AcDbVertex
100
AcDb2dVertex
 10
178.312837
 20
357.291137
 30
0.0
  0
VERTEX
  5
1D8
100
AcDbEntity
  8
LAY-3
  6
CONTINUOUS
 62
     6
100
AcDbVertex
100
AcDb2dVertex
 10
178.586317
 20
354.831444
 30
0.0
  0
VERTEX
  5
1D9
100
AcDbEntity
  8
LAY-3
  6
CONTINUOUS
 62
     6
100
AcDbVertex
100
AcDb2dVertex
 10
178.980568
 20
352.369481
 30
0.0
  0
VERTEX
  5
1DA
100
AcDbEntity
  8
LAY-3
  6
CONTINUOUS
 62
     6
100
AcDbVertex
100
AcDb2dVertex
 10
179.460752
 20
349.905531
 30
0.0
  0
VERTEX
  5
1DB
100
AcDbEntity
  8
LAY-3
  6
CONTINUOUS
 62
     6
100
AcDbVertex
100
AcDb2dVertex
 10
179.992028
 20
347.439878
 30
0.0
  0
VERTEX
  5
1DC
100
AcDbEntity
  8
LAY-3
  6
CONTINUOUS
 62
     6
100
AcDbVertex
100
AcDb2dVertex
 10
180.539558
 20
344.972805
 30
0.0
  0
VERTEX
  5
1DD
100
AcDbEntity
  8
LAY-3
  6
CONTINUOUS
 62
     6
100
AcDbVertex
100
AcDb2dVertex
 10
181.068504
 20
342.504596
 30
0.0
  0
VERTEX
  5
1DE
100
AcDbEntity
  8
LAY-3
  6
CONTINUOUS
 62
     6
100
AcDbVertex
100
AcDb2dVertex
 10
181.544026
 20
340.035534
 30
0.0
  0
VERTEX
  5
1DF
100
AcDbEntity
  8
LAY-3
  6
CONTINUOUS
 62
     6
100
AcDbVertex
100
AcDb2dVertex
 10
181.931286
 20
337.565903
 30
0.0
  0
VERTEX
  5
1E0
100
AcDbEntity
  8
LAY-3
  6
CONTINUOUS
 62
     6
100
AcDbVertex
100
AcDb2dVertex
 10
182.195444
 20
335.095987
 30
0.0
  0
VERTEX
  5
1E1
100
AcDbEntity
  8
LAY-3
  6
CONTINUOUS
 62
     6
100
AcDbVertex
100
AcDb2dVertex
 10
182.306339
 20
332.820454
 30
0.0
  0
VERTEX
  5
1E2
100
AcDbEntity
  8
LAY-3
  6
CONTINUOUS
 62
     6
100
AcDbVertex
100
AcDb2dVertex
 10
182.294943
 20
330.545146
 30
0.0
  0
VERTEX
  5
1E3
100
AcDbEntity
  8
LAY-3
  6
CONTINUOUS
 62
     6
100
AcDbVertex
100
AcDb2dVertex
 10
182.173021
 20
328.270291
 30
0.0
  0
VERTEX
  5
1E4
100
AcDbEntity
  8
LAY-3
  6
CONTINUOUS
 62
     6
100
AcDbVertex
100
AcDb2dVertex
 10
181.952341
 20
325.996116
 30
0.0
  0
VERTEX
  5
1E5
100
AcDbEntity
  8
LAY-3
  6
CONTINUOUS
 62
     6
100
AcDbVertex
100
AcDb2dVertex
 10
181.644669
 20
323.722847
 30
0.0
  0
VERTEX
  5
1E6
100
AcDbEntity
  8
LAY-3
  6
CONTINUOUS
 62
     6
100
AcDbVertex
100
AcDb2dVertex
 10
181.261771
 20
321.450713
 30
0.0
  0
VERTEX
  5
1E7
100
AcDbEntity
  8
LAY-3
  6
CONTINUOUS
 62
     6
100
AcDbVertex
100
AcDb2dVertex
 10
180.815413
 20
319.17994
 30
0.0
  0
VERTEX
  5
1E8
100
AcDbEntity
  8
LAY-3
  6
CONTINUOUS
 62
     6
100
AcDbVertex
100
AcDb2dVertex
 10
180.317363
 20
316.910755
 30
0.0
  0
VERTEX
  5
1E9
100
AcDbEntity
  8
LAY-3
  6
CONTINUOUS
 62
     6
100
AcDbVertex
100
AcDb2dVertex
 10
179.779387
 20
314.643385
 30
0.0
  0
VERTEX
  5
1EA
100
AcDbEntity
  8
LAY-3
  6
CONTINUOUS
 62
     6
100
AcDbVertex
100
AcDb2dVertex
 10
179.21325
 20
312.378058
 30
0.0
  0
VERTEX
  5
1EB
100
AcDbEntity
  8
LAY-3
  6
CONTINUOUS
 62
     6
100
AcDbVertex
100
AcDb2dVertex
 10
178.63072
 20
310.115
 30
0.0
  0
VERTEX
  5
1EC
100
AcDbEntity
  8
LAY-3
  6
CONTINUOUS
 62
     6
100
AcDbVertex
100
AcDb2dVertex
 10
178.249575
 20
308.646016
 30
0.0
  0
VERTEX
  5
1ED
100
AcDbEntity
  8
LAY-3
  6
CONTINUOUS
 62
     6
100
AcDbVertex
100
AcDb2dVertex
 10
177.872881
 20
307.177921
 30
0.0
  0
VERTEX
  5
1EE
100
AcDbEntity
  8
LAY-3
  6
CONTINUOUS
 62
     6
100
AcDbVertex
100
AcDb2dVertex
 10
177.507044
 20
305.710549
 30
0.0
  0
VERTEX
  5
1EF
100
AcDbEntity
  8
LAY-3
  6
CONTINUOUS
 62
     6
100
AcDbVertex
100
AcDb2dVertex
 10
177.158469
 20
304.243735
 30
0.0
  0
VERTEX
  5
1F0
100
AcDbEntity
  8
LAY-3
  6
CONTINUOUS
 62
     6
100
AcDbVertex
100
AcDb2dVertex
 10
176.833561
 20
302.777313
 30
0.0
  0
VERTEX
  5
1F1
100
AcDbEntity
  8
LAY-3
  6
CONTINUOUS
 62
     6
100
AcDbVertex
100
AcDb2dVertex
 10
176.538725
 20
301.31112
 30
0.0
  0
VERTEX
  5
1F2
100
AcDbEntity
  8
LAY-3
  6
CONTINUOUS
 62
     6
100
AcDbVertex
100
AcDb2dVertex
 10
176.280366
 20
299.844988
 30
0.0
  0
VERTEX
  5
1F3
100
AcDbEntity
  8
LAY-3
  6
CONTINUOUS
 62
     6
100
AcDbVertex
100
AcDb2dVertex
 10
176.064889
 20
298.378754
 30
0.0
  0
VERTEX
  5
1F4
100
AcDbEntity
  8
LAY-3
  6
CONTINUOUS
 62
     6
100
AcDbVertex
100
AcDb2dVertex
 10
175.898699
 20
296.912251
 30
0.0
  0
VERTEX
  5
1F5
100
AcDbEntity
  8
LAY-3
  6
CONTINUOUS
 62
     6
100
AcDbVertex
100
AcDb2dVertex
 10
175.788201
 20
295.445314
 30
0.0
  0
VERTEX
  5
1F6
100
AcDbEntity
  8
LAY-3
  6
CONTINUOUS
 62
     6
100
AcDbVertex
100
AcDb2dVertex
 10
175.7398
 20
293.977779
 30
0.0
  0
VERTEX
  5
1F7
100
AcDbEntity
  8
LAY-3
  6
CONTINUOUS
 62
     6
100
AcDbVertex
100
AcDb2dVertex
 10
175.83195
 20
291.119807
 30
0.0
  0
VERTEX
  5
1F8
100
AcDbEntity
  8
LAY-3
  6
CONTINUOUS
 62
     6
100
AcDbVertex
100
AcDb2dVertex
 10
176.135845
 20
288.259193
 30
0.0
  0
VERTEX
  5
1F9
100
AcDbEntity
  8
LAY-3
  6
CONTINUOUS
 62
     6
100
AcDbVertex
100
AcDb2dVertex
 10
176.603806
 20
285.396188
 30
0.0
  0
VERTEX
  5
1FA
100
AcDbEntity
  8
LAY-3
  6
CONTINUOUS
 62
     6
100
AcDbVertex
100
AcDb2dVertex
 10
177.188158
 20
282.531045
 30
0.0
  0
VERTEX
  5
1FB
100
AcDbEntity
  8
LAY-3
  6
CONTINUOUS
 62
     6
100
AcDbVertex
100
AcDb2dVertex
 10
177.841222
 20
279.664014
 30
0.0
  0
VERTEX
  5
1FC
100
AcDbEntity
  8
LAY-3
  6
CONTINUOUS
 62
     6
100
AcDbVertex
100
AcDb2dVertex
 10
178.515322
 20
276.795347
 30
0.0
  0
VERTEX
  5
1FD
100
AcDbEntity
  8
LAY-3
  6
CONTINUOUS
 62
     6
100
AcDbVertex
100
AcDb2dVertex
 10
179.162781
 20
273.925296
 30
0.0
  0
VERTEX
  5
1FE
100
AcDbEntity
  8
LAY-3
  6
CONTINUOUS
 62
     6
100
AcDbVertex
100
AcDb2dVertex
 10
179.735922
 20
271.054113
 30
0.0
  0
VERTEX
  5
1FF
100
AcDbEntity
  8
LAY-3
  6
CONTINUOUS
 62
     6
100
AcDbVertex
100
AcDb2dVertex
 10
180.187068
 20
268.182048
 30
0.0
  0
VERTEX
  5
200
100
AcDbEntity
  8
LAY-3
  6
CONTINUOUS
 62
     6
100
AcDbVertex
100
AcDb2dVertex
 10
180.468541
 20
265.309355
 30
0.0
  0
VERTEX
  5
201
100
AcDbEntity
  8
LAY-3
  6
CONTINUOUS
 62
     6
100
AcDbVertex
100
AcDb2dVertex
 10
180.532665
 20
262.436283
 30
0.0
  0
VERTEX
  5
202
100
AcDbEntity
  8
LAY-3
  6
CONTINUOUS
 62
     6
100
AcDbVertex
100
AcDb2dVertex
 10
180.379668
 20
259.868459
 30
0.0
  0
VERTEX
  5
203
100
AcDbEntity
  8
LAY-3
  6
CONTINUOUS
 62
     6
100
AcDbVertex
100
AcDb2dVertex
 10
180.056174
 20
257.300804
 30
0.0
  0
VERTEX
  5
204
100
AcDbEntity
  8
LAY-3
  6
CONTINUOUS
 62
     6
100
AcDbVertex
100
AcDb2dVertex
 10
179.603372
 20
254.733588
 30
0.0
  0
VERTEX
  5
205
100
AcDbEntity
  8
LAY-3
  6
CONTINUOUS
 62
     6
100
AcDbVertex
100
AcDb2dVertex
 10
179.062454
 20
252.167081
 30
0.0
  0
VERTEX
  5
206
100
AcDbEntity
  8
LAY-3
  6
CONTINUOUS
 62
     6
100
AcDbVertex
100
AcDb2dVertex
 10
178.474607
 20
249.601552
 30
0.0
  0
VERTEX
  5
207
100
AcDbEntity
  8
LAY-3
  6
CONTINUOUS
 62
     6
100
AcDbVertex
100
AcDb2dVertex
 10
177.881022
 20
247.037271
 30
0.0
  0
VERTEX
  5
208
100
AcDbEntity
  8
LAY-3
  6
CONTINUOUS
 62
     6
100
AcDbVertex
100
AcDb2dVertex
 10
177.322889
 20
244.474508
 30
0.0
  0
VERTEX
  5
209
100
AcDbEntity
  8
LAY-3
  6
CONTINUOUS
 62
     6
100
AcDbVertex
100
AcDb2dVertex
 10
176.841396
 20
241.913533
 30
0.0
  0
VERTEX
  5
20A
100
AcDbEntity
  8
LAY-3
  6
CONTINUOUS
 62
     6
100
AcDbVertex
100
AcDb2dVertex
 10
176.477735
 20
239.354616
 30
0.0
  0
VERTEX
  5
20B
100
AcDbEntity
  8
LAY-3
  6
CONTINUOUS
 62
     6
100
AcDbVertex
100
AcDb2dVertex
 10
176.273093
 20
236.798026
 30
0.0
  0
VERTEX
  5
20C
100
AcDbEntity
  8
LAY-3
  6
CONTINUOUS
 62
     6
100
AcDbVertex
100
AcDb2dVertex
 10
176.268662
 20
234.244034
 30
0.0
  0
VERTEX
  5
20D
100
AcDbEntity
  8
LAY-3
  6
CONTINUOUS
 62
     6
100
AcDbVertex
100
AcDb2dVertex
 10
176.440097
 20
232.104199
 30
0.0
  0
VERTEX
  5
20E
100
AcDbEntity
  8
LAY-3
  6
CONTINUOUS
 62
     6
100
AcDbVertex
100
AcDb2dVertex
 10
176.750047
 20
229.965981
 30
0.0
  0
VERTEX
  5
20F
100
AcDbEntity
  8
LAY-3
  6
CONTINUOUS
 62
     6
100
AcDbVertex
100
AcDb2dVertex
 10
177.167236
 20
227.828984
 30
0.0
  0
VERTEX
  5
210
100
AcDbEntity
  8
LAY-3
  6
CONTINUOUS
 62
     6
100
AcDbVertex
100
AcDb2dVertex
 10
177.660387
 20
225.692808
 30
0.0
  0
VERTEX
  5
211
100
AcDbEntity
  8
LAY-3
  6
CONTINUOUS
 62
     6
100
AcDbVertex
100
AcDb2dVertex
 10
178.198225
 20
223.557054
 30
0.0
  0
VERTEX
  5
212
100
AcDbEntity
  8
LAY-3
  6
CONTINUOUS
 62
     6
100
AcDbVertex
100
AcDb2dVertex
 10
178.749475
 20
221.421325
 30
0.0
  0
VERTEX
  5
213
100
AcDbEntity
  8
LAY-3
  6
CONTINUOUS
 62
     6
100
AcDbVertex
100
AcDb2dVertex
 10
179.282861
 20
219.285222
 30
0.0
  0
VERTEX
  5
214
100
AcDbEntity
  8
LAY-3
  6
CONTINUOUS
 62
     6
100
AcDbVertex
100
AcDb2dVertex
 10
179.767106
 20
217.148346
 30
0.0
  0
VERTEX
  5
215
100
AcDbEntity
  8
LAY-3
  6
CONTINUOUS
 62
     6
100
AcDbVertex
100
AcDb2dVertex
 10
180.170935
 20
215.0103
 30
0.0
  0
VERTEX
  5
216
100
AcDbEntity
  8
LAY-3
  6
CONTINUOUS
 62
     6
100
AcDbVertex
100
AcDb2dVertex
 10
180.463073
 20
212.870683
 30
0.0
  0
VERTEX
  5
217
100
AcDbEntity
  8
LAY-3
  6
CONTINUOUS
 62
     6
100
AcDbVertex
100
AcDb2dVertex
 10
180.612242
 20
210.729099
 30
0.0
  0
VERTEX
  5
218
100
AcDbEntity
  8
LAY-3
  6
CONTINUOUS
 62
     6
100
AcDbVertex
100
AcDb2dVertex
 10
180.572472
 20
208.116441
 30
0.0
  0
VERTEX
  5
219
100
AcDbEntity
  8
LAY-3
  6
CONTINUOUS
 62
     6
100
AcDbVertex
100
AcDb2dVertex
 10
180.319777
 20
205.500982
 30
0.0
  0
VERTEX
  5
21A
100
AcDbEntity
  8
LAY-3
  6
CONTINUOUS
 62
     6
100
AcDbVertex
100
AcDb2dVertex
 10
179.899966
 20
202.883437
 30
0.0
  0
VERTEX
  5
21B
100
AcDbEntity
  8
LAY-3
  6
CONTINUOUS
 62
     6
100
AcDbVertex
100
AcDb2dVertex
 10
179.358848
 20
200.26452
 30
0.0
  0
VERTEX
  5
21C
100
AcDbEntity
  8
LAY-3
  6
CONTINUOUS
 62
     6
100
AcDbVertex
100
AcDb2dVertex
 10
178.742232
 20
197.644944
 30
0.0
  0
VERTEX
  5
21D
100
AcDbEntity
  8
LAY-3
  6
CONTINUOUS
 62
     6
100
AcDbVertex
100
AcDb2dVertex
 10
178.095929
 20
195.025423
 30
0.0
  0
VERTEX
  5
21E
100
AcDbEntity
  8
LAY-3
  6
CONTINUOUS
 62
     6
100
AcDbVertex
100
AcDb2dVertex
 10
177.465745
 20
192.406672
 30
0.0
  0
VERTEX
  5
21F
100
AcDbEntity
  8
LAY-3
  6
CONTINUOUS
 62
     6
100
AcDbVertex
100
AcDb2dVertex
 10
176.897492
 20
189.789402
 30
0.0
  0
VERTEX
  5
220
100
AcDbEntity
  8
LAY-3
  6
CONTINUOUS
 62
     6
100
AcDbVertex
100
AcDb2dVertex
 10
176.436977
 20
187.17433
 30
0.0
  0
VERTEX
  5
221
100
AcDbEntity
  8
LAY-3
  6
CONTINUOUS
 62
     6
100
AcDbVertex
100
AcDb2dVertex
 10
176.130011
 20
184.562167
 30
0.0
  0
VERTEX
  5
222
100
AcDbEntity
  8
LAY-3
  6
CONTINUOUS
 62
     6
100
AcDbVertex
100
AcDb2dVertex
 10
176.022401
 20
181.953629
 30
0.0
  0
VERTEX
  5
223
100
AcDbEntity
  8
LAY-3
  6
CONTINUOUS
 62
     6
100
AcDbVertex
100
AcDb2dVertex
 10
176.174773
 20
179.033655
 30
0.0
  0
VERTEX
  5
224
100
AcDbEntity
  8
LAY-3
  6
CONTINUOUS
 62
     6
100
AcDbVertex
100
AcDb2dVertex
 10
176.575609
 20
176.117372
 30
0.0
  0
VERTEX
  5
225
100
AcDbEntity
  8
LAY-3
  6
CONTINUOUS
 62
     6
100
AcDbVertex
100
AcDb2dVertex
 10
177.165174
 20
173.203021
 30
0.0
  0
VERTEX
  5
226
100
AcDbEntity
  8
LAY-3
  6
CONTINUOUS
 62
     6
100
AcDbVertex
100
AcDb2dVertex
 10
177.883735
 20
170.288839
 30
0.0
  0
VERTEX
  5
227
100
AcDbEntity
  8
LAY-3
  6
CONTINUOUS
 62
     6
100
AcDbVertex
100
AcDb2dVertex
 10
178.671556
 20
167.373065
 30
0.0
  0
VERTEX
  5
228
100
AcDbEntity
  8
LAY-3
  6
CONTINUOUS
 62
     6
100
AcDbVertex
100
AcDb2dVertex
 10
179.468903
 20
164.453939
 30
0.0
  0
VERTEX
  5
229
100
AcDbEntity
  8
LAY-3
  6
CONTINUOUS
 62
     6
100
AcDbVertex
100
AcDb2dVertex
 10
180.216041
 20
161.5297
 30
0.0
  0
VERTEX
  5
22A
100
AcDbEntity
  8
LAY-3
  6
CONTINUOUS
 62
     6
100
AcDbVertex
100
AcDb2dVertex
 10
180.853237
 20
158.598585
 30
0.0
  0
VERTEX
  5
22B
100
AcDbEntity
  8
LAY-3
  6
CONTINUOUS
 62
     6
100
AcDbVertex
100
AcDb2dVertex
 10
181.320756
 20
155.658834
 30
0.0
  0
VERTEX
  5
22C
100
AcDbEntity
  8
LAY-3
  6
CONTINUOUS
 62
     6
100
AcDbVertex
100
AcDb2dVertex
 10
181.558862
 20
152.708686
 30
0.0
  0
VERTEX
  5
22D
100
AcDbEntity
  8
LAY-3
  6
CONTINUOUS
 62
     6
100
AcDbVertex
100
AcDb2dVertex
 10
181.507822
 20
149.74638
 30
0.0
  0
VERTEX
  5
22E
100
AcDbEntity
  8
LAY-3
  6
CONTINUOUS
 62
     6
100
AcDbVertex
100
AcDb2dVertex
 10
181.259671
 20
147.551781
 30
0.0
  0
VERTEX
  5
22F
100
AcDbEntity
  8
LAY-3
  6
CONTINUOUS
 62
     6
100
AcDbVertex
100
AcDb2dVertex
 10
180.857369
 20
145.354259
 30
0.0
  0
VERTEX
  5
230
100
AcDbEntity
  8
LAY-3
  6
CONTINUOUS
 62
     6
100
AcDbVertex
100
AcDb2dVertex
 10
180.336865
 20
143.158475
 30
0.0
  0
VERTEX
  5
231
100
AcDbEntity
  8
LAY-3
  6
CONTINUOUS
 62
     6
100
AcDbVertex
100
AcDb2dVertex
 10
179.734105
 20
140.969091
 30
0.0
  0
VERTEX
  5
232
100
AcDbEntity
  8
LAY-3
  6
CONTINUOUS
 62
     6
100
AcDbVertex
100
AcDb2dVertex
 10
179.085039
 20
138.790768
 30
0.0
  0
VERTEX
  5
233
100
AcDbEntity
  8
LAY-3
  6
CONTINUOUS
 62
     6
100
AcDbVertex
100
AcDb2dVertex
 10
178.425615
 20
136.628167
 30
0.0
  0
VERTEX
  5
234
100
AcDbEntity
  8
LAY-3
  6
CONTINUOUS
 62
     6
100
AcDbVertex
100
AcDb2dVertex
 10
177.791782
 20
134.485951
 30
0.0
  0
VERTEX
  5
235
100
AcDbEntity
  8
LAY-3
  6
CONTINUOUS
 62
     6
100
AcDbVertex
100
AcDb2dVertex
 10
177.219487
 20
132.368781
 30
0.0
  0
VERTEX
  5
236
100
AcDbEntity
  8
LAY-3
  6
CONTINUOUS
 62
     6
100
AcDbVertex
100
AcDb2dVertex
 10
176.744678
 20
130.281317
 30
0.0
  0
VERTEX
  5
237
100
AcDbEntity
  8
LAY-3
  6
CONTINUOUS
 62
     6
100
AcDbVertex
100
AcDb2dVertex
 10
176.403305
 20
128.228221
 30
0.0
  0
VERTEX
  5
238
100
AcDbEntity
  8
LAY-3
  6
CONTINUOUS
 62
     6
100
AcDbVertex
100
AcDb2dVertex
 10
176.231315
 20
126.214156
 30
0.0
  0
VERTEX
  5
239
100
AcDbEntity
  8
LAY-3
  6
CONTINUOUS
 62
     6
100
AcDbVertex
100
AcDb2dVertex
 10
176.253877
 20
124.222834
 30
0.0
  0
VERTEX
  5
23A
100
AcDbEntity
  8
LAY-3
  6
CONTINUOUS
 62
     6
100
AcDbVertex
100
AcDb2dVertex
 10
176.449839
 20
122.255305
 30
0.0
  0
VERTEX
  5
23B
100
AcDbEntity
  8
LAY-3
  6
CONTINUOUS
 62
     6
100
AcDbVertex
100
AcDb2dVertex
 10
176.783731
 20
120.290916
 30
0.0
  0
VERTEX
  5
23C
100
AcDbEntity
  8
LAY-3
  6
CONTINUOUS
 62
     6
100
AcDbVertex
100
AcDb2dVertex
 10
177.22008
 20
118.309016
 30
0.0
  0
VERTEX
  5
23D
100
AcDbEntity
  8
LAY-3
  6
CONTINUOUS
 62
     6
100
AcDbVertex
100
AcDb2dVertex
 10
177.723417
 20
116.288953
 30
0.0
  0
VERTEX
  5
23E
100
AcDbEntity
  8
LAY-3
  6
CONTINUOUS
 62
     6
100
AcDbVertex
100
AcDb2dVertex
 10
178.25827
 20
114.210075
 30
0.0
  0
VERTEX
  5
23F
100
AcDbEntity
  8
LAY-3
  6
CONTINUOUS
 62
     6
100
AcDbVertex
100
AcDb2dVertex
 10
178.789167
 20
112.051729
 30
0.0
  0
VERTEX
  5
240
100
AcDbEntity
  8
LAY-3
  6
CONTINUOUS
 62
     6
100
AcDbVertex
100
AcDb2dVertex
 10
179.280639
 20
109.793265
 30
0.0
  0
VERTEX
  5
241
100
AcDbEntity
  8
LAY-3
  6
CONTINUOUS
 62
     6
100
AcDbVertex
100
AcDb2dVertex
 10
179.697213
 20
107.414029
 30
0.0
  0
VERTEX
  5
242
100
AcDbEntity
  8
LAY-3
  6
CONTINUOUS
 62
     6
100
AcDbVertex
100
AcDb2dVertex
 10
180.003419
 20
104.893371
 30
0.0
  0
VERTEX
  5
243
100
AcDbEntity
  8
LAY-3
  6
CONTINUOUS
 62
     6
100
AcDbVertex
100
AcDb2dVertex
 10
180.163786
 20
102.210638
 30
0.0
  0
VERTEX
  5
244
100
AcDbEntity
  8
LAY-3
  6
CONTINUOUS
 62
     6
100
AcDbVertex
100
AcDb2dVertex
 10
180.15119
 20
99.275863
 30
0.0
  0
VERTEX
  5
245
100
AcDbEntity
  8
LAY-3
  6
CONTINUOUS
 62
     6
100
AcDbVertex
100
AcDb2dVertex
 10
179.980157
 20
96.229845
 30
0.0
  0
VERTEX
  5
246
100
AcDbEntity
  8
LAY-3
  6
CONTINUOUS
 62
     6
100
AcDbVertex
100
AcDb2dVertex
 10
179.684322
 20
93.154914
 30
0.0
  0
VERTEX
  5
247
100
AcDbEntity
  8
LAY-3
  6
CONTINUOUS
 62
     6
100
AcDbVertex
100
AcDb2dVertex
 10
179.297321
 20
90.133402
 30
0.0
  0
VERTEX
  5
248
100
AcDbEntity
  8
LAY-3
  6
CONTINUOUS
 62
     6
100
AcDbVertex
100
AcDb2dVertex
 10
178.85279
 20
87.24764
 30
0.0
  0
VERTEX
  5
249
100
AcDbEntity
  8
LAY-3
  6
CONTINUOUS
 62
     6
100
AcDbVertex
100
AcDb2dVertex
 10
178.384364
 20
84.579958
 30
0.0
  0
VERTEX
  5
24A
100
AcDbEntity
  8
LAY-3
  6
CONTINUOUS
 62
     6
100
AcDbVertex
100
AcDb2dVertex
 10
177.925681
 20
82.212689
 30
0.0
  0
VERTEX
  5
24B
100
AcDbEntity
  8
LAY-3
  6
CONTINUOUS
 62
     6
100
AcDbVertex
100
AcDb2dVertex
 10
177.510376
 20
80.228162
 30
0.0
  0
VERTEX
  5
24C
100
AcDbEntity
  8
LAY-3
  6
CONTINUOUS
 62
     6
100
AcDbVertex
100
AcDb2dVertex
 10
177.172085
 20
78.70871
 30
0.0
  0
VERTEX
  5
24D
100
AcDbEntity
  8
LAY-3
  6
CONTINUOUS
 62
     6
100
AcDbVertex
100
AcDb2dVertex
 10
176.944444
 20
77.736662
 30
0.0
  0
VERTEX
  5
24E
100
AcDbEntity
  8
LAY-3
  6
CONTINUOUS
 62
     6
100
AcDbVertex
100
AcDb2dVertex
 10
176.861089
 20
77.39435
 30
0.0
  0
SEQEND
  5
24F
100
AcDbEntity
  8
LAY-3
  6
CONTINUOUS
 62
     6
  0
LINE
  5
250
100
AcDbEntity
  8
_
  6
EXLTYPE2
 62
     7
100
AcDbLine
 10
34.0
 20
297.0
 30
0.0
 11
-4.0
 21
297.0
 31
0.0
  0
LINE
  5
251
100
AcDbEntity
  8
_
  6
CONTINUOUS
 62
     7
100
AcDbLine
 10
36.0
 20
17.0
 30
0.0
 11
400.0
 21
17.0
 31
0.0
  0
LINE
  5
252
100
AcDbEntity
  8
_
  6
CONTINUOUS
 62
     7
100
AcDbLine
 10
400.0
 20
17.0
 30
0.0
 11
400.0
 21
577.0
 31
0.0
  0
LINE
  5
253
100
AcDbEntity
  8
_
  6
CONTINUOUS
 62
     7
100
AcDbLine
 10
36.0
 20
17.0
 30
0.0
 11
36.0
 21
577.0
 31
0.0
  0
LINE
  5
254
100
AcDbEntity
  8
_
  6
CONTINUOUS
 62
     7
100
AcDbLine
 10
36.0
 20
577.0
 30
0.0
 11
400.0
 21
577.0
 31
0.0
  0
LINE
  5
255
100
AcDbEntity
  8
_
  6
CONTINUOUS
 62
     7
100
AcDbLine
 10
36.0
 20
61.0
 30
0.0
 11
400.0
 21
61.0
 31
0.0
  0
LINE
  5
256
100
AcDbEntity
  8
_
  6
CONTINUOUS
 62
     6
100
AcDbLine
 10
372.0
 20
61.0
 30
0.0
 11
372.0
 21
37.0
 31
0.0
  0
LINE
  5
257
100
AcDbEntity
  8
_
  6
CONTINUOUS
 62
     6
100
AcDbLine
 10
362.0
 20
61.0
 30
0.0
 11
362.0
 21
37.0
 31
0.0
  0
LINE
  5
258
100
AcDbEntity
  8
_
  6
CONTINUOUS
 62
     6
100
AcDbLine
 10
288.0
 20
61.0
 30
0.0
 11
288.0
 21
17.0
 31
0.0
  0
LINE
  5
259
100
AcDbEntity
  8
_
  6
CONTINUOUS
 62
     6
100
AcDbLine
 10
278.0
 20
61.0
 30
0.0
 11
278.0
 21
17.0
 31
0.0
  0
LINE
  5
25A
100
AcDbEntity
  8
_
  6
CONTINUOUS
 62
     6
100
AcDbLine
 10
160.0
 20
61.0
 30
0.0
 11
160.0
 21
37.0
 31
0.0
  0
LINE
  5
25B
100
AcDbEntity
  8
_
  6
CONTINUOUS
 62
     6
100
AcDbLine
 10
150.0
 20
61.0
 30
0.0
 11
150.0
 21
17.0
 31
0.0
  0
LINE
  5
25C
100
AcDbEntity
  8
_
  6
CONTINUOUS
 62
     6
100
AcDbLine
 10
124.0
 20
61.0
 30
0.0
 11
124.0
 21
17.0
 31
0.0
  0
LINE
  5
25D
100
AcDbEntity
  8
_
  6
CONTINUOUS
 62
     6
100
AcDbLine
 10
98.0
 20
61.0
 30
0.0
 11
98.0
 21
17.0
 31
0.0
  0
LINE
  5
25E
100
AcDbEntity
  8
_
  6
CONTINUOUS
 62
     6
100
AcDbLine
 10
67.0
 20
61.0
 30
0.0
 11
67.0
 21
17.0
 31
0.0
  0
LINE
  5
25F
100
AcDbEntity
  8
_
  6
CONTINUOUS
 62
     6
100
AcDbLine
 10
36.0
 20
51.0
 30
0.0
 11
150.0
 21
51.0
 31
0.0
  0
LINE
  5
260
100
AcDbEntity
  8
_
  6
CONTINUOUS
 62
     6
100
AcDbLine
 10
378.530762
 20
41.600586
 30
0.0
 11
393.998779
 21
57.339966
 31
0.0
  0
LINE
  5
261
100
AcDbEntity
  8
_
  6
EXLTYPE2
 62
     6
100
AcDbLine
 10
36.0
 20
27.0
 30
0.0
 11
98.0
 21
27.0
 31
0.0
  0
CIRCLE
  5
262
100
AcDbEntity
  8
_
  6
CONTINUOUS
 62
     6
100
AcDbCircle
 10
46.0
 20
22.0
 30
0.0
 40
0.2
  0
CIRCLE
  5
263
100
AcDbEntity
  8
_
  6
CONTINUOUS
 62
     6
100
AcDbCircle
 10
56.0
 20
22.0
 30
0.0
 40
0.2
  0
CIRCLE
  5
264
100
AcDbEntity
  8
_
  6
CONTINUOUS
 62
     6
100
AcDbCircle
 10
77.0
 20
22.0
 30
0.0
 40
0.2
  0
CIRCLE
  5
265
100
AcDbEntity
  8
_
  6
CONTINUOUS
 62
     6
100
AcDbCircle
 10
87.0
 20
22.0
 30
0.0
 40
0.2
  0
LINE
  5
266
100
AcDbEntity
  8
_
  6
EXLTYPE2
 62
     7
100
AcDbLine
 10
34.0
 20
297.0
 30
0.0
 11
-4.0
 21
297.0
 31
0.0
  0
TEXT
  5
267
100
AcDbEntity
  8
_
  6
CONTINUOUS
 62
     2
100
AcDbText
 10
378.107422
 20
50.544556
 30
0.0
 40
6.0
  1
１
 41
0.826
  7
EXCADSTD
 72
     5
 11
382.827422
 21
50.544556
 31
0.0
100
AcDbText
  0
TEXT
  5
268
100
AcDbEntity
  8
_
  6
CONTINUOUS
 62
     2
100
AcDbText
 10
388.055859
 20
41.469769
 30
0.0
 40
6.0
  1
２
 41
0.826
  7
EXCADSTD
 72
     5
 11
392.775859
 21
41.469769
 31
0.0
100
AcDbText
  0
TEXT
  5
269
100
AcDbEntity
  8
_
  6
CONTINUOUS
 62
     2
100
AcDbText
 10
40.5
 20
51.75
 30
0.0
 40
8.5
  1
製図
 41
1.087059
  7
EXCADSTD
 72
     5
 11
60.6652
 21
51.75
 31
0.0
100
AcDbText
  0
TEXT
  5
26A
100
AcDbEntity
  8
_
  6
CONTINUOUS
 62
     2
100
AcDbText
 10
71.5
 20
51.75
 30
0.0
 40
8.5
  1
写図
 41
1.087059
  7
EXCADSTD
 72
     5
 11
91.6652
 21
51.75
 31
0.0
100
AcDbText
  0
TEXT
  5
26B
100
AcDbEntity
  8
_
  6
CONTINUOUS
 62
     2
100
AcDbText
 10
101.5
 20
51.75
 30
0.0
 40
8.5
  1
検図
 41
0.938824
  7
EXCADSTD
 72
     5
 11
118.9154
 21
51.75
 31
0.0
100
AcDbText
  0
TEXT
  5
26C
100
AcDbEntity
  8
_
  6
CONTINUOUS
 62
     2
100
AcDbText
 10
127.5
 20
51.75
 30
0.0
 40
8.5
  1
承認
 41
0.938824
  7
EXCADSTD
 72
     5
 11
144.9154
 21
51.75
 31
0.0
100
AcDbText
  0
TEXT
  5
26D
100
AcDbEntity
  8
_
  6
CONTINUOUS
 62
     2
100
AcDbText
 10
150.75
 20
49.75
 30
0.0
 40
8.5
  1
品
 41
0.84
  7
EXCADSTD
 72
     5
 11
157.55
 21
49.75
 31
0.0
100
AcDbText
  0
TEXT
  5
26E
100
AcDbEntity
  8
_
  6
CONTINUOUS
 62
     2
100
AcDbText
 10
150.75
 20
39.75
 30
0.0
 40
8.5
  1
名
 41
0.84
  7
EXCADSTD
 72
     5
 11
157.55
 21
39.75
 31
0.0
100
AcDbText
  0
TEXT
  5
26F
100
AcDbEntity
  8
_
  6
CONTINUOUS
 62
     2
100
AcDbText
 10
278.75
 20
49.75
 30
0.0
 40
8.5
  1
品
 41
0.84
  7
EXCADSTD
 72
     5
 11
285.55
 21
49.75
 31
0.0
100
AcDbText
  0
TEXT
  5
270
100
AcDbEntity
  8
_
  6
CONTINUOUS
 62
     2
100
AcDbText
 10
278.75
 20
39.75
 30
0.0
 40
8.5
  1
番
 41
0.84
  7
EXCADSTD
 72
     5
 11
285.55
 21
39.75
 31
0.0
100
AcDbText
  0
TEXT
  5
271
100
AcDbEntity
  8
_
  6
CONTINUOUS
 62
     2
100
AcDbText
 10
362.75
 20
49.75
 30
0.0
 40
8.5
  1
尺
 41
0.84
  7
EXCADSTD
 72
     5
 11
369.55
 21
49.75
 31
0.0
100
AcDbText
  0
TEXT
  5
272
100
AcDbEntity
  8
_
  6
CONTINUOUS
 62
     2
100
AcDbText
 10
362.75
 20
39.75
 30
0.0
 40
8.5
  1
度
 41
0.84
  7
EXCADSTD
 72
     5
 11
369.55
 21
39.75
 31
0.0
100
AcDbText
  0
TEXT
  5
273
100
AcDbEntity
  8
_
  6
CONTINUOUS
 62
     2
100
AcDbText
 10
278.75
 20
27.15
 30
0.0
 40
8.5
  1
図
 41
0.84
  7
EXCADSTD
 72
     5
 11
285.55
 21
27.15
 31
0.0
100
AcDbText
  0
TEXT
  5
274
100
AcDbEntity
  8
_
  6
CONTINUOUS
 62
     2
100
AcDbText
 10
278.75
 20
18.55
 30
0.0
 40
8.5
  1
番
 41
0.84
  7
EXCADSTD
 72
     5
 11
285.55
 21
18.55
 31
0.0
100
AcDbText
  0
LINE
  5
275
100
AcDbEntity
  8
_
  6
CONTINUOUS
 62
     3
100
AcDbLine
 10
165.489551
 20
30.057599
 30
0.0
 11
163.876819
 21
30.057599
 31
0.0
  0
LINE
  5
276
100
AcDbEntity
  8
_
  6
CONTINUOUS
 62
     3
100
AcDbLine
 10
165.489551
 20
31.670392
 30
0.0
 11
165.489551
 21
30.057599
 31
0.0
  0
LINE
  5
277
100
AcDbEntity
  8
_
  6
CONTINUOUS
 62
     3
100
AcDbLine
 10
163.876819
 20
31.670392
 30
0.0
 11
165.489551
 21
31.670392
 31
0.0
  0
LINE
  5
278
100
AcDbEntity
  8
_
  6
CONTINUOUS
 62
     3
100
AcDbLine
 10
163.876819
 20
31.670392
 30
0.0
 11
163.876819
 21
30.057599
 31
0.0
  0
LINE
  5
279
100
AcDbEntity
  8
_
  6
CONTINUOUS
 62
     3
100
AcDbLine
 10
163.271838
 20
30.057599
 30
0.0
 11
161.659106
 21
30.057599
 31
0.0
  0
LINE
  5
27A
100
AcDbEntity
  8
_
  6
CONTINUOUS
 62
     3
100
AcDbLine
 10
163.271838
 20
31.670392
 30
0.0
 11
163.271838
 21
30.057599
 31
0.0
  0
LINE
  5
27B
100
AcDbEntity
  8
_
  6
CONTINUOUS
 62
     3
100
AcDbLine
 10
161.659106
 20
31.670392
 30
0.0
 11
163.271838
 21
31.670392
 31
0.0
  0
LINE
  5
27C
100
AcDbEntity
  8
_
  6
CONTINUOUS
 62
     3
100
AcDbLine
 10
161.659106
 20
31.670392
 30
0.0
 11
161.659106
 21
30.057599
 31
0.0
  0
LINE
  5
27D
100
AcDbEntity
  8
_
  6
CONTINUOUS
 62
     3
100
AcDbLine
 10
159.977466
 20
22.8
 30
0.0
 11
154.2
 21
22.8
 31
0.0
  0
ARC
  5
27E
100
AcDbEntity
  8
_
  6
CONTINUOUS
 62
     3
100
AcDbCircle
 10
159.977466
 20
26.428815
 30
0.0
 40
3.628799
100
AcDbArc
 50
270.000031
 51
334.000137
  0
LINE
  5
27F
100
AcDbEntity
  8
_
  6
CONTINUOUS
 62
     3
100
AcDbLine
 10
165.489551
 20
29.452802
 30
0.0
 11
163.238605
 21
24.838025
 31
0.0
  0
LINE
  5
280
100
AcDbEntity
  8
_
  6
CONTINUOUS
 62
     3
100
AcDbLine
 10
163.022449
 20
29.452802
 30
0.0
 11
165.489551
 21
29.452802
 31
0.0
  0
LINE
  5
281
100
AcDbEntity
  8
_
  6
CONTINUOUS
 62
     3
100
AcDbLine
 10
161.202594
 20
25.721814
 30
0.0
 11
163.022449
 21
29.452802
 31
0.0
  0
ARC
  5
282
100
AcDbEntity
  8
_
  6
CONTINUOUS
 62
     3
100
AcDbCircle
 10
159.753101
 20
26.428815
 30
0.0
 40
1.6128
100
AcDbArc
 50
270.000031
 51
333.99855
  0
LINE
  5
283
100
AcDbEntity
  8
_
  6
CONTINUOUS
 62
     3
100
AcDbLine
 10
154.2
 20
24.815991
 30
0.0
 11
159.753101
 21
24.815991
 31
0.0
  0
LINE
  5
284
100
AcDbEntity
  8
_
  6
CONTINUOUS
 62
     3
100
AcDbLine
 10
154.2
 20
24.815991
 30
0.0
 11
154.2
 21
22.8
 31
0.0
  0
LINE
  5
285
100
AcDbEntity
  8
_
  6
CONTINUOUS
 62
     3
100
AcDbLine
 10
159.844989
 20
27.43678
 30
0.0
 11
154.2
 21
27.43678
 31
0.0
  0
LINE
  5
286
100
AcDbEntity
  8
_
  6
CONTINUOUS
 62
     3
100
AcDbLine
 10
159.844989
 20
29.251202
 30
0.0
 11
159.844989
 21
27.43678
 31
0.0
  0
LINE
  5
287
100
AcDbEntity
  8
_
  6
CONTINUOUS
 62
     3
100
AcDbLine
 10
154.2
 20
29.251202
 30
0.0
 11
159.844989
 21
29.251202
 31
0.0
  0
LINE
  5
288
100
AcDbEntity
  8
_
  6
CONTINUOUS
 62
     3
100
AcDbLine
 10
154.2
 20
29.251202
 30
0.0
 11
154.2
 21
27.43678
 31
0.0
  0
LINE
  5
289
100
AcDbEntity
  8
_
  6
CONTINUOUS
 62
     3
100
AcDbLine
 10
159.844989
 20
29.856
 30
0.0
 11
154.2
 21
29.856
 31
0.0
  0
LINE
  5
28A
100
AcDbEntity
  8
_
  6
CONTINUOUS
 62
     3
100
AcDbLine
 10
159.844989
 20
31.670392
 30
0.0
 11
159.844989
 21
29.856
 31
0.0
  0
LINE
  5
28B
100
AcDbEntity
  8
_
  6
CONTINUOUS
 62
     3
100
AcDbLine
 10
154.2
 20
31.670392
 30
0.0
 11
159.844989
 21
31.670392
 31
0.0
  0
LINE
  5
28C
100
AcDbEntity
  8
_
  6
CONTINUOUS
 62
     3
100
AcDbLine
 10
154.2
 20
31.670392
 30
0.0
 11
154.2
 21
29.856
 31
0.0
  0
LINE
  5
28D
100
AcDbEntity
  8
_
  6
CONTINUOUS
 62
     3
100
AcDbLine
 10
166.094531
 20
29.452802
 30
0.0
 11
166.094531
 21
28.041577
 31
0.0
  0
LINE
  5
28E
100
AcDbEntity
  8
_
  6
CONTINUOUS
 62
     3
100
AcDbLine
 10
166.094531
 20
29.452802
 30
0.0
 11
167.930804
 21
29.452802
 31
0.0
  0
LINE
  5
28F
100
AcDbEntity
  8
_
  6
CONTINUOUS
 62
     3
100
AcDbLine
 10
167.707263
 20
30.863995
 30
0.0
 11
167.930804
 21
29.452802
 31
0.0
  0
LINE
  5
290
100
AcDbEntity
  8
_
  6
CONTINUOUS
 62
     3
100
AcDbLine
 10
167.707263
 20
30.863995
 30
0.0
 11
169.952472
 21
30.863995
 31
0.0
  0
LINE
  5
291
100
AcDbEntity
  8
_
  6
CONTINUOUS
 62
     3
100
AcDbLine
 10
169.952472
 20
30.863995
 30
0.0
 11
170.175983
 21
29.452802
 31
0.0
  0
LINE
  5
292
100
AcDbEntity
  8
_
  6
CONTINUOUS
 62
     3
100
AcDbLine
 10
170.175983
 20
29.452802
 30
0.0
 11
175.77135
 21
29.452802
 31
0.0
  0
LINE
  5
293
100
AcDbEntity
  8
_
  6
CONTINUOUS
 62
     3
100
AcDbLine
 10
175.77135
 20
29.452802
 30
0.0
 11
174.594623
 21
26.810101
 31
0.0
  0
ARC
  5
294
100
AcDbEntity
  8
_
  6
CONTINUOUS
 62
     3
100
AcDbCircle
 10
171.832202
 20
28.040082
 30
0.0
 40
3.024021
100
AcDbArc
 50
263.465775
 51
335.998779
  0
LINE
  5
295
100
AcDbEntity
  8
_
  6
CONTINUOUS
 62
     3
100
AcDbLine
 10
171.487689
 20
25.035718
 30
0.0
 11
171.267413
 21
26.428815
 31
0.0
  0
ARC
  5
296
100
AcDbEntity
  8
_
  6
CONTINUOUS
 62
     3
100
AcDbCircle
 10
171.211627
 20
27.638409
 30
0.0
 40
1.209601
100
AcDbArc
 50
272.623749
 51
336.006531
  0
LINE
  5
297
100
AcDbEntity
  8
_
  6
CONTINUOUS
 62
     3
100
AcDbLine
 10
172.317004
 20
27.146405
 30
0.0
 11
172.715259
 21
28.041577
 31
0.0
  0
LINE
  5
298
100
AcDbEntity
  8
_
  6
CONTINUOUS
 62
     3
100
AcDbLine
 10
172.715259
 20
28.041577
 30
0.0
 11
170.399524
 21
28.041577
 31
0.0
  0
LINE
  5
299
100
AcDbEntity
  8
_
  6
CONTINUOUS
 62
     3
100
AcDbLine
 10
170.399524
 20
28.041577
 30
0.0
 11
171.229694
 21
22.8
 31
0.0
  0
LINE
  5
29A
100
AcDbEntity
  8
_
  6
CONTINUOUS
 62
     3
100
AcDbLine
 10
171.229694
 20
22.8
 30
0.0
 11
168.984485
 21
22.8
 31
0.0
  0
LINE
  5
29B
100
AcDbEntity
  8
_
  6
CONTINUOUS
 62
     2
100
AcDbLine
 10
168.984485
 20
22.8
 30
0.0
 11
168.154346
 21
28.041577
 31
0.0
  0
LINE
  5
29C
100
AcDbEntity
  8
_
  6
CONTINUOUS
 62
     2
100
AcDbLine
 10
168.154346
 20
28.041577
 30
0.0
 11
166.094531
 21
28.041577
 31
0.0
  0
LINE
  5
29D
100
AcDbEntity
  8
_
  6
CONTINUOUS
 62
     3
100
AcDbLine
 10
175.569537
 20
22.8
 30
0.0
 11
175.569537
 21
24.815991
 31
0.0
  0
LINE
  5
29E
100
AcDbEntity
  8
_
  6
CONTINUOUS
 62
     3
100
AcDbLine
 10
175.569537
 20
24.815991
 30
0.0
 11
186.859088
 21
24.815991
 31
0.0
  0
LINE
  5
29F
100
AcDbEntity
  8
_
  6
CONTINUOUS
 62
     3
100
AcDbLine
 10
186.859088
 20
24.815991
 30
0.0
 11
186.859088
 21
22.8
 31
0.0
  0
LINE
  5
2A0
100
AcDbEntity
  8
_
  6
CONTINUOUS
 62
     3
100
AcDbLine
 10
186.859088
 20
22.8
 30
0.0
 11
175.569537
 21
22.8
 31
0.0
  0
LINE
  5
2A1
100
AcDbEntity
  8
_
  6
CONTINUOUS
 62
     3
100
AcDbLine
 10
176.375903
 20
31.670392
 30
0.0
 11
176.375903
 21
29.654401
 31
0.0
  0
LINE
  5
2A2
100
AcDbEntity
  8
_
  6
CONTINUOUS
 62
     3
100
AcDbLine
 10
176.375903
 20
31.670392
 30
0.0
 11
186.052722
 21
31.670392
 31
0.0
  0
LINE
  5
2A3
100
AcDbEntity
  8
_
  6
CONTINUOUS
 62
     3
100
AcDbLine
 10
186.052722
 20
31.670392
 30
0.0
 11
186.052722
 21
29.654401
 31
0.0
  0
LINE
  5
2A4
100
AcDbEntity
  8
_
  6
CONTINUOUS
 62
     3
100
AcDbLine
 10
186.052722
 20
29.654401
 30
0.0
 11
176.375903
 21
29.654401
 31
0.0
  0
LINE
  5
2A5
100
AcDbEntity
  8
_
  6
CONTINUOUS
 62
     3
100
AcDbLine
 10
188.270435
 20
31.670392
 30
0.0
 11
188.270435
 21
29.654401
 31
0.0
  0
LINE
  5
2A6
100
AcDbEntity
  8
_
  6
CONTINUOUS
 62
     3
100
AcDbLine
 10
188.270435
 20
31.670392
 30
0.0
 11
198.753619
 21
31.670392
 31
0.0
  0
LINE
  5
2A7
100
AcDbEntity
  8
_
  6
CONTINUOUS
 62
     3
100
AcDbLine
 10
198.753619
 20
31.670392
 30
0.0
 11
195.610187
 21
27.343793
 31
0.0
  0
LINE
  5
2A8
100
AcDbEntity
  8
_
  6
CONTINUOUS
 62
     3
100
AcDbLine
 10
195.610187
 20
27.343793
 30
0.0
 11
199.559985
 21
22.8
 31
0.0
  0
LINE
  5
2A9
100
AcDbEntity
  8
_
  6
CONTINUOUS
 62
     3
100
AcDbLine
 10
199.559985
 20
22.8
 30
0.0
 11
196.621631
 21
22.8
 31
0.0
  0
LINE
  5
2AA
100
AcDbEntity
  8
_
  6
CONTINUOUS
 62
     3
100
AcDbLine
 10
196.621631
 20
22.8
 30
0.0
 11
194.272266
 21
25.502545
 31
0.0
  0
LINE
  5
2AB
100
AcDbEntity
  8
_
  6
CONTINUOUS
 62
     3
100
AcDbLine
 10
194.272266
 20
25.502545
 30
0.0
 11
193.39577
 21
24.29585
 31
0.0
  0
ARC
  5
2AC
100
AcDbEntity
  8
_
  6
CONTINUOUS
 62
     3
100
AcDbCircle
 10
190.459857
 20
26.428815
 30
0.0
 40
3.628799
100
AcDbArc
 50
270.000031
 51
324.00116
  0
LINE
  5
2AD
100
AcDbEntity
  8
_
  6
CONTINUOUS
 62
     3
100
AcDbLine
 10
190.459857
 20
22.8
 30
0.0
 11
187.464069
 21
22.8
 31
0.0
  0
LINE
  5
2AE
100
AcDbEntity
  8
_
  6
CONTINUOUS
 62
     3
100
AcDbLine
 10
187.464069
 20
22.8
 30
0.0
 11
187.464069
 21
24.815991
 31
0.0
  0
LINE
  5
2AF
100
AcDbEntity
  8
_
  6
CONTINUOUS
 62
     3
100
AcDbLine
 10
187.464069
 20
24.815991
 30
0.0
 11
190.00542
 21
24.815991
 31
0.0
  0
ARC
  5
2B0
100
AcDbEntity
  8
_
  6
CONTINUOUS
 62
     3
100
AcDbCircle
 10
190.00542
 20
26.831982
 30
0.0
 40
2.015999
100
AcDbArc
 50
270.000031
 51
323.996597
  0
LINE
  5
2B1
100
AcDbEntity
  8
_
  6
CONTINUOUS
 62
     3
100
AcDbLine
 10
191.636188
 20
25.647015
 30
0.0
 11
194.5479
 21
29.654401
 31
0.0
  0
LINE
  5
2B2
100
AcDbEntity
  8
_
  6
CONTINUOUS
 62
     3
100
AcDbLine
 10
194.5479
 20
29.654401
 30
0.0
 11
188.270435
 21
29.654401
 31
0.0
  0
LINE
  5
2B3
100
AcDbEntity
  8
_
  6
CONTINUOUS
 62
     3
100
AcDbLine
 10
201.979114
 20
31.670392
 30
0.0
 11
201.979114
 21
30.259198
 31
0.0
  0
LINE
  5
2B4
100
AcDbEntity
  8
_
  6
CONTINUOUS
 62
     3
100
AcDbLine
 10
201.979114
 20
31.670392
 30
0.0
 11
212.462268
 21
31.670392
 31
0.0
  0
LINE
  5
2B5
100
AcDbEntity
  8
_
  6
CONTINUOUS
 62
     3
100
AcDbLine
 10
212.462268
 20
31.670392
 30
0.0
 11
212.462268
 21
30.259198
 31
0.0
  0
LINE
  5
2B6
100
AcDbEntity
  8
_
  6
CONTINUOUS
 62
     3
100
AcDbLine
 10
212.462268
 20
30.259198
 30
0.0
 11
208.329547
 21
30.259198
 31
0.0
  0
LINE
  5
2B7
100
AcDbEntity
  8
_
  6
CONTINUOUS
 62
     3
100
AcDbLine
 10
208.329547
 20
30.259198
 30
0.0
 11
208.329547
 21
24.412823
 31
0.0
  0
LINE
  5
2B8
100
AcDbEntity
  8
_
  6
CONTINUOUS
 62
     3
100
AcDbLine
 10
208.329547
 20
24.412823
 30
0.0
 11
212.865466
 21
24.412823
 31
0.0
  0
LINE
  5
2B9
100
AcDbEntity
  8
_
  6
CONTINUOUS
 62
     3
100
AcDbLine
 10
212.865466
 20
24.412823
 30
0.0
 11
212.865466
 21
22.8
 31
0.0
  0
LINE
  5
2BA
100
AcDbEntity
  8
_
  6
CONTINUOUS
 62
     3
100
AcDbLine
 10
212.865466
 20
22.8
 30
0.0
 11
201.575916
 21
22.8
 31
0.0
  0
LINE
  5
2BB
100
AcDbEntity
  8
_
  6
CONTINUOUS
 62
     3
100
AcDbLine
 10
201.575916
 20
22.8
 30
0.0
 11
201.575916
 21
24.412823
 31
0.0
  0
LINE
  5
2BC
100
AcDbEntity
  8
_
  6
CONTINUOUS
 62
     3
100
AcDbLine
 10
201.575916
 20
24.412823
 30
0.0
 11
206.111835
 21
24.412823
 31
0.0
  0
LINE
  5
2BD
100
AcDbEntity
  8
_
  6
CONTINUOUS
 62
     3
100
AcDbLine
 10
206.111835
 20
24.412823
 30
0.0
 11
206.111835
 21
30.259198
 31
0.0
  0
LINE
  5
2BE
100
AcDbEntity
  8
_
  6
CONTINUOUS
 62
     3
100
AcDbLine
 10
206.111835
 20
30.259198
 30
0.0
 11
201.979114
 21
30.259198
 31
0.0
  0
LINE
  5
2BF
100
AcDbEntity
  8
_
  6
CONTINUOUS
 62
     3
100
AcDbLine
 10
213.067249
 20
30.460797
 30
0.0
 11
213.067249
 21
29.533429
 31
0.0
  0
LINE
  5
2C0
100
AcDbEntity
  8
_
  6
CONTINUOUS
 62
     3
100
AcDbLine
 10
213.067249
 20
30.460797
 30
0.0
 11
214.818622
 21
30.460797
 31
0.0
  0
LINE
  5
2C1
100
AcDbEntity
  8
_
  6
CONTINUOUS
 62
     3
100
AcDbLine
 10
214.818622
 20
30.460797
 30
0.0
 11
213.873645
 21
31.670392
 31
0.0
  0
LINE
  5
2C2
100
AcDbEntity
  8
_
  6
CONTINUOUS
 62
     3
100
AcDbLine
 10
213.873645
 20
31.670392
 30
0.0
 11
215.664386
 21
31.670392
 31
0.0
  0
LINE
  5
2C3
100
AcDbEntity
  8
_
  6
CONTINUOUS
 62
     3
100
AcDbLine
 10
215.664386
 20
31.670392
 30
0.0
 11
216.609363
 21
30.460797
 31
0.0
  0
LINE
  5
2C4
100
AcDbEntity
  8
_
  6
CONTINUOUS
 62
     3
100
AcDbLine
 10
216.609363
 20
30.460797
 30
0.0
 11
216.998615
 21
30.460797
 31
0.0
  0
LINE
  5
2C5
100
AcDbEntity
  8
_
  6
CONTINUOUS
 62
     3
100
AcDbLine
 10
216.998615
 20
30.460797
 30
0.0
 11
216.998615
 21
31.670392
 31
0.0
  0
LINE
  5
2C6
100
AcDbEntity
  8
_
  6
CONTINUOUS
 62
     3
100
AcDbLine
 10
216.998615
 20
31.670392
 30
0.0
 11
218.409534
 21
31.670392
 31
0.0
  0
LINE
  5
2C7
100
AcDbEntity
  8
_
  6
CONTINUOUS
 62
     3
100
AcDbLine
 10
218.409534
 20
31.670392
 30
0.0
 11
218.409534
 21
30.460797
 31
0.0
  0
LINE
  5
2C8
100
AcDbEntity
  8
_
  6
CONTINUOUS
 62
     3
100
AcDbLine
 10
218.409534
 20
30.460797
 30
0.0
 11
219.014514
 21
30.460797
 31
0.0
  0
LINE
  5
2C9
100
AcDbEntity
  8
_
  6
CONTINUOUS
 62
     3
100
AcDbLine
 10
219.014514
 20
30.460797
 30
0.0
 11
219.014514
 21
31.670392
 31
0.0
  0
LINE
  5
2CA
100
AcDbEntity
  8
_
  6
CONTINUOUS
 62
     3
100
AcDbLine
 10
219.014514
 20
31.670392
 30
0.0
 11
220.425464
 21
31.670392
 31
0.0
  0
LINE
  5
2CB
100
AcDbEntity
  8
_
  6
CONTINUOUS
 62
     3
100
AcDbLine
 10
220.425464
 20
31.670392
 30
0.0
 11
220.425464
 21
30.460797
 31
0.0
  0
LINE
  5
2CC
100
AcDbEntity
  8
_
  6
CONTINUOUS
 62
     3
100
AcDbLine
 10
220.425464
 20
30.460797
 30
0.0
 11
220.814716
 21
30.460797
 31
0.0
  0
LINE
  5
2CD
100
AcDbEntity
  8
_
  6
CONTINUOUS
 62
     3
100
AcDbLine
 10
220.814716
 20
30.460797
 30
0.0
 11
221.759692
 21
31.670392
 31
0.0
  0
LINE
  5
2CE
100
AcDbEntity
  8
_
  6
CONTINUOUS
 62
     3
100
AcDbLine
 10
221.759692
 20
31.670392
 30
0.0
 11
223.550433
 21
31.670392
 31
0.0
  0
LINE
  5
2CF
100
AcDbEntity
  8
_
  6
CONTINUOUS
 62
     3
100
AcDbLine
 10
223.550433
 20
31.670392
 30
0.0
 11
222.605457
 21
30.460797
 31
0.0
  0
LINE
  5
2D0
100
AcDbEntity
  8
_
  6
CONTINUOUS
 62
     3
100
AcDbLine
 10
222.605457
 20
30.460797
 30
0.0
 11
224.356799
 21
30.460797
 31
0.0
  0
LINE
  5
2D1
100
AcDbEntity
  8
_
  6
CONTINUOUS
 62
     3
100
AcDbLine
 10
224.356799
 20
30.460797
 30
0.0
 11
224.356799
 21
29.533429
 31
0.0
  0
LINE
  5
2D2
100
AcDbEntity
  8
_
  6
CONTINUOUS
 62
     3
100
AcDbLine
 10
224.356799
 20
29.533429
 30
0.0
 11
222.232196
 21
29.533429
 31
0.0
  0
LINE
  5
2D3
100
AcDbEntity
  8
_
  6
CONTINUOUS
 62
     3
100
AcDbLine
 10
222.232196
 20
29.533429
 30
0.0
 11
221.865527
 21
28.525464
 31
0.0
  0
LINE
  5
2D4
100
AcDbEntity
  8
_
  6
CONTINUOUS
 62
     3
100
AcDbLine
 10
221.865527
 20
28.525464
 30
0.0
 11
224.356799
 21
28.525464
 31
0.0
  0
LINE
  5
2D5
100
AcDbEntity
  8
_
  6
CONTINUOUS
 62
     3
100
AcDbLine
 10
224.356799
 20
28.525464
 30
0.0
 11
224.356799
 21
27.598096
 31
0.0
  0
LINE
  5
2D6
100
AcDbEntity
  8
_
  6
CONTINUOUS
 62
     3
100
AcDbLine
 10
224.356799
 20
27.598096
 30
0.0
 11
219.719989
 21
27.598096
 31
0.0
  0
LINE
  5
2D7
100
AcDbEntity
  8
_
  6
CONTINUOUS
 62
     3
100
AcDbLine
 10
219.719989
 20
27.598096
 30
0.0
 11
219.719989
 21
27.134412
 31
0.0
  0
LINE
  5
2D8
100
AcDbEntity
  8
_
  6
CONTINUOUS
 62
     3
100
AcDbLine
 10
219.719989
 20
27.134412
 30
0.0
 11
224.356799
 21
27.134412
 31
0.0
  0
LINE
  5
2D9
100
AcDbEntity
  8
_
  6
CONTINUOUS
 62
     3
100
AcDbLine
 10
224.356799
 20
27.134412
 30
0.0
 11
224.356799
 21
26.207043
 31
0.0
  0
LINE
  5
2DA
100
AcDbEntity
  8
_
  6
CONTINUOUS
 62
     3
100
AcDbLine
 10
224.356799
 20
26.207043
 30
0.0
 11
219.719989
 21
26.207043
 31
0.0
  0
LINE
  5
2DB
100
AcDbEntity
  8
_
  6
CONTINUOUS
 62
     3
100
AcDbLine
 10
219.719989
 20
26.207043
 30
0.0
 11
219.719989
 21
25.743359
 31
0.0
  0
LINE
  5
2DC
100
AcDbEntity
  8
_
  6
CONTINUOUS
 62
     3
100
AcDbLine
 10
219.719989
 20
25.743359
 30
0.0
 11
224.356799
 21
25.743359
 31
0.0
  0
LINE
  5
2DD
100
AcDbEntity
  8
_
  6
CONTINUOUS
 62
     3
100
AcDbLine
 10
224.356799
 20
25.743359
 30
0.0
 11
224.356799
 21
24.815991
 31
0.0
  0
LINE
  5
2DE
100
AcDbEntity
  8
_
  6
CONTINUOUS
 62
     3
100
AcDbLine
 10
224.356799
 20
24.815991
 30
0.0
 11
222.125568
 21
24.815991
 31
0.0
  0
LINE
  5
2DF
100
AcDbEntity
  8
_
  6
CONTINUOUS
 62
     3
100
AcDbLine
 10
222.125568
 20
24.815991
 30
0.0
 11
224.356799
 21
22.8
 31
0.0
  0
LINE
  5
2E0
100
AcDbEntity
  8
_
  6
CONTINUOUS
 62
     3
100
AcDbLine
 10
224.356799
 20
22.8
 30
0.0
 11
221.951251
 21
22.8
 31
0.0
  0
LINE
  5
2E1
100
AcDbEntity
  8
_
  6
CONTINUOUS
 62
     3
100
AcDbLine
 10
221.951251
 20
22.8
 30
0.0
 11
219.719989
 21
24.815991
 31
0.0
  0
LINE
  5
2E2
100
AcDbEntity
  8
_
  6
CONTINUOUS
 62
     3
100
AcDbLine
 10
219.719989
 20
24.815991
 30
0.0
 11
219.719989
 21
22.8
 31
0.0
  0
LINE
  5
2E3
100
AcDbEntity
  8
_
  6
CONTINUOUS
 62
     3
100
AcDbLine
 10
219.719989
 20
22.8
 30
0.0
 11
217.704089
 21
22.8
 31
0.0
  0
LINE
  5
2E4
100
AcDbEntity
  8
_
  6
CONTINUOUS
 62
     3
100
AcDbLine
 10
217.704089
 20
22.8
 30
0.0
 11
217.704089
 21
24.815991
 31
0.0
  0
LINE
  5
2E5
100
AcDbEntity
  8
_
  6
CONTINUOUS
 62
     3
100
AcDbLine
 10
217.704089
 20
24.815991
 30
0.0
 11
215.472827
 21
22.8
 31
0.0
  0
LINE
  5
2E6
100
AcDbEntity
  8
_
  6
CONTINUOUS
 62
     3
100
AcDbLine
 10
215.472827
 20
22.8
 30
0.0
 11
213.067249
 21
22.8
 31
0.0
  0
LINE
  5
2E7
100
AcDbEntity
  8
_
  6
CONTINUOUS
 62
     3
100
AcDbLine
 10
213.067249
 20
22.8
 30
0.0
 11
215.298511
 21
24.815991
 31
0.0
  0
LINE
  5
2E8
100
AcDbEntity
  8
_
  6
CONTINUOUS
 62
     3
100
AcDbLine
 10
215.298511
 20
24.815991
 30
0.0
 11
213.067249
 21
24.815991
 31
0.0
  0
LINE
  5
2E9
100
AcDbEntity
  8
_
  6
CONTINUOUS
 62
     3
100
AcDbLine
 10
213.067249
 20
24.815991
 30
0.0
 11
213.067249
 21
25.743359
 31
0.0
  0
LINE
  5
2EA
100
AcDbEntity
  8
_
  6
CONTINUOUS
 62
     3
100
AcDbLine
 10
213.067249
 20
25.743359
 30
0.0
 11
217.704089
 21
25.743359
 31
0.0
  0
LINE
  5
2EB
100
AcDbEntity
  8
_
  6
CONTINUOUS
 62
     3
100
AcDbLine
 10
217.704089
 20
25.743359
 30
0.0
 11
217.704089
 21
26.207043
 31
0.0
  0
LINE
  5
2EC
100
AcDbEntity
  8
_
  6
CONTINUOUS
 62
     3
100
AcDbLine
 10
217.704089
 20
26.207043
 30
0.0
 11
213.067249
 21
26.207043
 31
0.0
  0
LINE
  5
2ED
100
AcDbEntity
  8
_
  6
CONTINUOUS
 62
     3
100
AcDbLine
 10
213.067249
 20
26.207043
 30
0.0
 11
213.067249
 21
27.134412
 31
0.0
  0
LINE
  5
2EE
100
AcDbEntity
  8
_
  6
CONTINUOUS
 62
     3
100
AcDbLine
 10
213.067249
 20
27.134412
 30
0.0
 11
217.704089
 21
27.134412
 31
0.0
  0
LINE
  5
2EF
100
AcDbEntity
  8
_
  6
CONTINUOUS
 62
     3
100
AcDbLine
 10
217.704089
 20
27.134412
 30
0.0
 11
217.704089
 21
27.598096
 31
0.0
  0
LINE
  5
2F0
100
AcDbEntity
  8
_
  6
CONTINUOUS
 62
     3
100
AcDbLine
 10
217.704089
 20
27.598096
 30
0.0
 11
213.067249
 21
27.598096
 31
0.0
  0
LINE
  5
2F1
100
AcDbEntity
  8
_
  6
CONTINUOUS
 62
     3
100
AcDbLine
 10
213.067249
 20
27.598096
 30
0.0
 11
213.067249
 21
28.525464
 31
0.0
  0
LINE
  5
2F2
100
AcDbEntity
  8
_
  6
CONTINUOUS
 62
     3
100
AcDbLine
 10
213.067249
 20
28.525464
 30
0.0
 11
215.558551
 21
28.525464
 31
0.0
  0
LINE
  5
2F3
100
AcDbEntity
  8
_
  6
CONTINUOUS
 62
     3
100
AcDbLine
 10
215.558551
 20
28.525464
 30
0.0
 11
215.191882
 21
29.533429
 31
0.0
  0
LINE
  5
2F4
100
AcDbEntity
  8
_
  6
CONTINUOUS
 62
     3
100
AcDbLine
 10
215.191882
 20
29.533429
 30
0.0
 11
213.067249
 21
29.533429
 31
0.0
  0
LINE
  5
2F5
100
AcDbEntity
  8
_
  6
CONTINUOUS
 62
     3
100
AcDbLine
 10
217.336993
 20
29.533429
 30
0.0
 11
220.087085
 21
29.533429
 31
0.0
  0
LINE
  5
2F6
100
AcDbEntity
  8
_
  6
CONTINUOUS
 62
     3
100
AcDbLine
 10
220.087085
 20
29.533429
 30
0.0
 11
219.719989
 21
28.525464
 31
0.0
  0
LINE
  5
2F7
100
AcDbEntity
  8
_
  6
CONTINUOUS
 62
     3
100
AcDbLine
 10
219.719989
 20
28.525464
 30
0.0
 11
217.704089
 21
28.525464
 31
0.0
  0
LINE
  5
2F8
100
AcDbEntity
  8
_
  6
CONTINUOUS
 62
     3
100
AcDbLine
 10
217.704089
 20
28.525464
 30
0.0
 11
217.336993
 21
29.533429
 31
0.0
  0
LINE
  5
2F9
100
AcDbEntity
  8
_
  6
CONTINUOUS
 62
     3
100
AcDbLine
 10
229.851276
 20
31.670392
 30
0.0
 11
229.197894
 21
29.049603
 31
0.0
  0
LINE
  5
2FA
100
AcDbEntity
  8
_
  6
CONTINUOUS
 62
     3
100
AcDbLine
 10
229.851276
 20
31.670392
 30
0.0
 11
231.513629
 21
31.670392
 31
0.0
  0
LINE
  5
2FB
100
AcDbEntity
  8
_
  6
CONTINUOUS
 62
     3
100
AcDbLine
 10
231.513629
 20
31.670392
 30
0.0
 11
231.262195
 21
30.662396
 31
0.0
  0
LINE
  5
2FC
100
AcDbEntity
  8
_
  6
CONTINUOUS
 62
     3
100
AcDbLine
 10
231.262195
 20
30.662396
 30
0.0
 11
231.916827
 21
30.662396
 31
0.0
  0
LINE
  5
2FD
100
AcDbEntity
  8
_
  6
CONTINUOUS
 62
     3
100
AcDbLine
 10
231.916827
 20
30.662396
 30
0.0
 11
231.916827
 21
31.670392
 31
0.0
  0
LINE
  5
2FE
100
AcDbEntity
  8
_
  6
CONTINUOUS
 62
     3
100
AcDbLine
 10
231.916827
 20
31.670392
 30
0.0
 11
233.731342
 21
31.670392
 31
0.0
  0
LINE
  5
2FF
100
AcDbEntity
  8
_
  6
CONTINUOUS
 62
     3
100
AcDbLine
 10
233.731342
 20
31.670392
 30
0.0
 11
233.731342
 21
30.662396
 31
0.0
  0
LINE
  5
300
100
AcDbEntity
  8
_
  6
CONTINUOUS
 62
     3
100
AcDbLine
 10
233.731342
 20
30.662396
 30
0.0
 11
236.049548
 21
30.662396
 31
0.0
  0
LINE
  5
301
100
AcDbEntity
  8
_
  6
CONTINUOUS
 62
     3
100
AcDbLine
 10
236.049548
 20
30.662396
 30
0.0
 11
236.049548
 21
29.654401
 31
0.0
  0
LINE
  5
302
100
AcDbEntity
  8
_
  6
CONTINUOUS
 62
     3
100
AcDbLine
 10
233.731342
 20
29.654401
 30
0.0
 11
236.049548
 21
29.654401
 31
0.0
  0
LINE
  5
303
100
AcDbEntity
  8
_
  6
CONTINUOUS
 62
     3
100
AcDbLine
 10
233.731342
 20
29.654401
 30
0.0
 11
233.731342
 21
28.646405
 31
0.0
  0
LINE
  5
304
100
AcDbEntity
  8
_
  6
CONTINUOUS
 62
     3
100
AcDbLine
 10
233.731342
 20
28.646405
 30
0.0
 11
236.251331
 21
28.646405
 31
0.0
  0
LINE
  5
305
100
AcDbEntity
  8
_
  6
CONTINUOUS
 62
     3
100
AcDbLine
 10
236.251331
 20
28.646405
 30
0.0
 11
236.251331
 21
27.638409
 31
0.0
  0
LINE
  5
306
100
AcDbEntity
  8
_
  6
CONTINUOUS
 62
     3
100
AcDbLine
 10
236.251331
 20
27.638409
 30
0.0
 11
235.370319
 21
27.638409
 31
0.0
  0
LINE
  5
307
100
AcDbEntity
  8
_
  6
CONTINUOUS
 62
     3
100
AcDbLine
 10
235.370319
 20
27.638409
 30
0.0
 11
236.251331
 21
22.8
 31
0.0
  0
LINE
  5
308
100
AcDbEntity
  8
_
  6
CONTINUOUS
 62
     3
100
AcDbLine
 10
236.251331
 20
22.8
 30
0.0
 11
234.611957
 21
22.8
 31
0.0
  0
LINE
  5
309
100
AcDbEntity
  8
_
  6
CONTINUOUS
 62
     3
100
AcDbLine
 10
234.611957
 20
22.8
 30
0.0
 11
233.731342
 21
27.638348
 31
0.0
  0
LINE
  5
30A
100
AcDbEntity
  8
_
  6
CONTINUOUS
 62
     3
100
AcDbLine
 10
233.731342
 20
27.638348
 30
0.0
 11
233.731342
 21
22.8
 31
0.0
  0
LINE
  5
30B
100
AcDbEntity
  8
_
  6
CONTINUOUS
 62
     3
100
AcDbLine
 10
233.731342
 20
22.8
 30
0.0
 11
231.916827
 21
22.8
 31
0.0
  0
LINE
  5
30C
100
AcDbEntity
  8
_
  6
CONTINUOUS
 62
     3
100
AcDbLine
 10
231.916827
 20
22.8
 30
0.0
 11
231.916827
 21
27.638409
 31
0.0
  0
LINE
  5
30D
100
AcDbEntity
  8
_
  6
CONTINUOUS
 62
     3
100
AcDbLine
 10
231.916827
 20
27.638409
 30
0.0
 11
231.036212
 21
22.8
 31
0.0
  0
LINE
  5
30E
100
AcDbEntity
  8
_
  6
CONTINUOUS
 62
     3
100
AcDbLine
 10
231.036212
 20
22.8
 30
0.0
 11
229.396808
 21
22.8
 31
0.0
  0
LINE
  5
30F
100
AcDbEntity
  8
_
  6
CONTINUOUS
 62
     3
100
AcDbLine
 10
229.396808
 20
22.8
 30
0.0
 11
230.277423
 21
27.638409
 31
0.0
  0
LINE
  5
310
100
AcDbEntity
  8
_
  6
CONTINUOUS
 62
     3
100
AcDbLine
 10
230.277423
 20
27.638409
 30
0.0
 11
229.396808
 21
27.638409
 31
0.0
  0
LINE
  5
311
100
AcDbEntity
  8
_
  6
CONTINUOUS
 62
     3
100
AcDbLine
 10
229.396808
 20
27.638409
 30
0.0
 11
229.396808
 21
28.646405
 31
0.0
  0
LINE
  5
312
100
AcDbEntity
  8
_
  6
CONTINUOUS
 62
     3
100
AcDbLine
 10
229.396808
 20
28.646405
 30
0.0
 11
231.916827
 21
28.646405
 31
0.0
  0
LINE
  5
313
100
AcDbEntity
  8
_
  6
CONTINUOUS
 62
     3
100
AcDbLine
 10
231.916827
 20
28.646405
 30
0.0
 11
231.916827
 21
29.654401
 31
0.0
  0
LINE
  5
314
100
AcDbEntity
  8
_
  6
CONTINUOUS
 62
     3
100
AcDbLine
 10
231.916827
 20
29.654401
 30
0.0
 11
231.010791
 21
29.654401
 31
0.0
  0
LINE
  5
315
100
AcDbEntity
  8
_
  6
CONTINUOUS
 62
     3
100
AcDbLine
 10
231.010791
 20
29.654401
 30
0.0
 11
230.860248
 21
29.049603
 31
0.0
  0
LINE
  5
316
100
AcDbEntity
  8
_
  6
CONTINUOUS
 62
     3
100
AcDbLine
 10
230.860248
 20
29.049603
 30
0.0
 11
229.197894
 21
29.049603
 31
0.0
  0
LINE
  5
317
100
AcDbEntity
  8
_
  6
CONTINUOUS
 62
     3
100
AcDbLine
 10
224.759998
 20
30.662396
 30
0.0
 11
224.759998
 21
29.654401
 31
0.0
  0
LINE
  5
318
100
AcDbEntity
  8
_
  6
CONTINUOUS
 62
     3
100
AcDbLine
 10
224.759998
 20
30.662396
 30
0.0
 11
226.775928
 21
30.662396
 31
0.0
  0
LINE
  5
319
100
AcDbEntity
  8
_
  6
CONTINUOUS
 62
     3
100
AcDbLine
 10
226.775928
 20
30.662396
 30
0.0
 11
226.775928
 21
31.670392
 31
0.0
  0
LINE
  5
31A
100
AcDbEntity
  8
_
  6
CONTINUOUS
 62
     3
100
AcDbLine
 10
226.775928
 20
31.670392
 30
0.0
 11
228.590442
 21
31.670392
 31
0.0
  0
LINE
  5
31B
100
AcDbEntity
  8
_
  6
CONTINUOUS
 62
     3
100
AcDbLine
 10
228.590442
 20
31.670392
 30
0.0
 11
228.590442
 21
30.662396
 31
0.0
  0
LINE
  5
31C
100
AcDbEntity
  8
_
  6
CONTINUOUS
 62
     3
100
AcDbLine
 10
228.590442
 20
30.662396
 30
0.0
 11
229.195026
 21
30.662396
 31
0.0
  0
LINE
  5
31D
100
AcDbEntity
  8
_
  6
CONTINUOUS
 62
     3
100
AcDbLine
 10
229.195026
 20
30.662396
 30
0.0
 11
229.195026
 21
29.654401
 31
0.0
  0
LINE
  5
31E
100
AcDbEntity
  8
_
  6
CONTINUOUS
 62
     3
100
AcDbLine
 10
229.195026
 20
29.654401
 30
0.0
 11
228.590442
 21
29.654401
 31
0.0
  0
LINE
  5
31F
100
AcDbEntity
  8
_
  6
CONTINUOUS
 62
     3
100
AcDbLine
 10
228.590442
 20
29.654401
 30
0.0
 11
229.195026
 21
28.822003
 31
0.0
  0
LINE
  5
320
100
AcDbEntity
  8
_
  6
CONTINUOUS
 62
     3
100
AcDbLine
 10
229.195026
 20
28.822003
 30
0.0
 11
229.195026
 21
26.764142
 31
0.0
  0
LINE
  5
321
100
AcDbEntity
  8
_
  6
CONTINUOUS
 62
     3
100
AcDbLine
 10
229.195026
 20
26.764142
 30
0.0
 11
228.590442
 21
27.59657
 31
0.0
  0
LINE
  5
322
100
AcDbEntity
  8
_
  6
CONTINUOUS
 62
     3
100
AcDbLine
 10
228.590442
 20
27.59657
 30
0.0
 11
228.590442
 21
22.8
 31
0.0
  0
LINE
  5
323
100
AcDbEntity
  8
_
  6
CONTINUOUS
 62
     3
100
AcDbLine
 10
228.590442
 20
22.8
 30
0.0
 11
226.775928
 21
22.8
 31
0.0
  0
LINE
  5
324
100
AcDbEntity
  8
_
  6
CONTINUOUS
 62
     3
100
AcDbLine
 10
226.775928
 20
22.8
 30
0.0
 11
226.775928
 21
29.654401
 31
0.0
  0
LINE
  5
325
100
AcDbEntity
  8
_
  6
CONTINUOUS
 62
     3
100
AcDbLine
 10
226.696765
 20
29.654401
 30
0.0
 11
225.976123
 21
22.8
 31
0.0
  0
LINE
  5
326
100
AcDbEntity
  8
_
  6
CONTINUOUS
 62
     3
100
AcDbLine
 10
225.976123
 20
22.8
 30
0.0
 11
224.759998
 21
22.8
 31
0.0
  0
LINE
  5
327
100
AcDbEntity
  8
_
  6
CONTINUOUS
 62
     3
100
AcDbLine
 10
224.759998
 20
22.8
 30
0.0
 11
225.48064
 21
29.654401
 31
0.0
  0
LINE
  5
328
100
AcDbEntity
  8
_
  6
CONTINUOUS
 62
     3
100
AcDbLine
 10
225.48064
 20
29.654401
 30
0.0
 11
224.759998
 21
29.654401
 31
0.0
  0
LINE
  5
329
100
AcDbEntity
  8
_
  6
CONTINUOUS
 62
     3
100
AcDbLine
 10
237.259113
 20
28.444806
 30
0.0
 11
237.259113
 21
27.235211
 31
0.0
  0
LINE
  5
32A
100
AcDbEntity
  8
_
  6
CONTINUOUS
 62
     3
100
AcDbLine
 10
237.259113
 20
28.444806
 30
0.0
 11
243.307269
 21
28.444806
 31
0.0
  0
LINE
  5
32B
100
AcDbEntity
  8
_
  6
CONTINUOUS
 62
     3
100
AcDbLine
 10
243.307269
 20
28.444806
 30
0.0
 11
243.307269
 21
27.235211
 31
0.0
  0
LINE
  5
32C
100
AcDbEntity
  8
_
  6
CONTINUOUS
 62
     3
100
AcDbLine
 10
243.307269
 20
27.235211
 30
0.0
 11
241.391833
 21
27.235211
 31
0.0
  0
LINE
  5
32D
100
AcDbEntity
  8
_
  6
CONTINUOUS
 62
     3
100
AcDbLine
 10
241.391833
 20
27.235211
 30
0.0
 11
241.391833
 21
25.554822
 31
0.0
  0
LINE
  5
32E
100
AcDbEntity
  8
_
  6
CONTINUOUS
 62
     3
100
AcDbLine
 10
241.391833
 20
25.554822
 30
0.0
 11
243.40816
 21
25.983319
 31
0.0
  0
LINE
  5
32F
100
AcDbEntity
  8
_
  6
CONTINUOUS
 62
     3
100
AcDbLine
 10
243.40816
 20
25.983319
 30
0.0
 11
243.40816
 21
24.1284
 31
0.0
  0
LINE
  5
330
100
AcDbEntity
  8
_
  6
CONTINUOUS
 62
     3
100
AcDbLine
 10
243.40816
 20
24.1284
 30
0.0
 11
237.158191
 21
22.8
 31
0.0
  0
LINE
  5
331
100
AcDbEntity
  8
_
  6
CONTINUOUS
 62
     3
100
AcDbLine
 10
237.158191
 20
22.8
 30
0.0
 11
237.158191
 21
24.654919
 31
0.0
  0
LINE
  5
332
100
AcDbEntity
  8
_
  6
CONTINUOUS
 62
     3
100
AcDbLine
 10
237.158191
 20
24.654919
 30
0.0
 11
239.174518
 21
25.083447
 31
0.0
  0
LINE
  5
333
100
AcDbEntity
  8
_
  6
CONTINUOUS
 62
     3
100
AcDbLine
 10
239.174518
 20
25.083447
 30
0.0
 11
239.174518
 21
27.235211
 31
0.0
  0
LINE
  5
334
100
AcDbEntity
  8
_
  6
CONTINUOUS
 62
     3
100
AcDbLine
 10
239.174518
 20
27.235211
 30
0.0
 11
237.259113
 21
27.235211
 31
0.0
  0
LINE
  5
335
100
AcDbEntity
  8
_
  6
CONTINUOUS
 62
     3
100
AcDbLine
 10
236.654529
 20
30.863995
 30
0.0
 11
236.654529
 21
29.654401
 31
0.0
  0
LINE
  5
336
100
AcDbEntity
  8
_
  6
CONTINUOUS
 62
     3
100
AcDbLine
 10
236.654529
 20
30.863995
 30
0.0
 11
242.648975
 21
30.863995
 31
0.0
  0
LINE
  5
337
100
AcDbEntity
  8
_
  6
CONTINUOUS
 62
     3
100
AcDbLine
 10
242.648975
 20
30.863995
 30
0.0
 11
242.355701
 21
31.670392
 31
0.0
  0
LINE
  5
338
100
AcDbEntity
  8
_
  6
CONTINUOUS
 62
     3
100
AcDbLine
 10
242.355701
 20
31.670392
 30
0.0
 11
244.71532
 21
31.670392
 31
0.0
  0
LINE
  5
339
100
AcDbEntity
  8
_
  6
CONTINUOUS
 62
     3
100
AcDbLine
 10
244.71532
 20
31.670392
 30
0.0
 11
245.00899
 21
30.863995
 31
0.0
  0
LINE
  5
33A
100
AcDbEntity
  8
_
  6
CONTINUOUS
 62
     3
100
AcDbLine
 10
245.00899
 20
30.863995
 30
0.0
 11
245.524982
 21
30.863995
 31
0.0
  0
LINE
  5
33B
100
AcDbEntity
  8
_
  6
CONTINUOUS
 62
     3
100
AcDbLine
 10
245.524982
 20
30.863995
 30
0.0
 11
245.524982
 21
31.670392
 31
0.0
  0
LINE
  5
33C
100
AcDbEntity
  8
_
  6
CONTINUOUS
 62
     3
100
AcDbLine
 10
245.524982
 20
31.670392
 30
0.0
 11
247.339099
 21
31.670392
 31
0.0
  0
LINE
  5
33D
100
AcDbEntity
  8
_
  6
CONTINUOUS
 62
     3
100
AcDbLine
 10
247.339099
 20
31.670392
 30
0.0
 11
247.339099
 21
30.863995
 31
0.0
  0
LINE
  5
33E
100
AcDbEntity
  8
_
  6
CONTINUOUS
 62
     3
100
AcDbLine
 10
247.339099
 20
30.863995
 30
0.0
 11
247.94408
 21
30.863995
 31
0.0
  0
LINE
  5
33F
100
AcDbEntity
  8
_
  6
CONTINUOUS
 62
     3
100
AcDbLine
 10
247.94408
 20
30.863995
 30
0.0
 11
247.94408
 21
29.654401
 31
0.0
  0
LINE
  5
340
100
AcDbEntity
  8
_
  6
CONTINUOUS
 62
     3
100
AcDbLine
 10
247.94408
 20
29.654401
 30
0.0
 11
245.449084
 21
29.654401
 31
0.0
  0
LINE
  5
341
100
AcDbEntity
  8
_
  6
CONTINUOUS
 62
     3
100
AcDbLine
 10
245.449084
 20
29.654401
 30
0.0
 11
247.94408
 21
22.8
 31
0.0
  0
LINE
  5
342
100
AcDbEntity
  8
_
  6
CONTINUOUS
 62
     3
100
AcDbLine
 10
247.94408
 20
22.8
 30
0.0
 11
245.584033
 21
22.8
 31
0.0
  0
LINE
  5
343
100
AcDbEntity
  8
_
  6
CONTINUOUS
 62
     3
100
AcDbLine
 10
245.584033
 20
22.8
 30
0.0
 11
243.089465
 21
29.654401
 31
0.0
  0
LINE
  5
344
100
AcDbEntity
  8
_
  6
CONTINUOUS
 62
     3
100
AcDbLine
 10
243.089465
 20
29.654401
 30
0.0
 11
236.654529
 21
29.654401
 31
0.0
  0
LINE
  5
345
100
AcDbEntity
  8
_
  6
CONTINUOUS
 62
     3
100
AcDbLine
 10
248.347278
 20
29.949567
 30
0.0
 11
248.347278
 21
28.673993
 31
0.0
  0
LINE
  5
346
100
AcDbEntity
  8
_
  6
CONTINUOUS
 62
     3
100
AcDbLine
 10
248.347278
 20
29.949567
 30
0.0
 11
254.092731
 21
31.871991
 31
0.0
  0
LINE
  5
347
100
AcDbEntity
  8
_
  6
CONTINUOUS
 62
     3
100
AcDbLine
 10
254.092731
 20
31.871991
 30
0.0
 11
259.838214
 21
29.949506
 31
0.0
  0
LINE
  5
348
100
AcDbEntity
  8
_
  6
CONTINUOUS
 62
     3
100
AcDbLine
 10
259.838214
 20
29.949506
 30
0.0
 11
259.838214
 21
28.673993
 31
0.0
  0
LINE
  5
349
100
AcDbEntity
  8
_
  6
CONTINUOUS
 62
     3
100
AcDbLine
 10
259.838214
 20
28.673993
 30
0.0
 11
258.124988
 21
29.247357
 31
0.0
  0
LINE
  5
34A
100
AcDbEntity
  8
_
  6
CONTINUOUS
 62
     3
100
AcDbLine
 10
258.124988
 20
29.247357
 30
0.0
 11
258.124988
 21
28.243207
 31
0.0
  0
LINE
  5
34B
100
AcDbEntity
  8
_
  6
CONTINUOUS
 62
     3
100
AcDbLine
 10
258.124988
 20
28.243207
 30
0.0
 11
250.060901
 21
28.243207
 31
0.0
  0
LINE
  5
34C
100
AcDbEntity
  8
_
  6
CONTINUOUS
 62
     3
100
AcDbLine
 10
250.060901
 20
28.243207
 30
0.0
 11
250.060901
 21
29.247357
 31
0.0
  0
LINE
  5
34D
100
AcDbEntity
  8
_
  6
CONTINUOUS
 62
     3
100
AcDbLine
 10
250.060901
 20
29.247357
 30
0.0
 11
248.347278
 21
28.673993
 31
0.0
  0
LINE
  5
34E
100
AcDbEntity
  8
_
  6
CONTINUOUS
 62
     3
100
AcDbLine
 10
250.674915
 20
29.452802
 30
0.0
 11
254.092731
 21
30.596448
 31
0.0
  0
LINE
  5
34F
100
AcDbEntity
  8
_
  6
CONTINUOUS
 62
     3
100
AcDbLine
 10
254.092731
 20
30.596448
 30
0.0
 11
257.510974
 21
29.452802
 31
0.0
  0
LINE
  5
350
100
AcDbEntity
  8
_
  6
CONTINUOUS
 62
     3
100
AcDbLine
 10
257.510974
 20
29.452802
 30
0.0
 11
250.674915
 21
29.452802
 31
0.0
  0
LINE
  5
351
100
AcDbEntity
  8
_
  6
CONTINUOUS
 62
     3
100
AcDbLine
 10
248.347278
 20
27.43678
 30
0.0
 11
248.347278
 21
26.227185
 31
0.0
  0
LINE
  5
352
100
AcDbEntity
  8
_
  6
CONTINUOUS
 62
     3
100
AcDbLine
 10
248.347278
 20
27.43678
 30
0.0
 11
259.838214
 21
27.43678
 31
0.0
  0
LINE
  5
353
100
AcDbEntity
  8
_
  6
CONTINUOUS
 62
     3
100
AcDbLine
 10
259.838214
 20
27.43678
 30
0.0
 11
259.838214
 21
26.227185
 31
0.0
  0
LINE
  5
354
100
AcDbEntity
  8
_
  6
CONTINUOUS
 62
     3
100
AcDbLine
 10
259.838214
 20
26.227185
 30
0.0
 11
258.240222
 21
26.227185
 31
0.0
  0
LINE
  5
355
100
AcDbEntity
  8
_
  6
CONTINUOUS
 62
     3
100
AcDbLine
 10
258.240222
 20
26.227185
 30
0.0
 11
259.838214
 21
22.8
 31
0.0
  0
LINE
  5
356
100
AcDbEntity
  8
_
  6
CONTINUOUS
 62
     3
100
AcDbLine
 10
259.838214
 20
22.8
 30
0.0
 11
248.347278
 21
22.8
 31
0.0
  0
LINE
  5
357
100
AcDbEntity
  8
_
  6
CONTINUOUS
 62
     3
100
AcDbLine
 10
248.347278
 20
22.8
 30
0.0
 11
249.945239
 21
26.227185
 31
0.0
  0
LINE
  5
358
100
AcDbEntity
  8
_
  6
CONTINUOUS
 62
     3
100
AcDbLine
 10
249.945239
 20
26.227185
 30
0.0
 11
248.347278
 21
26.227185
 31
0.0
  0
LINE
  5
359
100
AcDbEntity
  8
_
  6
CONTINUOUS
 62
     3
100
AcDbLine
 10
252.169513
 20
26.227185
 30
0.0
 11
256.015948
 21
26.227185
 31
0.0
  0
LINE
  5
35A
100
AcDbEntity
  8
_
  6
CONTINUOUS
 62
     3
100
AcDbLine
 10
256.015948
 20
26.227185
 30
0.0
 11
257.049945
 21
24.009595
 31
0.0
  0
LINE
  5
35B
100
AcDbEntity
  8
_
  6
CONTINUOUS
 62
     3
100
AcDbLine
 10
257.049945
 20
24.009595
 30
0.0
 11
251.135516
 21
24.009595
 31
0.0
  0
LINE
  5
35C
100
AcDbEntity
  8
_
  6
CONTINUOUS
 62
     3
100
AcDbLine
 10
252.169513
 20
26.227185
 30
0.0
 11
251.135516
 21
24.009595
 31
0.0
  0
LINE
  5
35D
100
AcDbEntity
  8
_
  6
CONTINUOUS
 62
     3
100
AcDbLine
 10
265.684985
 20
29.452802
 30
0.0
 11
265.684985
 21
28.243207
 31
0.0
  0
LINE
  5
35E
100
AcDbEntity
  8
_
  6
CONTINUOUS
 62
     3
100
AcDbLine
 10
265.684985
 20
29.452802
 30
0.0
 11
267.499103
 21
29.452802
 31
0.0
  0
LINE
  5
35F
100
AcDbEntity
  8
_
  6
CONTINUOUS
 62
     3
100
AcDbLine
 10
267.499103
 20
29.452802
 30
0.0
 11
267.499103
 21
31.670392
 31
0.0
  0
LINE
  5
360
100
AcDbEntity
  8
_
  6
CONTINUOUS
 62
     3
100
AcDbLine
 10
267.499103
 20
31.670392
 30
0.0
 11
269.515002
 21
31.670392
 31
0.0
  0
LINE
  5
361
100
AcDbEntity
  8
_
  6
CONTINUOUS
 62
     3
100
AcDbLine
 10
269.515002
 20
31.670392
 30
0.0
 11
269.515002
 21
29.452802
 31
0.0
  0
LINE
  5
362
100
AcDbEntity
  8
_
  6
CONTINUOUS
 62
     3
100
AcDbLine
 10
269.515002
 20
29.452802
 30
0.0
 11
271.329547
 21
29.452802
 31
0.0
  0
LINE
  5
363
100
AcDbEntity
  8
_
  6
CONTINUOUS
 62
     3
100
AcDbLine
 10
271.329547
 20
29.452802
 30
0.0
 11
271.329547
 21
28.243207
 31
0.0
  0
LINE
  5
364
100
AcDbEntity
  8
_
  6
CONTINUOUS
 62
     3
100
AcDbLine
 10
271.329547
 20
28.243207
 30
0.0
 11
269.515002
 21
28.243207
 31
0.0
  0
LINE
  5
365
100
AcDbEntity
  8
_
  6
CONTINUOUS
 62
     3
100
AcDbLine
 10
269.515002
 20
28.243207
 30
0.0
 11
269.515002
 21
24.009595
 31
0.0
  0
LINE
  5
366
100
AcDbEntity
  8
_
  6
CONTINUOUS
 62
     3
100
AcDbLine
 10
269.515002
 20
24.009595
 30
0.0
 11
271.531329
 21
24.009595
 31
0.0
  0
LINE
  5
367
100
AcDbEntity
  8
_
  6
CONTINUOUS
 62
     3
100
AcDbLine
 10
271.531329
 20
24.009595
 30
0.0
 11
271.531329
 21
22.8
 31
0.0
  0
LINE
  5
368
100
AcDbEntity
  8
_
  6
CONTINUOUS
 62
     3
100
AcDbLine
 10
271.531329
 20
22.8
 30
0.0
 11
264.878192
 21
22.8
 31
0.0
  0
LINE
  5
369
100
AcDbEntity
  8
_
  6
CONTINUOUS
 62
     3
100
AcDbLine
 10
264.878192
 20
22.8
 30
0.0
 11
264.878192
 21
24.009595
 31
0.0
  0
LINE
  5
36A
100
AcDbEntity
  8
_
  6
CONTINUOUS
 62
     3
100
AcDbLine
 10
264.878192
 20
24.009595
 30
0.0
 11
267.499103
 21
24.009595
 31
0.0
  0
LINE
  5
36B
100
AcDbEntity
  8
_
  6
CONTINUOUS
 62
     3
100
AcDbLine
 10
267.499103
 20
24.009595
 30
0.0
 11
267.499103
 21
28.243207
 31
0.0
  0
LINE
  5
36C
100
AcDbEntity
  8
_
  6
CONTINUOUS
 62
     3
100
AcDbLine
 10
267.499103
 20
28.243207
 30
0.0
 11
265.684985
 21
28.243207
 31
0.0
  0
LINE
  5
36D
100
AcDbEntity
  8
_
  6
CONTINUOUS
 62
     3
100
AcDbLine
 10
260.241382
 20
30.863995
 30
0.0
 11
260.241382
 21
29.654401
 31
0.0
  0
LINE
  5
36E
100
AcDbEntity
  8
_
  6
CONTINUOUS
 62
     3
100
AcDbLine
 10
260.241382
 20
30.863995
 30
0.0
 11
262.055927
 21
30.863995
 31
0.0
  0
LINE
  5
36F
100
AcDbEntity
  8
_
  6
CONTINUOUS
 62
     3
100
AcDbLine
 10
262.055927
 20
30.863995
 30
0.0
 11
262.055927
 21
31.670392
 31
0.0
  0
LINE
  5
370
100
AcDbEntity
  8
_
  6
CONTINUOUS
 62
     3
100
AcDbLine
 10
262.055927
 20
31.670392
 30
0.0
 11
264.071826
 21
31.670392
 31
0.0
  0
LINE
  5
371
100
AcDbEntity
  8
_
  6
CONTINUOUS
 62
     3
100
AcDbLine
 10
264.071826
 20
31.670392
 30
0.0
 11
264.071826
 21
30.863995
 31
0.0
  0
LINE
  5
372
100
AcDbEntity
  8
_
  6
CONTINUOUS
 62
     3
100
AcDbLine
 10
264.071826
 20
30.863995
 30
0.0
 11
265.886371
 21
30.863995
 31
0.0
  0
LINE
  5
373
100
AcDbEntity
  8
_
  6
CONTINUOUS
 62
     3
100
AcDbLine
 10
265.886371
 20
30.863995
 30
0.0
 11
263.805225
 21
27.891156
 31
0.0
  0
LINE
  5
374
100
AcDbEntity
  8
_
  6
CONTINUOUS
 62
     3
100
AcDbLine
 10
263.805225
 20
27.891156
 30
0.0
 11
265.684985
 21
26.575177
 31
0.0
  0
LINE
  5
375
100
AcDbEntity
  8
_
  6
CONTINUOUS
 62
     3
100
AcDbLine
 10
265.684985
 20
26.575177
 30
0.0
 11
265.684985
 21
24.360242
 31
0.0
  0
LINE
  5
376
100
AcDbEntity
  8
_
  6
CONTINUOUS
 62
     3
100
AcDbLine
 10
265.684985
 20
24.360242
 30
0.0
 11
264.071826
 21
25.489545
 31
0.0
  0
LINE
  5
377
100
AcDbEntity
  8
_
  6
CONTINUOUS
 62
     3
100
AcDbLine
 10
264.071826
 20
25.489545
 30
0.0
 11
264.071826
 21
22.8
 31
0.0
  0
LINE
  5
378
100
AcDbEntity
  8
_
  6
CONTINUOUS
 62
     3
100
AcDbLine
 10
264.071826
 20
22.8
 30
0.0
 11
262.055927
 21
22.8
 31
0.0
  0
LINE
  5
379
100
AcDbEntity
  8
_
  6
CONTINUOUS
 62
     3
100
AcDbLine
 10
262.055927
 20
22.8
 30
0.0
 11
262.055927
 21
25.39198
 31
0.0
  0
LINE
  5
37A
100
AcDbEntity
  8
_
  6
CONTINUOUS
 62
     3
100
AcDbLine
 10
262.055927
 20
25.39198
 30
0.0
 11
260.241382
 21
22.8
 31
0.0
  0
LINE
  5
37B
100
AcDbEntity
  8
_
  6
CONTINUOUS
 62
     3
100
AcDbLine
 10
260.241382
 20
22.8
 30
0.0
 11
260.241382
 21
25.963879
 31
0.0
  0
LINE
  5
37C
100
AcDbEntity
  8
_
  6
CONTINUOUS
 62
     3
100
AcDbLine
 10
260.241382
 20
25.963879
 30
0.0
 11
262.82497
 21
29.654401
 31
0.0
  0
LINE
  5
37D
100
AcDbEntity
  8
_
  6
CONTINUOUS
 62
     3
100
AcDbLine
 10
262.82497
 20
29.654401
 30
0.0
 11
260.241382
 21
29.654401
 31
0.0
  0
ARC
  5
37E
100
AcDbEntity
  8
_
  6
CONTINUOUS
 62
     2
100
AcDbCircle
 10
171.832202
 20
28.040082
 30
0.0
 40
1.260024
100
AcDbArc
 50
310.768311
 51
335.998779
  0
LINE
  5
37F
100
AcDbEntity
  8
_
  6
CONTINUOUS
 62
     2
100
AcDbLine
 10
173.280048
 20
28.192822
 30
0.0
 11
172.983936
 21
27.527814
 31
0.0
  0
LINE
  5
380
100
AcDbEntity
  8
_
  6
CONTINUOUS
 62
     2
100
AcDbLine
 10
169.797015
 20
28.948804
 30
0.0
 11
174.443683
 21
28.948804
 31
0.0
  0
ARC
  5
381
100
AcDbEntity
  8
_
  6
CONTINUOUS
 62
     2
100
AcDbCircle
 10
190.459857
 20
26.428815
 30
0.0
 40
3.124802
100
AcDbArc
 50
270.000031
 51
324.00116
  0
ARC
  5
382
100
AcDbEntity
  8
_
  6
CONTINUOUS
 62
     2
100
AcDbCircle
 10
190.459857
 20
26.428815
 30
0.0
 40
2.620802
100
AcDbArc
 50
270.000031
 51
324.00116
  0
ARC
  5
383
100
AcDbEntity
  8
_
  6
CONTINUOUS
 62
     2
100
AcDbCircle
 10
159.913135
 20
26.428815
 30
0.0
 40
3.124796
100
AcDbArc
 50
270.000031
 51
333.99855
  0
ARC
  5
384
100
AcDbEntity
  8
_
  6
CONTINUOUS
 62
     2
100
AcDbCircle
 10
159.753101
 20
26.428815
 30
0.0
 40
2.116798
100
AcDbArc
 50
270.000031
 51
333.99855
  0
ARC
  5
385
100
AcDbEntity
  8
_
  6
CONTINUOUS
 62
     2
100
AcDbCircle
 10
159.833118
 20
26.428815
 30
0.0
 40
2.620798
100
AcDbArc
 50
270.000031
 51
333.99855
  0
LINE
  5
386
100
AcDbEntity
  8
_
  6
CONTINUOUS
 62
     2
100
AcDbLine
 10
154.568164
 20
31.206425
 30
0.0
 11
159.476794
 21
31.206425
 31
0.0
  0
LINE
  5
387
100
AcDbEntity
  8
_
  6
CONTINUOUS
 62
     2
100
AcDbLine
 10
154.568164
 20
30.742429
 30
0.0
 11
159.476794
 21
30.742429
 31
0.0
  0
LINE
  5
388
100
AcDbEntity
  8
_
  6
CONTINUOUS
 62
     2
100
AcDbLine
 10
154.568164
 20
30.278462
 30
0.0
 11
159.476794
 21
30.278462
 31
0.0
  0
LINE
  5
389
100
AcDbEntity
  8
_
  6
CONTINUOUS
 62
     2
100
AcDbLine
 10
154.568164
 20
28.827206
 30
0.0
 11
159.476794
 21
28.827206
 31
0.0
  0
LINE
  5
38A
100
AcDbEntity
  8
_
  6
CONTINUOUS
 62
     2
100
AcDbLine
 10
154.568164
 20
28.323178
 30
0.0
 11
159.476794
 21
28.323178
 31
0.0
  0
LINE
  5
38B
100
AcDbEntity
  8
_
  6
CONTINUOUS
 62
     2
100
AcDbLine
 10
154.568164
 20
27.859212
 30
0.0
 11
159.476794
 21
27.859212
 31
0.0
  0
LINE
  5
38C
100
AcDbEntity
  8
_
  6
CONTINUOUS
 62
     2
100
AcDbLine
 10
154.568164
 20
24.311993
 30
0.0
 11
159.753101
 21
24.311993
 31
0.0
  0
LINE
  5
38D
100
AcDbEntity
  8
_
  6
CONTINUOUS
 62
     2
100
AcDbLine
 10
154.568164
 20
23.807996
 30
0.0
 11
159.753101
 21
23.807996
 31
0.0
  0
LINE
  5
38E
100
AcDbEntity
  8
_
  6
CONTINUOUS
 62
     2
100
AcDbLine
 10
154.568164
 20
23.303998
 30
0.0
 11
159.753101
 21
23.303998
 31
0.0
  0
LINE
  5
38F
100
AcDbEntity
  8
_
  6
CONTINUOUS
 62
     2
100
AcDbLine
 10
161.655414
 20
25.500806
 30
0.0
 11
163.421649
 21
29.122073
 31
0.0
  0
LINE
  5
390
100
AcDbEntity
  8
_
  6
CONTINUOUS
 62
     2
100
AcDbLine
 10
162.188251
 20
25.279919
 30
0.0
 11
164.062335
 21
29.122075
 31
0.0
  0
LINE
  5
391
100
AcDbEntity
  8
_
  6
CONTINUOUS
 62
     2
100
AcDbLine
 10
162.721057
 20
25.05885
 30
0.0
 11
164.702625
 21
29.122069
 31
0.0
  0
LINE
  5
392
100
AcDbEntity
  8
_
  6
CONTINUOUS
 62
     2
100
AcDbLine
 10
162.027271
 20
31.139195
 30
0.0
 11
162.903674
 21
31.139195
 31
0.0
  0
LINE
  5
393
100
AcDbEntity
  8
_
  6
CONTINUOUS
 62
     2
100
AcDbLine
 10
162.027271
 20
30.567998
 30
0.0
 11
162.903674
 21
30.567998
 31
0.0
  0
LINE
  5
394
100
AcDbEntity
  8
_
  6
CONTINUOUS
 62
     2
100
AcDbLine
 10
164.244983
 20
31.139195
 30
0.0
 11
165.121387
 21
31.139195
 31
0.0
  0
LINE
  5
395
100
AcDbEntity
  8
_
  6
CONTINUOUS
 62
     2
100
AcDbLine
 10
164.244983
 20
30.567998
 30
0.0
 11
165.121387
 21
30.567998
 31
0.0
  0
LINE
  5
396
100
AcDbEntity
  8
_
  6
CONTINUOUS
 62
     2
100
AcDbLine
 10
166.462695
 20
28.444836
 30
0.0
 11
168.856128
 21
28.444836
 31
0.0
  0
LINE
  5
397
100
AcDbEntity
  8
_
  6
CONTINUOUS
 62
     2
100
AcDbLine
 10
168.275073
 20
30.500537
 30
0.0
 11
168.521014
 21
28.948804
 31
0.0
  0
LINE
  5
398
100
AcDbEntity
  8
_
  6
CONTINUOUS
 62
     2
100
AcDbLine
 10
169.43761
 20
23.163461
 30
0.0
 11
168.689807
 21
27.883809
 31
0.0
  0
ARC
  5
399
100
AcDbEntity
  8
_
  6
CONTINUOUS
 62
     2
100
AcDbCircle
 10
171.792194
 20
28.040082
 30
0.0
 40
1.764024
100
AcDbArc
 50
272.671387
 51
335.998779
  0
ARC
  5
39A
100
AcDbEntity
  8
_
  6
CONTINUOUS
 62
     2
100
AcDbCircle
 10
171.752185
 20
28.040082
 30
0.0
 40
2.268023
100
AcDbArc
 50
267.367432
 51
335.998779
  0
LINE
  5
39B
100
AcDbEntity
  8
_
  6
CONTINUOUS
 62
     2
100
AcDbLine
 10
174.670337
 20
29.018105
 30
0.0
 11
173.824298
 21
27.117718
 31
0.0
  0
LINE
  5
39C
100
AcDbEntity
  8
_
  6
CONTINUOUS
 62
     2
100
AcDbLine
 10
170.618121
 20
23.163461
 30
0.0
 11
169.844074
 21
28.049764
 31
0.0
  0
LINE
  5
39D
100
AcDbEntity
  8
_
  6
CONTINUOUS
 62
     2
100
AcDbLine
 10
170.067859
 20
23.163461
 30
0.0
 11
168.905688
 21
30.500535
 31
0.0
  0
LINE
  5
39E
100
AcDbEntity
  8
_
  6
CONTINUOUS
 62
     2
100
AcDbLine
 10
169.455951
 20
30.500535
 30
0.0
 11
169.679126
 21
29.091893
 31
0.0
  0
LINE
  5
39F
100
AcDbEntity
  8
_
  6
CONTINUOUS
 62
     2
100
AcDbLine
 10
166.462695
 20
28.948804
 30
0.0
 11
168.121021
 21
28.948804
 31
0.0
  0
LINE
  5
3A0
100
AcDbEntity
  8
_
  6
CONTINUOUS
 62
     2
100
AcDbLine
 10
173.933978
 20
28.514079
 30
0.0
 11
173.404102
 21
27.322705
 31
0.0
  0
LINE
  5
3A1
100
AcDbEntity
  8
_
  6
CONTINUOUS
 62
     2
100
AcDbLine
 10
169.621478
 20
28.444836
 30
0.0
 11
173.467639
 21
28.444836
 31
0.0
  0
ARC
  5
3A2
100
AcDbEntity
  8
_
  6
CONTINUOUS
 62
     2
100
AcDbCircle
 10
171.712177
 20
28.040082
 30
0.0
 40
2.772022
100
AcDbArc
 50
269.611328
 51
335.998779
  0
LINE
  5
3A3
100
AcDbEntity
  8
_
  6
CONTINUOUS
 62
     2
100
AcDbLine
 10
175.181964
 20
29.018111
 30
0.0
 11
174.244495
 21
26.912671
 31
0.0
  0
LINE
  5
3A4
100
AcDbEntity
  8
_
  6
CONTINUOUS
 62
     2
100
AcDbLine
 10
196.662524
 20
30.662427
 30
0.0
 11
192.576129
 21
25.036542
 31
0.0
  0
LINE
  5
3A5
100
AcDbEntity
  8
_
  6
CONTINUOUS
 62
     2
100
AcDbLine
 10
195.573627
 20
30.158459
 30
0.0
 11
192.068408
 21
25.332806
 31
0.0
  0
ARC
  5
3A6
100
AcDbEntity
  8
_
  6
CONTINUOUS
 62
     2
100
AcDbCircle
 10
190.599872
 20
26.348813
 30
0.0
 40
1.864804
100
AcDbArc
 50
270.000031
 51
324.00116
  0
LINE
  5
3A7
100
AcDbEntity
  8
_
  6
CONTINUOUS
 62
     2
100
AcDbLine
 10
176.775897
 20
31.203118
 30
0.0
 11
185.652728
 21
31.203118
 31
0.0
  0
LINE
  5
3A8
100
AcDbEntity
  8
_
  6
CONTINUOUS
 62
     2
100
AcDbLine
 10
176.775897
 20
30.67915
 30
0.0
 11
185.652728
 21
30.67915
 31
0.0
  0
LINE
  5
3A9
100
AcDbEntity
  8
_
  6
CONTINUOUS
 62
     2
100
AcDbLine
 10
176.775897
 20
30.135182
 30
0.0
 11
185.652728
 21
30.135182
 31
0.0
  0
LINE
  5
3AA
100
AcDbEntity
  8
_
  6
CONTINUOUS
 62
     2
100
AcDbLine
 10
175.969531
 20
24.328809
 30
0.0
 11
186.459094
 21
24.328809
 31
0.0
  0
LINE
  5
3AB
100
AcDbEntity
  8
_
  6
CONTINUOUS
 62
     2
100
AcDbLine
 10
175.969531
 20
23.824811
 30
0.0
 11
186.459094
 21
23.824811
 31
0.0
  0
LINE
  5
3AC
100
AcDbEntity
  8
_
  6
CONTINUOUS
 62
     2
100
AcDbLine
 10
175.969531
 20
23.280782
 30
0.0
 11
186.459094
 21
23.280782
 31
0.0
  0
LINE
  5
3AD
100
AcDbEntity
  8
_
  6
CONTINUOUS
 62
     2
100
AcDbLine
 10
188.670428
 20
31.186425
 30
0.0
 11
197.251361
 21
31.186425
 31
0.0
  0
LINE
  5
3AE
100
AcDbEntity
  8
_
  6
CONTINUOUS
 62
     2
100
AcDbLine
 10
197.771381
 20
31.166425
 30
0.0
 11
193.103809
 21
24.740125
 31
0.0
  0
LINE
  5
3AF
100
AcDbEntity
  8
_
  6
CONTINUOUS
 62
     2
100
AcDbLine
 10
188.670428
 20
30.662427
 30
0.0
 11
196.2625
 21
30.662427
 31
0.0
  0
LINE
  5
3B0
100
AcDbEntity
  8
_
  6
CONTINUOUS
 62
     2
100
AcDbLine
 10
190.459857
 20
24.331994
 30
0.0
 11
187.864062
 21
24.331994
 31
0.0
  0
LINE
  5
3B1
100
AcDbEntity
  8
_
  6
CONTINUOUS
 62
     2
100
AcDbLine
 10
190.459857
 20
23.807996
 30
0.0
 11
187.864062
 21
23.807996
 31
0.0
  0
LINE
  5
3B2
100
AcDbEntity
  8
_
  6
CONTINUOUS
 62
     2
100
AcDbLine
 10
190.459857
 20
23.283997
 30
0.0
 11
187.864062
 21
23.283997
 31
0.0
  0
LINE
  5
3B3
100
AcDbEntity
  8
_
  6
CONTINUOUS
 62
     2
100
AcDbLine
 10
194.486377
 20
25.94743
 30
0.0
 11
196.874316
 21
23.2
 31
0.0
  0
LINE
  5
3B4
100
AcDbEntity
  8
_
  6
CONTINUOUS
 62
     2
100
AcDbLine
 10
194.790698
 20
26.306102
 30
0.0
 11
197.490344
 21
23.2
 31
0.0
  0
LINE
  5
3B5
100
AcDbEntity
  8
_
  6
CONTINUOUS
 62
     2
100
AcDbLine
 10
195.094623
 20
26.66459
 30
0.0
 11
198.105884
 21
23.2
 31
0.0
  0
LINE
  5
3B6
100
AcDbEntity
  8
_
  6
CONTINUOUS
 62
     2
100
AcDbLine
 10
195.398547
 20
27.023169
 30
0.0
 11
198.721851
 21
23.2
 31
0.0
  0
LINE
  5
3B7
100
AcDbEntity
  8
_
  6
CONTINUOUS
 62
     2
100
AcDbLine
 10
188.670428
 20
30.118459
 30
0.0
 11
195.073596
 21
30.118459
 31
0.0
  0
LINE
  5
3B8
100
AcDbEntity
  8
_
  6
CONTINUOUS
 62
     2
100
AcDbLine
 10
202.379108
 20
31.206425
 30
0.0
 11
212.062274
 21
31.206425
 31
0.0
  0
LINE
  5
3B9
100
AcDbEntity
  8
_
  6
CONTINUOUS
 62
     2
100
AcDbLine
 10
202.379108
 20
30.702428
 30
0.0
 11
212.062274
 21
30.702428
 31
0.0
  0
LINE
  5
3BA
100
AcDbEntity
  8
_
  6
CONTINUOUS
 62
     2
100
AcDbLine
 10
206.53548
 20
24.295983
 30
0.0
 11
206.53548
 21
30.242444
 31
0.0
  0
LINE
  5
3BB
100
AcDbEntity
  8
_
  6
CONTINUOUS
 62
     2
100
AcDbLine
 10
207.039172
 20
24.295983
 30
0.0
 11
207.039172
 21
30.242444
 31
0.0
  0
LINE
  5
3BC
100
AcDbEntity
  8
_
  6
CONTINUOUS
 62
     2
100
AcDbLine
 10
207.542834
 20
24.295983
 30
0.0
 11
207.542834
 21
30.242444
 31
0.0
  0
LINE
  5
3BD
100
AcDbEntity
  8
_
  6
CONTINUOUS
 62
     2
100
AcDbLine
 10
208.006488
 20
24.295983
 30
0.0
 11
208.006488
 21
30.242444
 31
0.0
  0
LINE
  5
3BE
100
AcDbEntity
  8
_
  6
CONTINUOUS
 62
     2
100
AcDbLine
 10
201.975909
 20
23.895984
 30
0.0
 11
212.465472
 21
23.895984
 31
0.0
  0
LINE
  5
3BF
100
AcDbEntity
  8
_
  6
CONTINUOUS
 62
     2
100
AcDbLine
 10
201.975909
 20
23.291985
 30
0.0
 11
212.465472
 21
23.291985
 31
0.0
  0
LINE
  5
3C0
100
AcDbEntity
  8
_
  6
CONTINUOUS
 62
     2
100
AcDbLine
 10
214.825519
 20
31.270392
 30
0.0
 11
215.574176
 21
30.3123
 31
0.0
  0
LINE
  5
3C1
100
AcDbEntity
  8
_
  6
CONTINUOUS
 62
     2
100
AcDbLine
 10
215.464954
 20
31.270392
 30
0.0
 11
216.213611
 21
30.3123
 31
0.0
  0
LINE
  5
3C2
100
AcDbEntity
  8
_
  6
CONTINUOUS
 62
     2
100
AcDbLine
 10
217.462268
 20
31.270392
 30
0.0
 11
217.462268
 21
30.397113
 31
0.0
  0
LINE
  5
3C3
100
AcDbEntity
  8
_
  6
CONTINUOUS
 62
     2
100
AcDbLine
 10
218.005969
 20
31.270392
 30
0.0
 11
218.005969
 21
30.397113
 31
0.0
  0
LINE
  5
3C4
100
AcDbEntity
  8
_
  6
CONTINUOUS
 62
     2
100
AcDbLine
 10
219.478198
 20
31.270392
 30
0.0
 11
219.478198
 21
30.397113
 31
0.0
  0
LINE
  5
3C5
100
AcDbEntity
  8
_
  6
CONTINUOUS
 62
     2
100
AcDbLine
 10
220.061877
 20
31.270392
 30
0.0
 11
220.061877
 21
30.397113
 31
0.0
  0
LINE
  5
3C6
100
AcDbEntity
  8
_
  6
CONTINUOUS
 62
     2
100
AcDbLine
 10
221.999133
 20
31.270392
 30
0.0
 11
221.250476
 21
30.3123
 31
0.0
  0
LINE
  5
3C7
100
AcDbEntity
  8
_
  6
CONTINUOUS
 62
     2
100
AcDbLine
 10
222.678577
 20
31.270392
 30
0.0
 11
221.929919
 21
30.3123
 31
0.0
  0
LINE
  5
3C8
100
AcDbEntity
  8
_
  6
CONTINUOUS
 62
     2
100
AcDbLine
 10
213.467242
 20
29.997113
 30
0.0
 11
223.956805
 21
29.997113
 31
0.0
  0
LINE
  5
3C9
100
AcDbEntity
  8
_
  6
CONTINUOUS
 62
     2
100
AcDbLine
 10
216.086353
 20
28.437657
 30
0.0
 11
215.655566
 21
29.621236
 31
0.0
  0
LINE
  5
3CA
100
AcDbEntity
  8
_
  6
CONTINUOUS
 62
     2
100
AcDbLine
 10
216.702441
 20
28.437657
 30
0.0
 11
216.271655
 21
29.621236
 31
0.0
  0
LINE
  5
3CB
100
AcDbEntity
  8
_
  6
CONTINUOUS
 62
     2
100
AcDbLine
 10
217.278522
 20
28.437703
 30
0.0
 11
216.848224
 21
29.62119
 31
0.0
  0
LINE
  5
3CC
100
AcDbEntity
  8
_
  6
CONTINUOUS
 62
     2
100
AcDbLine
 10
220.183887
 20
28.437613
 30
0.0
 11
220.615131
 21
29.62128
 31
0.0
  0
LINE
  5
3CD
100
AcDbEntity
  8
_
  6
CONTINUOUS
 62
     2
100
AcDbLine
 10
220.800403
 20
28.437613
 30
0.0
 11
221.231647
 21
29.62128
 31
0.0
  0
LINE
  5
3CE
100
AcDbEntity
  8
_
  6
CONTINUOUS
 62
     2
100
AcDbLine
 10
221.376483
 20
28.437613
 30
0.0
 11
221.807727
 21
29.62128
 31
0.0
  0
LINE
  5
3CF
100
AcDbEntity
  8
_
  6
CONTINUOUS
 62
     2
100
AcDbLine
 10
213.467242
 20
28.06178
 30
0.0
 11
223.956805
 21
28.06178
 31
0.0
  0
LINE
  5
3D0
100
AcDbEntity
  8
_
  6
CONTINUOUS
 62
     2
100
AcDbLine
 10
213.467242
 20
26.670728
 30
0.0
 11
217.767749
 21
26.670728
 31
0.0
  0
LINE
  5
3D1
100
AcDbEntity
  8
_
  6
CONTINUOUS
 62
     2
100
AcDbLine
 10
213.467242
 20
25.279675
 30
0.0
 11
217.767749
 21
25.279675
 31
0.0
  0
LINE
  5
3D2
100
AcDbEntity
  8
_
  6
CONTINUOUS
 62
     2
100
AcDbLine
 10
219.695117
 20
25.279675
 30
0.0
 11
223.956805
 21
25.279675
 31
0.0
  0
LINE
  5
3D3
100
AcDbEntity
  8
_
  6
CONTINUOUS
 62
     2
100
AcDbLine
 10
214.101764
 20
23.2
 30
0.0
 11
216.106647
 21
25.011508
 31
0.0
  0
LINE
  5
3D4
100
AcDbEntity
  8
_
  6
CONTINUOUS
 62
     2
100
AcDbLine
 10
214.773547
 20
23.2
 30
0.0
 11
216.778491
 21
25.011512
 31
0.0
  0
LINE
  5
3D5
100
AcDbEntity
  8
_
  6
CONTINUOUS
 62
     2
100
AcDbLine
 10
215.40575
 20
23.2
 30
0.0
 11
217.410693
 21
25.011512
 31
0.0
  0
LINE
  5
3D6
100
AcDbEntity
  8
_
  6
CONTINUOUS
 62
     2
100
AcDbLine
 10
218.167743
 20
23.2
 30
0.0
 11
218.167743
 21
27.66178
 31
0.0
  0
LINE
  5
3D7
100
AcDbEntity
  8
_
  6
CONTINUOUS
 62
     2
100
AcDbLine
 10
218.751422
 20
23.2
 30
0.0
 11
218.751422
 21
27.66178
 31
0.0
  0
LINE
  5
3D8
100
AcDbEntity
  8
_
  6
CONTINUOUS
 62
     2
100
AcDbLine
 10
219.295123
 20
23.2
 30
0.0
 11
219.295123
 21
27.66178
 31
0.0
  0
LINE
  5
3D9
100
AcDbEntity
  8
_
  6
CONTINUOUS
 62
     2
100
AcDbLine
 10
222.034351
 20
23.2
 30
0.0
 11
220.029468
 21
25.011508
 31
0.0
  0
LINE
  5
3DA
100
AcDbEntity
  8
_
  6
CONTINUOUS
 62
     2
100
AcDbLine
 10
222.706165
 20
23.2
 30
0.0
 11
220.701221
 21
25.011512
 31
0.0
  0
LINE
  5
3DB
100
AcDbEntity
  8
_
  6
CONTINUOUS
 62
     2
100
AcDbLine
 10
223.378375
 20
23.2
 30
0.0
 11
221.373431
 21
25.011512
 31
0.0
  0
LINE
  5
3DC
100
AcDbEntity
  8
_
  6
CONTINUOUS
 62
     2
100
AcDbLine
 10
227.199573
 20
31.270392
 30
0.0
 11
227.199573
 21
30.558398
 31
0.0
  0
LINE
  5
3DD
100
AcDbEntity
  8
_
  6
CONTINUOUS
 62
     2
100
AcDbLine
 10
227.703235
 20
31.270392
 30
0.0
 11
227.703235
 21
30.558398
 31
0.0
  0
LINE
  5
3DE
100
AcDbEntity
  8
_
  6
CONTINUOUS
 62
     2
100
AcDbLine
 10
228.206928
 20
31.270392
 30
0.0
 11
228.206928
 21
30.558398
 31
0.0
  0
LINE
  5
3DF
100
AcDbEntity
  8
_
  6
CONTINUOUS
 62
     2
100
AcDbLine
 10
225.159991
 20
30.158398
 30
0.0
 11
228.795032
 21
30.158398
 31
0.0
  0
LINE
  5
3E0
100
AcDbEntity
  8
_
  6
CONTINUOUS
 62
     2
100
AcDbLine
 10
225.188831
 20
23.19781
 30
0.0
 11
225.878406
 21
29.760588
 31
0.0
  0
LINE
  5
3E1
100
AcDbEntity
  8
_
  6
CONTINUOUS
 62
     2
100
AcDbLine
 10
225.655353
 20
23.19781
 30
0.0
 11
226.344958
 21
29.760588
 31
0.0
  0
LINE
  5
3E2
100
AcDbEntity
  8
_
  6
CONTINUOUS
 62
     2
100
AcDbLine
 10
227.199573
 20
23.2
 30
0.0
 11
227.199573
 21
29.758399
 31
0.0
  0
LINE
  5
3E3
100
AcDbEntity
  8
_
  6
CONTINUOUS
 62
     2
100
AcDbLine
 10
227.703235
 20
23.2
 30
0.0
 11
227.703235
 21
29.758399
 31
0.0
  0
LINE
  5
3E4
100
AcDbEntity
  8
_
  6
CONTINUOUS
 62
     2
100
AcDbLine
 10
228.206928
 20
23.2
 30
0.0
 11
228.206928
 21
29.758399
 31
0.0
  0
LINE
  5
3E5
100
AcDbEntity
  8
_
  6
CONTINUOUS
 62
     2
100
AcDbLine
 10
228.441852
 20
29.230849
 30
0.0
 11
228.960071
 21
28.516768
 31
0.0
  0
LINE
  5
3E6
100
AcDbEntity
  8
_
  6
CONTINUOUS
 62
     2
100
AcDbLine
 10
228.441852
 20
28.452849
 30
0.0
 11
228.960071
 21
27.738768
 31
0.0
  0
LINE
  5
3E7
100
AcDbEntity
  8
_
  6
CONTINUOUS
 62
     2
100
AcDbLine
 10
229.693835
 20
29.43772
 30
0.0
 11
230.153766
 21
31.282275
 31
0.0
  0
LINE
  5
3E8
100
AcDbEntity
  8
_
  6
CONTINUOUS
 62
     2
100
AcDbLine
 10
230.17348
 20
29.437737
 30
0.0
 11
230.633044
 21
31.282258
 31
0.0
  0
LINE
  5
3E9
100
AcDbEntity
  8
_
  6
CONTINUOUS
 62
     2
100
AcDbLine
 10
230.592761
 20
29.43772
 30
0.0
 11
231.052692
 21
31.282275
 31
0.0
  0
LINE
  5
3EA
100
AcDbEntity
  8
_
  6
CONTINUOUS
 62
     2
100
AcDbLine
 10
232.340472
 20
30.558398
 30
0.0
 11
232.340472
 21
31.270392
 31
0.0
  0
LINE
  5
3EB
100
AcDbEntity
  8
_
  6
CONTINUOUS
 62
     2
100
AcDbLine
 10
232.884143
 20
30.558398
 30
0.0
 11
232.884143
 21
31.270392
 31
0.0
  0
LINE
  5
3EC
100
AcDbEntity
  8
_
  6
CONTINUOUS
 62
     2
100
AcDbLine
 10
233.387836
 20
30.558398
 30
0.0
 11
233.387836
 21
31.270392
 31
0.0
  0
LINE
  5
3ED
100
AcDbEntity
  8
_
  6
CONTINUOUS
 62
     2
100
AcDbLine
 10
231.172443
 20
30.158398
 30
0.0
 11
235.649554
 21
30.158398
 31
0.0
  0
LINE
  5
3EE
100
AcDbEntity
  8
_
  6
CONTINUOUS
 62
     2
100
AcDbLine
 10
232.340472
 20
29.758399
 30
0.0
 11
232.340472
 21
28.542407
 31
0.0
  0
LINE
  5
3EF
100
AcDbEntity
  8
_
  6
CONTINUOUS
 62
     2
100
AcDbLine
 10
232.884143
 20
29.758399
 30
0.0
 11
232.884143
 21
28.542407
 31
0.0
  0
LINE
  5
3F0
100
AcDbEntity
  8
_
  6
CONTINUOUS
 62
     2
100
AcDbLine
 10
233.387836
 20
29.758399
 30
0.0
 11
233.387836
 21
28.542407
 31
0.0
  0
LINE
  5
3F1
100
AcDbEntity
  8
_
  6
CONTINUOUS
 62
     2
100
AcDbLine
 10
229.796802
 20
28.142407
 30
0.0
 11
235.851337
 21
28.142407
 31
0.0
  0
LINE
  5
3F2
100
AcDbEntity
  8
_
  6
CONTINUOUS
 62
     2
100
AcDbLine
 10
230.689594
 20
27.748877
 30
0.0
 11
229.860156
 21
23.19353
 31
0.0
  0
LINE
  5
3F3
100
AcDbEntity
  8
_
  6
CONTINUOUS
 62
     2
100
AcDbLine
 10
231.161456
 20
27.748877
 30
0.0
 11
230.33205
 21
23.19353
 31
0.0
  0
LINE
  5
3F4
100
AcDbEntity
  8
_
  6
CONTINUOUS
 62
     2
100
AcDbLine
 10
231.577838
 20
27.748883
 30
0.0
 11
230.748004
 21
23.193524
 31
0.0
  0
LINE
  5
3F5
100
AcDbEntity
  8
_
  6
CONTINUOUS
 62
     2
100
AcDbLine
 10
232.340472
 20
27.742408
 30
0.0
 11
232.340472
 21
23.2
 31
0.0
  0
LINE
  5
3F6
100
AcDbEntity
  8
_
  6
CONTINUOUS
 62
     2
100
AcDbLine
 10
232.844135
 20
27.742408
 30
0.0
 11
232.844135
 21
23.2
 31
0.0
  0
LINE
  5
3F7
100
AcDbEntity
  8
_
  6
CONTINUOUS
 62
     3
100
AcDbLine
 10
233.387836
 20
27.742408
 30
0.0
 11
233.387836
 21
23.2
 31
0.0
  0
LINE
  5
3F8
100
AcDbEntity
  8
_
  6
CONTINUOUS
 62
     2
100
AcDbLine
 10
234.069904
 20
27.748883
 30
0.0
 11
234.899738
 21
23.193524
 31
0.0
  0
LINE
  5
3F9
100
AcDbEntity
  8
_
  6
CONTINUOUS
 62
     2
100
AcDbLine
 10
234.502185
 20
27.748883
 30
0.0
 11
235.332019
 21
23.193524
 31
0.0
  0
LINE
  5
3FA
100
AcDbEntity
  8
_
  6
CONTINUOUS
 62
     2
100
AcDbLine
 10
235.014056
 20
27.748883
 30
0.0
 11
235.84389
 21
23.193524
 31
0.0
  0
LINE
  5
3FB
100
AcDbEntity
  8
_
  6
CONTINUOUS
 62
     2
100
AcDbLine
 10
237.054523
 20
30.480031
 30
0.0
 11
242.764819
 21
30.480031
 31
0.0
  0
LINE
  5
3FC
100
AcDbEntity
  8
_
  6
CONTINUOUS
 62
     2
100
AcDbLine
 10
237.054523
 20
29.976033
 30
0.0
 11
242.948261
 21
29.976033
 31
0.0
  0
LINE
  5
3FD
100
AcDbEntity
  8
_
  6
CONTINUOUS
 62
     2
100
AcDbLine
 10
245.823322
 20
23.175877
 30
0.0
 11
242.868396
 21
31.294514
 31
0.0
  0
LINE
  5
3FE
100
AcDbEntity
  8
_
  6
CONTINUOUS
 62
     2
100
AcDbLine
 10
246.359393
 20
23.175879
 30
0.0
 11
243.40459
 21
31.294513
 31
0.0
  0
LINE
  5
3FF
100
AcDbEntity
  8
_
  6
CONTINUOUS
 62
     2
100
AcDbLine
 10
246.895465
 20
23.175879
 30
0.0
 11
243.940662
 21
31.294513
 31
0.0
  0
LINE
  5
400
100
AcDbEntity
  8
_
  6
CONTINUOUS
 62
     2
100
AcDbLine
 10
247.431537
 20
23.175872
 30
0.0
 11
244.476276
 21
31.294518
 31
0.0
  0
LINE
  5
401
100
AcDbEntity
  8
_
  6
CONTINUOUS
 62
     2
100
AcDbLine
 10
245.908618
 20
30.88003
 30
0.0
 11
245.908618
 21
31.270392
 31
0.0
  0
LINE
  5
402
100
AcDbEntity
  8
_
  6
CONTINUOUS
 62
     2
100
AcDbLine
 10
246.452319
 20
30.88003
 30
0.0
 11
246.452319
 21
31.270392
 31
0.0
  0
LINE
  5
403
100
AcDbEntity
  8
_
  6
CONTINUOUS
 62
     2
100
AcDbLine
 10
246.99599
 20
30.88003
 30
0.0
 11
246.99599
 21
31.270392
 31
0.0
  0
LINE
  5
404
100
AcDbEntity
  8
_
  6
CONTINUOUS
 62
     2
100
AcDbLine
 10
245.172748
 20
30.480031
 30
0.0
 11
247.544086
 21
30.480031
 31
0.0
  0
LINE
  5
405
100
AcDbEntity
  8
_
  6
CONTINUOUS
 62
     2
100
AcDbLine
 10
245.35622
 20
29.976033
 30
0.0
 11
247.544086
 21
29.976033
 31
0.0
  0
LINE
  5
406
100
AcDbEntity
  8
_
  6
CONTINUOUS
 62
     2
100
AcDbLine
 10
237.659106
 20
28.07282
 30
0.0
 11
242.907275
 21
28.07282
 31
0.0
  0
LINE
  5
407
100
AcDbEntity
  8
_
  6
CONTINUOUS
 62
     2
100
AcDbLine
 10
237.659106
 20
27.568791
 30
0.0
 11
242.907275
 21
27.568791
 31
0.0
  0
LINE
  5
408
100
AcDbEntity
  8
_
  6
CONTINUOUS
 62
     2
100
AcDbLine
 10
239.558185
 20
27.168792
 30
0.0
 11
239.558185
 21
25.158231
 31
0.0
  0
LINE
  5
409
100
AcDbEntity
  8
_
  6
CONTINUOUS
 62
     2
100
AcDbLine
 10
240.061847
 20
27.168792
 30
0.0
 11
240.061847
 21
25.265286
 31
0.0
  0
LINE
  5
40A
100
AcDbEntity
  8
_
  6
CONTINUOUS
 62
     2
100
AcDbLine
 10
240.565509
 20
27.168792
 30
0.0
 11
240.565509
 21
25.372344
 31
0.0
  0
LINE
  5
40B
100
AcDbEntity
  8
_
  6
CONTINUOUS
 62
     2
100
AcDbLine
 10
241.069202
 20
27.168792
 30
0.0
 11
241.069202
 21
25.479405
 31
0.0
  0
LINE
  5
40C
100
AcDbEntity
  8
_
  6
CONTINUOUS
 62
     2
100
AcDbLine
 10
237.549457
 20
24.331263
 30
0.0
 11
243.016895
 21
25.493399
 31
0.0
  0
LINE
  5
40D
100
AcDbEntity
  8
_
  6
CONTINUOUS
 62
     2
100
AcDbLine
 10
237.549457
 20
23.776006
 30
0.0
 11
243.016895
 21
24.93817
 31
0.0
  0
LINE
  5
40E
100
AcDbEntity
  8
_
  6
CONTINUOUS
 62
     2
100
AcDbLine
 10
237.549457
 20
23.300746
 30
0.0
 11
243.016895
 21
24.462882
 31
0.0
  0
LINE
  5
40F
100
AcDbEntity
  8
_
  6
CONTINUOUS
 62
     2
100
AcDbLine
 10
248.726611
 20
29.665189
 30
0.0
 11
253.903064
 21
31.39708
 31
0.0
  0
LINE
  5
410
100
AcDbEntity
  8
_
  6
CONTINUOUS
 62
     2
100
AcDbLine
 10
248.726611
 20
29.133725
 30
0.0
 11
253.903064
 21
30.865647
 31
0.0
  0
LINE
  5
411
100
AcDbEntity
  8
_
  6
CONTINUOUS
 62
     2
100
AcDbLine
 10
254.282397
 20
31.397078
 30
0.0
 11
259.458881
 21
29.665061
 31
0.0
  0
LINE
  5
412
100
AcDbEntity
  8
_
  6
CONTINUOUS
 62
     2
100
AcDbLine
 10
254.282397
 20
30.905646
 30
0.0
 11
259.458881
 21
29.173629
 31
0.0
  0
LINE
  5
413
100
AcDbEntity
  8
_
  6
CONTINUOUS
 62
     2
100
AcDbLine
 10
257.724994
 20
29.119221
 30
0.0
 11
250.460895
 21
29.119221
 31
0.0
  0
LINE
  5
414
100
AcDbEntity
  8
_
  6
CONTINUOUS
 62
     2
100
AcDbLine
 10
257.724994
 20
28.575192
 30
0.0
 11
250.460895
 21
28.575192
 31
0.0
  0
LINE
  5
415
100
AcDbEntity
  8
_
  6
CONTINUOUS
 62
     2
100
AcDbLine
 10
248.747272
 20
27.012784
 30
0.0
 11
259.43822
 21
27.012784
 31
0.0
  0
LINE
  5
416
100
AcDbEntity
  8
_
  6
CONTINUOUS
 62
     2
100
AcDbLine
 10
248.747272
 20
26.548817
 30
0.0
 11
259.43822
 21
26.548817
 31
0.0
  0
LINE
  5
417
100
AcDbEntity
  8
_
  6
CONTINUOUS
 62
     2
100
AcDbLine
 10
250.402667
 20
26.186307
 30
0.0
 11
249.382251
 21
23.998492
 31
0.0
  0
LINE
  5
418
100
AcDbEntity
  8
_
  6
CONTINUOUS
 62
     2
100
AcDbLine
 10
251.038867
 20
26.186309
 30
0.0
 11
250.01842
 21
23.998492
 31
0.0
  0
LINE
  5
419
100
AcDbEntity
  8
_
  6
CONTINUOUS
 62
     2
100
AcDbLine
 10
251.675067
 20
26.186309
 30
0.0
 11
250.65462
 21
23.998492
 31
0.0
  0
LINE
  5
41A
100
AcDbEntity
  8
_
  6
CONTINUOUS
 62
     2
100
AcDbLine
 10
256.510822
 20
26.186333
 30
0.0
 11
257.531665
 21
23.998467
 31
0.0
  0
LINE
  5
41B
100
AcDbEntity
  8
_
  6
CONTINUOUS
 62
     2
100
AcDbLine
 10
257.147418
 20
26.186284
 30
0.0
 11
258.167407
 21
23.998517
 31
0.0
  0
LINE
  5
41C
100
AcDbEntity
  8
_
  6
CONTINUOUS
 62
     2
100
AcDbLine
 10
257.783984
 20
26.186263
 30
0.0
 11
258.803638
 21
23.998538
 31
0.0
  0
LINE
  5
41D
100
AcDbEntity
  8
_
  6
CONTINUOUS
 62
     2
100
AcDbLine
 10
249.137073
 20
23.635983
 30
0.0
 11
259.048419
 21
23.635983
 31
0.0
  0
LINE
  5
41E
100
AcDbEntity
  8
_
  6
CONTINUOUS
 62
     2
100
AcDbLine
 10
248.902057
 20
23.131985
 30
0.0
 11
259.283435
 21
23.131985
 31
0.0
  0
LINE
  5
41F
100
AcDbEntity
  8
_
  6
CONTINUOUS
 62
     2
100
AcDbLine
 10
262.479572
 20
30.88003
 30
0.0
 11
262.479572
 21
31.270392
 31
0.0
  0
LINE
  5
420
100
AcDbEntity
  8
_
  6
CONTINUOUS
 62
     2
100
AcDbLine
 10
263.063251
 20
30.88003
 30
0.0
 11
263.063251
 21
31.270392
 31
0.0
  0
LINE
  5
421
100
AcDbEntity
  8
_
  6
CONTINUOUS
 62
     2
100
AcDbLine
 10
263.64696
 20
30.88003
 30
0.0
 11
263.64696
 21
31.270392
 31
0.0
  0
LINE
  5
422
100
AcDbEntity
  8
_
  6
CONTINUOUS
 62
     2
100
AcDbLine
 10
260.641376
 20
30.480031
 30
0.0
 11
265.217578
 21
30.480031
 31
0.0
  0
LINE
  5
423
100
AcDbEntity
  8
_
  6
CONTINUOUS
 62
     2
100
AcDbLine
 10
260.641376
 20
29.976033
 30
0.0
 11
264.864764
 21
29.976033
 31
0.0
  0
LINE
  5
424
100
AcDbEntity
  8
_
  6
CONTINUOUS
 62
     2
100
AcDbLine
 10
263.275836
 20
29.648335
 30
0.0
 11
260.470752
 21
25.640944
 31
0.0
  0
LINE
  5
425
100
AcDbEntity
  8
_
  6
CONTINUOUS
 62
     2
100
AcDbLine
 10
263.931323
 20
29.64836
 30
0.0
 11
260.470782
 21
24.705703
 31
0.0
  0
LINE
  5
426
100
AcDbEntity
  8
_
  6
CONTINUOUS
 62
     2
100
AcDbLine
 10
264.547595
 20
29.648354
 30
0.0
 11
260.470782
 21
23.825146
 31
0.0
  0
LINE
  5
427
100
AcDbEntity
  8
_
  6
CONTINUOUS
 62
     2
100
AcDbLine
 10
263.585986
 20
27.577382
 30
0.0
 11
265.357349
 21
26.336928
 31
0.0
  0
LINE
  5
428
100
AcDbEntity
  8
_
  6
CONTINUOUS
 62
     2
100
AcDbLine
 10
263.296893
 20
27.164399
 30
0.0
 11
265.357318
 21
25.721598
 31
0.0
  0
LINE
  5
429
100
AcDbEntity
  8
_
  6
CONTINUOUS
 62
     2
100
AcDbLine
 10
262.989001
 20
26.724625
 30
0.0
 11
265.357318
 21
25.0663
 31
0.0
  0
LINE
  5
42A
100
AcDbEntity
  8
_
  6
CONTINUOUS
 62
     2
100
AcDbLine
 10
262.479572
 20
26.294446
 30
0.0
 11
262.479572
 21
23.2
 31
0.0
  0
LINE
  5
42B
100
AcDbEntity
  8
_
  6
CONTINUOUS
 62
     2
100
AcDbLine
 10
263.063251
 20
26.272631
 30
0.0
 11
263.063251
 21
23.2
 31
0.0
  0
LINE
  5
42C
100
AcDbEntity
  8
_
  6
CONTINUOUS
 62
     2
100
AcDbLine
 10
263.64696
 20
25.863913
 30
0.0
 11
263.64696
 21
23.2
 31
0.0
  0
LINE
  5
42D
100
AcDbEntity
  8
_
  6
CONTINUOUS
 62
     2
100
AcDbLine
 10
267.922748
 20
24.035983
 30
0.0
 11
267.922748
 21
31.270392
 31
0.0
  0
LINE
  5
42E
100
AcDbEntity
  8
_
  6
CONTINUOUS
 62
     2
100
AcDbLine
 10
268.506427
 20
24.035983
 30
0.0
 11
268.506427
 21
31.270392
 31
0.0
  0
LINE
  5
42F
100
AcDbEntity
  8
_
  6
CONTINUOUS
 62
     2
100
AcDbLine
 10
269.090137
 20
24.035983
 30
0.0
 11
269.090137
 21
31.270392
 31
0.0
  0
LINE
  5
430
100
AcDbEntity
  8
_
  6
CONTINUOUS
 62
     2
100
AcDbLine
 10
266.084979
 20
29.068806
 30
0.0
 11
267.522754
 21
29.068806
 31
0.0
  0
LINE
  5
431
100
AcDbEntity
  8
_
  6
CONTINUOUS
 62
     2
100
AcDbLine
 10
266.084979
 20
28.564839
 30
0.0
 11
267.522754
 21
28.564839
 31
0.0
  0
LINE
  5
432
100
AcDbEntity
  8
_
  6
CONTINUOUS
 62
     2
100
AcDbLine
 10
269.490131
 20
29.068806
 30
0.0
 11
270.929553
 21
29.068806
 31
0.0
  0
LINE
  5
433
100
AcDbEntity
  8
_
  6
CONTINUOUS
 62
     2
100
AcDbLine
 10
269.490131
 20
28.524838
 30
0.0
 11
270.929553
 21
28.524838
 31
0.0
  0
LINE
  5
434
100
AcDbEntity
  8
_
  6
CONTINUOUS
 62
     2
100
AcDbLine
 10
265.278186
 20
23.635983
 30
0.0
 11
271.131335
 21
23.635983
 31
0.0
  0
LINE
  5
435
100
AcDbEntity
  8
_
  6
CONTINUOUS
 62
     2
100
AcDbLine
 10
265.278186
 20
23.131985
 30
0.0
 11
271.131335
 21
23.131985
 31
0.0
  0
LINE
  5
436
100
AcDbEntity
  8
_
  6
CONTINUOUS
 62
     2
100
AcDbLine
 10
219.695117
 20
26.670728
 30
0.0
 11
223.956805
 21
26.670728
 31
0.0
  0
TEXT
  5
437
100
AcDbEntity
  8
_
  6
CONTINUOUS
 62
     6
100
AcDbText
 10
36.768823
 20
19.390015
 30
0.0
 40
5.0
  1
１２
 41
0.75768
  7
EXCADSTD
 72
     5
 11
45.036555
 21
19.390015
 31
0.0
100
AcDbText
  0
TEXT
  5
438
100
AcDbEntity
  8
_
  6
CONTINUOUS
 62
     6
100
AcDbText
 10
48.645215
 20
19.390015
 30
0.0
 40
5.0
  1
３
 41
0.89208
  7
EXCADSTD
 72
     5
 11
52.893215
 21
19.390015
 31
0.0
100
AcDbText
  0
TEXT
  5
439
100
AcDbEntity
  8
_
  6
CONTINUOUS
 62
     6
100
AcDbText
 10
57.768823
 20
19.390015
 30
0.0
 40
5.0
  1
３０
 41
0.75768
  7
EXCADSTD
 72
     5
 11
66.036555
 21
19.390015
 31
0.0
100
AcDbText
  0
LINE
  5
43A
100
AcDbEntity
  8
_
  6
CONTINUOUS
 62
     6
100
AcDbLine
 10
400.0
 20
37.0
 30
0.0
 11
150.0
 21
37.0
 31
0.0
  0
TEXT
  5
43B
100
AcDbEntity
  8
_
  6
CONTINUOUS
 62
     2
100
AcDbText
 10
194.2
 20
41.7
 30
0.0
 40
13.0
  1
化粧鏡
 41
1.076923
  7
EXCADSTD
 72
     5
 11
244.2
 21
41.7
 31
0.0
100
AcDbText
  0
TEXT
  5
43C
100
AcDbEntity
  8
_
  6
CONTINUOUS
 62
     2
100
AcDbText
 10
306.400001
 20
42.35
 30
0.0
 40
13.0
  1
ＮＭ３
 41
0.801231
  7
EXCADSTD
 72
     5
 11
343.599999
 21
42.35
 31
0.0
100
AcDbText
  0
TEXT
  5
43D
100
AcDbEntity
  8
_
  6
CONTINUOUS
 62
     7
100
AcDbText
 10
290.85
 20
20.15
 30
0.0
 40
14.0
  1
Ｍ０１０１０９０
 41
0.795
  7
EXCADSTD
 72
     5
 11
396.85
 21
20.15
 31
0.0
100
AcDbText
  0
TEXT
  5
43E
100
AcDbEntity
  8
_
  6
CONTINUOUS
 62
     2
100
AcDbText
 10
40.3
 20
33.0
 30
0.0
 40
12.0
  1
宮田
 41
0.784
  7
EXCADSTD
 72
     5
 11
60.83184
 21
33.0
 31
0.0
100
AcDbText
  0
TEXT
  5
43F
100
AcDbEntity
  8
_
  6
CONTINUOUS
 62
     2
100
AcDbText
 10
126.1
 20
33.0
 30
0.0
 40
12.0
  1
又場
 41
0.784
  7
EXCADSTD
 72
     5
 11
146.63184
 21
33.0
 31
0.0
100
AcDbText
  0
ARC
  5
440
100
AcDbEntity
  8
_2
  6
EXLTYPE2
 62
     6
100
AcDbCircle
 10
61.0
 20
106.0
 30
0.0
 40
2.0
100
AcDbArc
 50
90.0
 51
180.0
  0
LINE
  5
441
100
AcDbEntity
  8
_2
  6
CONTINUOUS
 62
     7
100
AcDbLine
 10
46.0
 20
84.0
 30
0.0
 11
58.7
 21
84.0
 31
0.0
  0
ARC
  5
442
100
AcDbEntity
  8
_2
  6
CONTINUOUS
 62
     6
100
AcDbCircle
 10
61.0
 20
86.0
 30
0.0
 40
2.0
100
AcDbArc
 50
90.0
 51
180.0
  0
ARC
  5
443
100
AcDbEntity
  8
_2
  6
CONTINUOUS
 62
     6
100
AcDbCircle
 10
87.0
 20
86.0
 30
0.0
 40
2.0
100
AcDbArc
 50
0.0
 51
90.0
  0
ARC
  5
444
100
AcDbEntity
  8
_2
  6
EXLTYPE2
 62
     6
100
AcDbCircle
 10
74.0
 20
88.0
 30
0.0
 40
2.5
100
AcDbArc
 50
180.0
 51
0.0
  0
LINE
  5
445
100
AcDbEntity
  8
_2
  6
CONTINUOUS
 62
     6
100
AcDbLine
 10
61.0
 20
88.0
 30
0.0
 11
87.0
 21
88.0
 31
0.0
  0
LINE
  5
446
100
AcDbEntity
  8
_2
  6
EXLTYPE2
 62
     6
100
AcDbLine
 10
61.0
 20
108.0
 30
0.0
 11
87.0
 21
108.0
 31
0.0
  0
LINE
  5
447
100
AcDbEntity
  8
_2
  6
CONTINUOUS
 62
     6
100
AcDbLine
 10
59.0
 20
80.0
 30
0.0
 11
89.0
 21
80.0
 31
0.0
  0
LINE
  5
448
100
AcDbEntity
  8
_2
  6
CONTINUOUS
 62
     6
100
AcDbLine
 10
59.0
 20
80.0
 30
0.0
 11
59.0
 21
86.0
 31
0.0
  0
LINE
  5
449
100
AcDbEntity
  8
_2
  6
EXLTYPE2
 62
     6
100
AcDbLine
 10
59.0
 20
86.0
 30
0.0
 11
59.0
 21
106.0
 31
0.0
  0
LINE
  5
44A
100
AcDbEntity
  8
_2
  6
CONTINUOUS
 62
     6
100
AcDbLine
 10
89.0
 20
80.0
 30
0.0
 11
89.0
 21
86.0
 31
0.0
  0
LINE
  5
44B
100
AcDbEntity
  8
_2
  6
EXLTYPE2
 62
     6
100
AcDbLine
 10
89.0
 20
86.0
 30
0.0
 11
89.0
 21
106.0
 31
0.0
  0
LINE
  5
44C
100
AcDbEntity
  8
_2
  6
CONTINUOUS
 62
     7
100
AcDbLine
 10
344.0
 20
541.0
 30
0.0
 11
349.0
 21
541.0
 31
0.0
  0
LINE
  5
44D
100
AcDbEntity
  8
_2
  6
CONTINUOUS
 62
     7
100
AcDbLine
 10
344.0
 20
84.0
 30
0.0
 11
349.0
 21
84.0
 31
0.0
  0
ARC
  5
44E
100
AcDbEntity
  8
_2
  6
EXLTYPE2
 62
     6
100
AcDbCircle
 10
299.0
 20
516.0
 30
0.0
 40
2.0
100
AcDbArc
 50
270.0
 51
0.0
  0
ARC
  5
44F
100
AcDbEntity
  8
_2
  6
EXLTYPE2
 62
     6
100
AcDbCircle
 10
273.0
 20
516.0
 30
0.0
 40
2.0
100
AcDbArc
 50
180.0
 51
270.0
  0
ARC
  5
450
100
AcDbEntity
  8
_2
  6
EXLTYPE2
 62
     6
100
AcDbCircle
 10
286.0
 20
521.5
 30
0.0
 40
2.5
100
AcDbArc
 50
180.0
 51
0.0
  0
ARC
  5
451
100
AcDbEntity
  8
_2
  6
CONTINUOUS
 62
     6
100
AcDbCircle
 10
299.0
 20
536.0
 30
0.0
 40
2.0
100
AcDbArc
 50
270.0
 51
0.0
  0
ARC
  5
452
100
AcDbEntity
  8
_2
  6
CONTINUOUS
 62
     6
100
AcDbCircle
 10
273.0
 20
536.0
 30
0.0
 40
2.0
100
AcDbArc
 50
180.0
 51
270.0
  0
LINE
  5
453
100
AcDbEntity
  8
_2
  6
EXLTYPE2
 62
     6
100
AcDbLine
 10
299.0
 20
514.0
 30
0.0
 11
273.0
 21
514.0
 31
0.0
  0
LINE
  5
454
100
AcDbEntity
  8
_2
  6
EXLTYPE2
 62
     6
100
AcDbLine
 10
301.0
 20
536.0
 30
0.0
 11
301.0
 21
516.0
 31
0.0
  0
LINE
  5
455
100
AcDbEntity
  8
_2
  6
EXLTYPE2
 62
     6
100
AcDbLine
 10
271.0
 20
536.0
 30
0.0
 11
271.0
 21
516.0
 31
0.0
  0
LINE
  5
456
100
AcDbEntity
  8
_2
  6
CONTINUOUS
 62
     6
100
AcDbLine
 10
301.0
 20
542.0
 30
0.0
 11
271.0
 21
542.0
 31
0.0
  0
LINE
  5
457
100
AcDbEntity
  8
_2
  6
CONTINUOUS
 62
     6
100
AcDbLine
 10
299.0
 20
534.0
 30
0.0
 11
273.0
 21
534.0
 31
0.0
  0
LINE
  5
458
100
AcDbEntity
  8
_2
  6
CONTINUOUS
 62
     6
100
AcDbLine
 10
301.0
 20
542.0
 30
0.0
 11
301.0
 21
536.0
 31
0.0
  0
LINE
  5
459
100
AcDbEntity
  8
_2
  6
CONTINUOUS
 62
     6
100
AcDbLine
 10
271.0
 20
542.0
 30
0.0
 11
271.0
 21
536.0
 31
0.0
  0
ARC
  5
45A
100
AcDbEntity
  8
_2
  6
EXLTYPE2
 62
     6
100
AcDbCircle
 10
299.0
 20
106.0
 30
0.0
 40
2.0
100
AcDbArc
 50
0.0
 51
90.0
  0
ARC
  5
45B
100
AcDbEntity
  8
_2
  6
EXLTYPE2
 62
     6
100
AcDbCircle
 10
273.0
 20
106.0
 30
0.0
 40
2.0
100
AcDbArc
 50
90.0
 51
180.0
  0
ARC
  5
45C
100
AcDbEntity
  8
_2
  6
EXLTYPE2
 62
     6
100
AcDbCircle
 10
286.0
 20
88.0
 30
0.0
 40
2.5
100
AcDbArc
 50
180.0
 51
0.0
  0
ARC
  5
45D
100
AcDbEntity
  8
_2
  6
CONTINUOUS
 62
     6
100
AcDbCircle
 10
299.0
 20
86.0
 30
0.0
 40
2.0
100
AcDbArc
 50
0.0
 51
90.0
  0
ARC
  5
45E
100
AcDbEntity
  8
_2
  6
CONTINUOUS
 62
     6
100
AcDbCircle
 10
273.0
 20
86.0
 30
0.0
 40
2.0
100
AcDbArc
 50
90.0
 51
180.0
  0
LINE
  5
45F
100
AcDbEntity
  8
_2
  6
EXLTYPE2
 62
     6
100
AcDbLine
 10
299.0
 20
108.0
 30
0.0
 11
273.0
 21
108.0
 31
0.0
  0
LINE
  5
460
100
AcDbEntity
  8
_2
  6
EXLTYPE2
 62
     6
100
AcDbLine
 10
301.0
 20
86.0
 30
0.0
 11
301.0
 21
106.0
 31
0.0
  0
LINE
  5
461
100
AcDbEntity
  8
_2
  6
EXLTYPE2
 62
     6
100
AcDbLine
 10
271.0
 20
86.0
 30
0.0
 11
271.0
 21
106.0
 31
0.0
  0
LINE
  5
462
100
AcDbEntity
  8
_2
  6
CONTINUOUS
 62
     6
100
AcDbLine
 10
301.0
 20
80.0
 30
0.0
 11
271.0
 21
80.0
 31
0.0
  0
LINE
  5
463
100
AcDbEntity
  8
_2
  6
CONTINUOUS
 62
     6
100
AcDbLine
 10
299.0
 20
88.0
 30
0.0
 11
273.0
 21
88.0
 31
0.0
  0
LINE
  5
464
100
AcDbEntity
  8
_2
  6
CONTINUOUS
 62
     6
100
AcDbLine
 10
301.0
 20
80.0
 30
0.0
 11
301.0
 21
86.0
 31
0.0
  0
LINE
  5
465
100
AcDbEntity
  8
_2
  6
CONTINUOUS
 62
     6
100
AcDbLine
 10
271.0
 20
80.0
 30
0.0
 11
271.0
 21
86.0
 31
0.0
  0
LINE
  5
466
100
AcDbEntity
  8
_2
  6
CONTINUOUS
 62
     7
100
AcDbLine
 10
301.3
 20
84.0
 30
0.0
 11
314.0
 21
84.0
 31
0.0
  0
LINE
  5
467
100
AcDbEntity
  8
_2
  6
CONTINUOUS
 62
     7
100
AcDbLine
 10
301.3
 20
541.0
 30
0.0
 11
314.0
 21
541.0
 31
0.0
  0
LINE
  5
468
100
AcDbEntity
  8
_2
  6
CONTINUOUS
 62
     3
100
AcDbLine
 10
286.0
 20
537.0
 30
0.0
 11
301.74
 21
537.0
 31
0.0
  0
LINE
  5
469
100
AcDbEntity
  8
_2
  6
CONTINUOUS
 62
     3
100
AcDbLine
 10
271.6
 20
534.0
 30
0.0
 11
255.0
 21
534.0
 31
0.0
  0
LINE
  5
46A
100
AcDbEntity
  8
_2
  6
CONTINUOUS
 62
     3
100
AcDbLine
 10
271.6
 20
514.0
 30
0.0
 11
243.0
 21
514.0
 31
0.0
  0
LINE
  5
46B
100
AcDbEntity
  8
_2
  6
CONTINUOUS
 62
     3
100
AcDbLine
 10
269.6
 20
542.0
 30
0.0
 11
243.0
 21
542.0
 31
0.0
  0
LINE
  5
46C
100
AcDbEntity
  8
_2
  6
CONTINUOUS
 62
     3
100
AcDbLine
 10
271.0
 20
514.6
 30
0.0
 11
271.0
 21
487.4
 31
0.0
  0
LINE
  5
46D
100
AcDbEntity
  8
_2
  6
CONTINUOUS
 62
     3
100
AcDbLine
 10
301.0
 20
514.6
 30
0.0
 11
301.0
 21
487.4
 31
0.0
  0
LINE
  5
46E
100
AcDbEntity
  8
_2
  6
CONTINUOUS
 62
     7
100
AcDbLine
 10
46.0
 20
541.0
 30
0.0
 11
58.7
 21
541.0
 31
0.0
  0
LINE
  5
46F
100
AcDbEntity
  8
_2
  6
CONTINUOUS
 62
     3
100
AcDbLine
 10
315.4
 20
541.0
 30
0.0
 11
334.0
 21
541.0
 31
0.0
  0
LINE
  5
470
100
AcDbEntity
  8
_2
  6
CONTINUOUS
 62
     3
100
AcDbLine
 10
314.0
 20
542.4
 30
0.0
 11
314.0
 21
557.0
 31
0.0
  0
LINE
  5
471
100
AcDbEntity
  8
_2
  6
CONTINUOUS
 62
     3
100
AcDbLine
 10
46.0
 20
542.4
 30
0.0
 11
46.0
 21
558.0
 31
0.0
  0
LINE
  5
472
100
AcDbEntity
  8
_2
  6
CONTINUOUS
 62
     3
100
AcDbLine
 10
315.4
 20
84.0
 30
0.0
 11
334.0
 21
84.0
 31
0.0
  0
LINE
  5
473
100
AcDbEntity
  8
_2
  6
CONTINUOUS
 62
     6
100
AcDbLine
 10
353.0
 20
541.0
 30
0.0
 11
353.0
 21
514.0
 31
0.0
  0
LINE
  5
474
100
AcDbEntity
  8
_2
  6
CONTINUOUS
 62
     6
100
AcDbLine
 10
349.0
 20
541.0
 30
0.0
 11
352.0
 21
541.0
 31
0.0
  0
LINE
  5
475
100
AcDbEntity
  8
_2
  6
CONTINUOUS
 62
     6
100
AcDbLine
 10
344.0
 20
542.0
 30
0.0
 11
352.0
 21
542.0
 31
0.0
  0
LINE
  5
476
100
AcDbEntity
  8
_2
  6
CONTINUOUS
 62
     6
100
AcDbLine
 10
343.0
 20
534.0
 30
0.0
 11
343.0
 21
541.0
 31
0.0
  0
LINE
  5
477
100
AcDbEntity
  8
_2
  6
CONTINUOUS
 62
     6
100
AcDbLine
 10
352.0
 20
541.0
 30
0.0
 11
352.0
 21
514.0
 31
0.0
  0
LINE
  5
478
100
AcDbEntity
  8
_2
  6
CONTINUOUS
 62
     6
100
AcDbLine
 10
344.0
 20
542.0
 30
0.0
 11
343.0
 21
541.0
 31
0.0
  0
LINE
  5
479
100
AcDbEntity
  8
_2
  6
CONTINUOUS
 62
     6
100
AcDbLine
 10
352.0
 20
542.0
 30
0.0
 11
353.0
 21
541.0
 31
0.0
  0
LINE
  5
47A
100
AcDbEntity
  8
_2
  6
CONTINUOUS
 62
     6
100
AcDbLine
 10
349.0
 20
514.0
 30
0.0
 11
353.0
 21
514.0
 31
0.0
  0
LINE
  5
47B
100
AcDbEntity
  8
_2
  6
CONTINUOUS
 62
     6
100
AcDbLine
 10
349.0
 20
519.0
 30
0.0
 11
353.0
 21
519.0
 31
0.0
  0
CIRCLE
  5
47C
100
AcDbEntity
  8
_2
  6
CONTINUOUS
 62
     6
100
AcDbCircle
 10
349.88
 20
516.64
 30
0.0
 40
0.141421
  0
CIRCLE
  5
47D
100
AcDbEntity
  8
_2
  6
CONTINUOUS
 62
     6
100
AcDbCircle
 10
349.94
 20
515.04
 30
0.0
 40
0.141421
  0
CIRCLE
  5
47E
100
AcDbEntity
  8
_2
  6
CONTINUOUS
 62
     6
100
AcDbCircle
 10
351.16
 20
515.7
 30
0.0
 40
0.141421
  0
CIRCLE
  5
47F
100
AcDbEntity
  8
_2
  6
CONTINUOUS
 62
     6
100
AcDbCircle
 10
351.18
 20
517.5
 30
0.0
 40
0.141421
  0
CIRCLE
  5
480
100
AcDbEntity
  8
_2
  6
CONTINUOUS
 62
     6
100
AcDbCircle
 10
349.94
 20
518.12
 30
0.0
 40
0.141421
  0
LINE
  5
481
100
AcDbEntity
  8
_2
  6
CONTINUOUS
 62
     6
100
AcDbLine
 10
343.0
 20
534.0
 30
0.0
 11
344.0
 21
534.0
 31
0.0
  0
LINE
  5
482
100
AcDbEntity
  8
_2
  6
CONTINUOUS
 62
     6
100
AcDbLine
 10
344.0
 20
80.0
 30
0.0
 11
343.0
 21
81.0
 31
0.0
  0
LINE
  5
483
100
AcDbEntity
  8
_2
  6
CONTINUOUS
 62
     6
100
AcDbLine
 10
344.0
 20
80.0
 30
0.0
 11
352.0
 21
80.0
 31
0.0
  0
LINE
  5
484
100
AcDbEntity
  8
_2
  6
CONTINUOUS
 62
     6
100
AcDbLine
 10
352.0
 20
80.0
 30
0.0
 11
353.0
 21
81.0
 31
0.0
  0
LINE
  5
485
100
AcDbEntity
  8
_2
  6
CONTINUOUS
 62
     6
100
AcDbLine
 10
349.0
 20
84.0
 30
0.0
 11
352.0
 21
84.0
 31
0.0
  0
LINE
  5
486
100
AcDbEntity
  8
_2
  6
CONTINUOUS
 62
     6
100
AcDbLine
 10
352.0
 20
81.0
 30
0.0
 11
352.0
 21
108.0
 31
0.0
  0
LINE
  5
487
100
AcDbEntity
  8
_2
  6
CONTINUOUS
 62
     6
100
AcDbLine
 10
353.0
 20
81.0
 30
0.0
 11
353.0
 21
108.0
 31
0.0
  0
LINE
  5
488
100
AcDbEntity
  8
_2
  6
CONTINUOUS
 62
     6
100
AcDbLine
 10
349.0
 20
108.0
 30
0.0
 11
353.0
 21
108.0
 31
0.0
  0
CIRCLE
  5
489
100
AcDbEntity
  8
_2
  6
CONTINUOUS
 62
     6
100
AcDbCircle
 10
351.18
 20
107.5
 30
0.0
 40
0.141421
  0
CIRCLE
  5
48A
100
AcDbEntity
  8
_2
  6
CONTINUOUS
 62
     6
100
AcDbCircle
 10
349.94
 20
106.88
 30
0.0
 40
0.141421
  0
LINE
  5
48B
100
AcDbEntity
  8
_2
  6
CONTINUOUS
 62
     6
100
AcDbLine
 10
343.0
 20
88.0
 30
0.0
 11
344.0
 21
88.0
 31
0.0
  0
LINE
  5
48C
100
AcDbEntity
  8
_2
  6
CONTINUOUS
 62
     6
100
AcDbLine
 10
343.0
 20
88.0
 30
0.0
 11
343.0
 21
81.0
 31
0.0
  0
LINE
  5
48D
100
AcDbEntity
  8
_2
  6
CONTINUOUS
 62
     6
100
AcDbLine
 10
344.0
 20
81.0
 30
0.0
 11
352.0
 21
81.0
 31
0.0
  0
LINE
  5
48E
100
AcDbEntity
  8
_2
  6
CONTINUOUS
 62
     6
100
AcDbLine
 10
344.0
 20
81.0
 30
0.0
 11
344.0
 21
84.0
 31
0.0
  0
LINE
  5
48F
100
AcDbEntity
  8
_2
  6
CONTINUOUS
 62
     6
100
AcDbLine
 10
349.0
 20
86.0
 30
0.0
 11
353.0
 21
86.0
 31
0.0
  0
CIRCLE
  5
490
100
AcDbEntity
  8
_2
  6
CONTINUOUS
 62
     6
100
AcDbCircle
 10
351.06
 20
105.98
 30
0.0
 40
0.141421
  0
CIRCLE
  5
491
100
AcDbEntity
  8
_2
  6
CONTINUOUS
 62
     6
100
AcDbCircle
 10
350.08
 20
105.4
 30
0.0
 40
0.141421
  0
CIRCLE
  5
492
100
AcDbEntity
  8
_2
  6
CONTINUOUS
 62
     6
100
AcDbCircle
 10
351.36
 20
104.6
 30
0.0
 40
0.141421
  0
CIRCLE
  5
493
100
AcDbEntity
  8
_2
  6
CONTINUOUS
 62
     6
100
AcDbCircle
 10
345.44
 20
83.2
 30
0.0
 40
0.141421
  0
CIRCLE
  5
494
100
AcDbEntity
  8
_2
  6
CONTINUOUS
 62
     6
100
AcDbCircle
 10
347.82
 20
83.14
 30
0.0
 40
0.141421
  0
CIRCLE
  5
495
100
AcDbEntity
  8
_2
  6
CONTINUOUS
 62
     6
100
AcDbCircle
 10
350.08
 20
83.14
 30
0.0
 40
0.141421
  0
CIRCLE
  5
496
100
AcDbEntity
  8
_2
  6
CONTINUOUS
 62
     6
100
AcDbCircle
 10
346.48
 20
81.8
 30
0.0
 40
0.141421
  0
CIRCLE
  5
497
100
AcDbEntity
  8
_2
  6
CONTINUOUS
 62
     6
100
AcDbCircle
 10
349.1
 20
81.64
 30
0.0
 40
0.141421
  0
CIRCLE
  5
498
100
AcDbEntity
  8
_2
  6
CONTINUOUS
 62
     6
100
AcDbCircle
 10
351.18
 20
81.7
 30
0.0
 40
0.141421
  0
CIRCLE
  5
499
100
AcDbEntity
  8
_2
  6
CONTINUOUS
 62
     6
100
AcDbCircle
 10
350.08
 20
85.22
 30
0.0
 40
0.141421
  0
CIRCLE
  5
49A
100
AcDbEntity
  8
_2
  6
CONTINUOUS
 62
     6
100
AcDbCircle
 10
351.18
 20
84.6
 30
0.0
 40
0.141421
  0
ARC
  5
49B
100
AcDbEntity
  8
_2
  6
EXLTYPE2
 62
     6
100
AcDbCircle
 10
61.0
 20
516.0
 30
0.0
 40
2.0
100
AcDbArc
 50
180.0
 51
270.0
  0
ARC
  5
49C
100
AcDbEntity
  8
_2
  6
EXLTYPE2
 62
     6
100
AcDbCircle
 10
87.0
 20
516.0
 30
0.0
 40
2.0
100
AcDbArc
 50
270.0
 51
0.0
  0
ARC
  5
49D
100
AcDbEntity
  8
_2
  6
CONTINUOUS
 62
     6
100
AcDbCircle
 10
61.0
 20
536.0
 30
0.0
 40
2.0
100
AcDbArc
 50
180.0
 51
270.0
  0
ARC
  5
49E
100
AcDbEntity
  8
_2
  6
CONTINUOUS
 62
     6
100
AcDbCircle
 10
87.0
 20
536.0
 30
0.0
 40
2.0
100
AcDbArc
 50
270.0
 51
0.0
  0
LINE
  5
49F
100
AcDbEntity
  8
_2
  6
EXLTYPE2
 62
     6
100
AcDbLine
 10
61.0
 20
514.0
 30
0.0
 11
87.0
 21
514.0
 31
0.0
  0
LINE
  5
4A0
100
AcDbEntity
  8
_2
  6
EXLTYPE2
 62
     6
100
AcDbLine
 10
59.0
 20
536.0
 30
0.0
 11
59.0
 21
516.0
 31
0.0
  0
LINE
  5
4A1
100
AcDbEntity
  8
_2
  6
EXLTYPE2
 62
     6
100
AcDbLine
 10
89.0
 20
536.0
 30
0.0
 11
89.0
 21
516.0
 31
0.0
  0
LINE
  5
4A2
100
AcDbEntity
  8
_2
  6
CONTINUOUS
 62
     6
100
AcDbLine
 10
59.0
 20
542.0
 30
0.0
 11
89.0
 21
542.0
 31
0.0
  0
LINE
  5
4A3
100
AcDbEntity
  8
_2
  6
CONTINUOUS
 62
     6
100
AcDbLine
 10
61.0
 20
534.0
 30
0.0
 11
87.0
 21
534.0
 31
0.0
  0
LINE
  5
4A4
100
AcDbEntity
  8
_2
  6
CONTINUOUS
 62
     6
100
AcDbLine
 10
59.0
 20
542.0
 30
0.0
 11
59.0
 21
536.0
 31
0.0
  0
LINE
  5
4A5
100
AcDbEntity
  8
_2
  6
CONTINUOUS
 62
     6
100
AcDbLine
 10
89.0
 20
542.0
 30
0.0
 11
89.0
 21
536.0
 31
0.0
  0
ARC
  5
4A6
100
AcDbEntity
  8
_2
  6
EXLTYPE2
 62
     6
100
AcDbCircle
 10
74.0
 20
521.5
 30
0.0
 40
2.5
100
AcDbArc
 50
180.0
 51
0.0
  0
CIRCLE
  5
4A7
100
AcDbEntity
  8
_2
  6
EXLTYPE2
 62
     6
100
AcDbCircle
 10
286.0
 20
101.0
 30
0.0
 40
4.0
  0
CIRCLE
  5
4A8
100
AcDbEntity
  8
_2
  6
EXLTYPE2
 62
     6
100
AcDbCircle
 10
74.0
 20
101.0
 30
0.0
 40
4.0
  0
CIRCLE
  5
4A9
100
AcDbEntity
  8
_2
  6
EXLTYPE2
 62
     6
100
AcDbCircle
 10
74.0
 20
534.5
 30
0.0
 40
4.0
  0
CIRCLE
  5
4AA
100
AcDbEntity
  8
_2
  6
EXLTYPE2
 62
     6
100
AcDbCircle
 10
286.0
 20
534.5
 30
0.0
 40
4.0
  0
LINE
  5
4AB
100
AcDbEntity
  8
_2
  6
EXLTYPE2
 62
     6
100
AcDbLine
 10
71.5
 20
521.5
 30
0.0
 11
71.5
 21
531.377501
 31
0.0
  0
LINE
  5
4AC
100
AcDbEntity
  8
_2
  6
EXLTYPE2
 62
     6
100
AcDbLine
 10
76.5
 20
521.5
 30
0.0
 11
76.5
 21
531.377501
 31
0.0
  0
LINE
  5
4AD
100
AcDbEntity
  8
_2
  6
EXLTYPE2
 62
     6
100
AcDbLine
 10
283.5
 20
521.5
 30
0.0
 11
283.5
 21
531.377501
 31
0.0
  0
LINE
  5
4AE
100
AcDbEntity
  8
_2
  6
EXLTYPE2
 62
     6
100
AcDbLine
 10
288.5
 20
521.5
 30
0.0
 11
288.5
 21
531.377501
 31
0.0
  0
LINE
  5
4AF
100
AcDbEntity
  8
_2
  6
EXLTYPE2
 62
     6
100
AcDbLine
 10
285.6
 20
536.75
 30
0.0
 11
286.4
 21
536.75
 31
0.0
  0
LINE
  5
4B0
100
AcDbEntity
  8
_2
  6
EXLTYPE2
 62
     6
100
AcDbLine
 10
285.6
 20
532.25
 30
0.0
 11
286.4
 21
532.25
 31
0.0
  0
LINE
  5
4B1
100
AcDbEntity
  8
_2
  6
EXLTYPE2
 62
     6
100
AcDbLine
 10
283.75
 20
534.1
 30
0.0
 11
283.75
 21
534.9
 31
0.0
  0
LINE
  5
4B2
100
AcDbEntity
  8
_2
  6
EXLTYPE2
 62
     6
100
AcDbLine
 10
288.25
 20
534.1
 30
0.0
 11
288.25
 21
534.9
 31
0.0
  0
LINE
  5
4B3
100
AcDbEntity
  8
_2
  6
EXLTYPE2
 62
     6
100
AcDbLine
 10
283.75
 20
534.9
 30
0.0
 11
284.84635
 21
534.98635
 31
0.0
  0
LINE
  5
4B4
100
AcDbEntity
  8
_2
  6
EXLTYPE2
 62
     6
100
AcDbLine
 10
285.6
 20
536.75
 30
0.0
 11
285.51365
 21
535.65365
 31
0.0
  0
LINE
  5
4B5
100
AcDbEntity
  8
_2
  6
EXLTYPE2
 62
     6
100
AcDbLine
 10
284.84635
 20
534.98635
 30
0.0
 11
285.51365
 21
535.65365
 31
0.0
  0
LINE
  5
4B6
100
AcDbEntity
  8
_2
  6
EXLTYPE2
 62
     6
100
AcDbLine
 10
285.51365
 20
533.34635
 30
0.0
 11
284.84635
 21
534.01365
 31
0.0
  0
LINE
  5
4B7
100
AcDbEntity
  8
_2
  6
EXLTYPE2
 62
     6
100
AcDbLine
 10
287.15365
 20
534.01365
 30
0.0
 11
286.48635
 21
533.34635
 31
0.0
  0
LINE
  5
4B8
100
AcDbEntity
  8
_2
  6
EXLTYPE2
 62
     6
100
AcDbLine
 10
286.48635
 20
535.65365
 30
0.0
 11
287.15365
 21
534.98635
 31
0.0
  0
LINE
  5
4B9
100
AcDbEntity
  8
_2
  6
EXLTYPE2
 62
     6
100
AcDbLine
 10
283.75
 20
534.1
 30
0.0
 11
284.84635
 21
534.01365
 31
0.0
  0
LINE
  5
4BA
100
AcDbEntity
  8
_2
  6
EXLTYPE2
 62
     6
100
AcDbLine
 10
285.6
 20
532.25
 30
0.0
 11
285.51365
 21
533.34635
 31
0.0
  0
LINE
  5
4BB
100
AcDbEntity
  8
_2
  6
EXLTYPE2
 62
     6
100
AcDbLine
 10
286.4
 20
532.25
 30
0.0
 11
286.48635
 21
533.34635
 31
0.0
  0
LINE
  5
4BC
100
AcDbEntity
  8
_2
  6
EXLTYPE2
 62
     6
100
AcDbLine
 10
288.25
 20
534.1
 30
0.0
 11
287.15365
 21
534.01365
 31
0.0
  0
LINE
  5
4BD
100
AcDbEntity
  8
_2
  6
EXLTYPE2
 62
     6
100
AcDbLine
 10
288.25
 20
534.9
 30
0.0
 11
287.15365
 21
534.98635
 31
0.0
  0
LINE
  5
4BE
100
AcDbEntity
  8
_2
  6
EXLTYPE2
 62
     6
100
AcDbLine
 10
286.4
 20
536.75
 30
0.0
 11
286.48635
 21
535.65365
 31
0.0
  0
LINE
  5
4BF
100
AcDbEntity
  8
_2
  6
EXLTYPE2
 62
     6
100
AcDbLine
 10
73.6
 20
536.75
 30
0.0
 11
74.4
 21
536.75
 31
0.0
  0
LINE
  5
4C0
100
AcDbEntity
  8
_2
  6
EXLTYPE2
 62
     6
100
AcDbLine
 10
73.6
 20
532.25
 30
0.0
 11
74.4
 21
532.25
 31
0.0
  0
LINE
  5
4C1
100
AcDbEntity
  8
_2
  6
EXLTYPE2
 62
     6
100
AcDbLine
 10
71.75
 20
534.1
 30
0.0
 11
71.75
 21
534.9
 31
0.0
  0
LINE
  5
4C2
100
AcDbEntity
  8
_2
  6
EXLTYPE2
 62
     6
100
AcDbLine
 10
76.25
 20
534.1
 30
0.0
 11
76.25
 21
534.9
 31
0.0
  0
LINE
  5
4C3
100
AcDbEntity
  8
_2
  6
EXLTYPE2
 62
     6
100
AcDbLine
 10
71.75
 20
534.9
 30
0.0
 11
72.84635
 21
534.98635
 31
0.0
  0
LINE
  5
4C4
100
AcDbEntity
  8
_2
  6
EXLTYPE2
 62
     6
100
AcDbLine
 10
73.6
 20
536.75
 30
0.0
 11
73.51365
 21
535.65365
 31
0.0
  0
LINE
  5
4C5
100
AcDbEntity
  8
_2
  6
EXLTYPE2
 62
     6
100
AcDbLine
 10
72.84635
 20
534.98635
 30
0.0
 11
73.51365
 21
535.65365
 31
0.0
  0
LINE
  5
4C6
100
AcDbEntity
  8
_2
  6
EXLTYPE2
 62
     6
100
AcDbLine
 10
73.51365
 20
533.34635
 30
0.0
 11
72.84635
 21
534.01365
 31
0.0
  0
LINE
  5
4C7
100
AcDbEntity
  8
_2
  6
EXLTYPE2
 62
     6
100
AcDbLine
 10
75.15365
 20
534.01365
 30
0.0
 11
74.48635
 21
533.34635
 31
0.0
  0
LINE
  5
4C8
100
AcDbEntity
  8
_2
  6
EXLTYPE2
 62
     6
100
AcDbLine
 10
74.48635
 20
535.65365
 30
0.0
 11
75.15365
 21
534.98635
 31
0.0
  0
LINE
  5
4C9
100
AcDbEntity
  8
_2
  6
EXLTYPE2
 62
     6
100
AcDbLine
 10
71.75
 20
534.1
 30
0.0
 11
72.84635
 21
534.01365
 31
0.0
  0
LINE
  5
4CA
100
AcDbEntity
  8
_2
  6
EXLTYPE2
 62
     6
100
AcDbLine
 10
73.6
 20
532.25
 30
0.0
 11
73.51365
 21
533.34635
 31
0.0
  0
LINE
  5
4CB
100
AcDbEntity
  8
_2
  6
EXLTYPE2
 62
     6
100
AcDbLine
 10
74.4
 20
532.25
 30
0.0
 11
74.48635
 21
533.34635
 31
0.0
  0
LINE
  5
4CC
100
AcDbEntity
  8
_2
  6
EXLTYPE2
 62
     6
100
AcDbLine
 10
76.25
 20
534.1
 30
0.0
 11
75.15365
 21
534.01365
 31
0.0
  0
LINE
  5
4CD
100
AcDbEntity
  8
_2
  6
EXLTYPE2
 62
     6
100
AcDbLine
 10
76.25
 20
534.9
 30
0.0
 11
75.15365
 21
534.98635
 31
0.0
  0
LINE
  5
4CE
100
AcDbEntity
  8
_2
  6
EXLTYPE2
 62
     6
100
AcDbLine
 10
74.4
 20
536.75
 30
0.0
 11
74.48635
 21
535.65365
 31
0.0
  0
LINE
  5
4CF
100
AcDbEntity
  8
_2
  6
EXLTYPE2
 62
     6
100
AcDbLine
 10
71.5
 20
88.0
 30
0.0
 11
71.5
 21
97.877501
 31
0.0
  0
LINE
  5
4D0
100
AcDbEntity
  8
_2
  6
EXLTYPE2
 62
     6
100
AcDbLine
 10
76.5
 20
88.0
 30
0.0
 11
76.5
 21
97.877501
 31
0.0
  0
LINE
  5
4D1
100
AcDbEntity
  8
_2
  6
EXLTYPE2
 62
     6
100
AcDbLine
 10
73.6
 20
103.25
 30
0.0
 11
74.4
 21
103.25
 31
0.0
  0
LINE
  5
4D2
100
AcDbEntity
  8
_2
  6
EXLTYPE2
 62
     6
100
AcDbLine
 10
73.6
 20
98.75
 30
0.0
 11
74.4
 21
98.75
 31
0.0
  0
LINE
  5
4D3
100
AcDbEntity
  8
_2
  6
EXLTYPE2
 62
     6
100
AcDbLine
 10
71.75
 20
100.6
 30
0.0
 11
71.75
 21
101.4
 31
0.0
  0
LINE
  5
4D4
100
AcDbEntity
  8
_2
  6
EXLTYPE2
 62
     6
100
AcDbLine
 10
76.25
 20
100.6
 30
0.0
 11
76.25
 21
101.4
 31
0.0
  0
LINE
  5
4D5
100
AcDbEntity
  8
_2
  6
EXLTYPE2
 62
     6
100
AcDbLine
 10
71.75
 20
101.4
 30
0.0
 11
72.84635
 21
101.48635
 31
0.0
  0
LINE
  5
4D6
100
AcDbEntity
  8
_2
  6
EXLTYPE2
 62
     6
100
AcDbLine
 10
73.6
 20
103.25
 30
0.0
 11
73.51365
 21
102.15365
 31
0.0
  0
LINE
  5
4D7
100
AcDbEntity
  8
_2
  6
EXLTYPE2
 62
     6
100
AcDbLine
 10
72.84635
 20
101.48635
 30
0.0
 11
73.51365
 21
102.15365
 31
0.0
  0
LINE
  5
4D8
100
AcDbEntity
  8
_2
  6
EXLTYPE2
 62
     6
100
AcDbLine
 10
73.51365
 20
99.84635
 30
0.0
 11
72.84635
 21
100.51365
 31
0.0
  0
LINE
  5
4D9
100
AcDbEntity
  8
_2
  6
EXLTYPE2
 62
     6
100
AcDbLine
 10
75.15365
 20
100.51365
 30
0.0
 11
74.48635
 21
99.84635
 31
0.0
  0
LINE
  5
4DA
100
AcDbEntity
  8
_2
  6
EXLTYPE2
 62
     6
100
AcDbLine
 10
74.48635
 20
102.15365
 30
0.0
 11
75.15365
 21
101.48635
 31
0.0
  0
LINE
  5
4DB
100
AcDbEntity
  8
_2
  6
EXLTYPE2
 62
     6
100
AcDbLine
 10
71.75
 20
100.6
 30
0.0
 11
72.84635
 21
100.51365
 31
0.0
  0
LINE
  5
4DC
100
AcDbEntity
  8
_2
  6
EXLTYPE2
 62
     6
100
AcDbLine
 10
73.6
 20
98.75
 30
0.0
 11
73.51365
 21
99.84635
 31
0.0
  0
LINE
  5
4DD
100
AcDbEntity
  8
_2
  6
EXLTYPE2
 62
     6
100
AcDbLine
 10
74.4
 20
98.75
 30
0.0
 11
74.48635
 21
99.84635
 31
0.0
  0
LINE
  5
4DE
100
AcDbEntity
  8
_2
  6
EXLTYPE2
 62
     6
100
AcDbLine
 10
76.25
 20
100.6
 30
0.0
 11
75.15365
 21
100.51365
 31
0.0
  0
LINE
  5
4DF
100
AcDbEntity
  8
_2
  6
EXLTYPE2
 62
     6
100
AcDbLine
 10
76.25
 20
101.4
 30
0.0
 11
75.15365
 21
101.48635
 31
0.0
  0
LINE
  5
4E0
100
AcDbEntity
  8
_2
  6
EXLTYPE2
 62
     6
100
AcDbLine
 10
74.4
 20
103.25
 30
0.0
 11
74.48635
 21
102.15365
 31
0.0
  0
LINE
  5
4E1
100
AcDbEntity
  8
_2
  6
EXLTYPE2
 62
     6
100
AcDbLine
 10
283.5
 20
88.0
 30
0.0
 11
283.5
 21
97.877501
 31
0.0
  0
LINE
  5
4E2
100
AcDbEntity
  8
_2
  6
EXLTYPE2
 62
     6
100
AcDbLine
 10
288.5
 20
88.0
 30
0.0
 11
288.5
 21
97.877501
 31
0.0
  0
LINE
  5
4E3
100
AcDbEntity
  8
_2
  6
EXLTYPE2
 62
     6
100
AcDbLine
 10
285.6
 20
103.25
 30
0.0
 11
286.4
 21
103.25
 31
0.0
  0
LINE
  5
4E4
100
AcDbEntity
  8
_2
  6
EXLTYPE2
 62
     6
100
AcDbLine
 10
285.6
 20
98.75
 30
0.0
 11
286.4
 21
98.75
 31
0.0
  0
LINE
  5
4E5
100
AcDbEntity
  8
_2
  6
EXLTYPE2
 62
     6
100
AcDbLine
 10
283.75
 20
100.6
 30
0.0
 11
283.75
 21
101.4
 31
0.0
  0
LINE
  5
4E6
100
AcDbEntity
  8
_2
  6
EXLTYPE2
 62
     6
100
AcDbLine
 10
288.25
 20
100.6
 30
0.0
 11
288.25
 21
101.4
 31
0.0
  0
LINE
  5
4E7
100
AcDbEntity
  8
_2
  6
EXLTYPE2
 62
     6
100
AcDbLine
 10
283.75
 20
101.4
 30
0.0
 11
284.84635
 21
101.48635
 31
0.0
  0
LINE
  5
4E8
100
AcDbEntity
  8
_2
  6
EXLTYPE2
 62
     6
100
AcDbLine
 10
285.6
 20
103.25
 30
0.0
 11
285.51365
 21
102.15365
 31
0.0
  0
LINE
  5
4E9
100
AcDbEntity
  8
_2
  6
EXLTYPE2
 62
     6
100
AcDbLine
 10
284.84635
 20
101.48635
 30
0.0
 11
285.51365
 21
102.15365
 31
0.0
  0
LINE
  5
4EA
100
AcDbEntity
  8
_2
  6
EXLTYPE2
 62
     6
100
AcDbLine
 10
285.51365
 20
99.84635
 30
0.0
 11
284.84635
 21
100.51365
 31
0.0
  0
LINE
  5
4EB
100
AcDbEntity
  8
_2
  6
EXLTYPE2
 62
     6
100
AcDbLine
 10
287.15365
 20
100.51365
 30
0.0
 11
286.48635
 21
99.84635
 31
0.0
  0
LINE
  5
4EC
100
AcDbEntity
  8
_2
  6
EXLTYPE2
 62
     6
100
AcDbLine
 10
286.48635
 20
102.15365
 30
0.0
 11
287.15365
 21
101.48635
 31
0.0
  0
LINE
  5
4ED
100
AcDbEntity
  8
_2
  6
EXLTYPE2
 62
     6
100
AcDbLine
 10
283.75
 20
100.6
 30
0.0
 11
284.84635
 21
100.51365
 31
0.0
  0
LINE
  5
4EE
100
AcDbEntity
  8
_2
  6
EXLTYPE2
 62
     6
100
AcDbLine
 10
285.6
 20
98.75
 30
0.0
 11
285.51365
 21
99.84635
 31
0.0
  0
LINE
  5
4EF
100
AcDbEntity
  8
_2
  6
EXLTYPE2
 62
     6
100
AcDbLine
 10
286.4
 20
98.75
 30
0.0
 11
286.48635
 21
99.84635
 31
0.0
  0
LINE
  5
4F0
100
AcDbEntity
  8
_2
  6
EXLTYPE2
 62
     6
100
AcDbLine
 10
288.25
 20
100.6
 30
0.0
 11
287.15365
 21
100.51365
 31
0.0
  0
LINE
  5
4F1
100
AcDbEntity
  8
_2
  6
EXLTYPE2
 62
     6
100
AcDbLine
 10
288.25
 20
101.4
 30
0.0
 11
287.15365
 21
101.48635
 31
0.0
  0
LINE
  5
4F2
100
AcDbEntity
  8
_2
  6
EXLTYPE2
 62
     6
100
AcDbLine
 10
286.4
 20
103.25
 30
0.0
 11
286.48635
 21
102.15365
 31
0.0
  0
LINE
  5
4F3
100
AcDbEntity
  8
_2
  6
CONTINUOUS
 62
     6
100
AcDbLine
 10
350.5
 20
97.0
 30
0.0
 11
350.5
 21
105.0
 31
0.0
  0
LINE
  5
4F4
100
AcDbEntity
  8
_2
  6
CONTINUOUS
 62
     6
100
AcDbLine
 10
350.2
 20
97.0
 30
0.0
 11
350.5
 21
97.0
 31
0.0
  0
LINE
  5
4F5
100
AcDbEntity
  8
_2
  6
CONTINUOUS
 62
     6
100
AcDbLine
 10
350.2
 20
105.0
 30
0.0
 11
350.5
 21
105.0
 31
0.0
  0
LINE
  5
4F6
100
AcDbEntity
  8
_2
  6
CONTINUOUS
 62
     6
100
AcDbLine
 10
352.984979
 20
103.0
 30
0.0
 11
353.690287
 21
99.0
 31
0.0
  0
LINE
  5
4F7
100
AcDbEntity
  8
_2
  6
CONTINUOUS
 62
     6
100
AcDbLine
 10
354.734979
 20
103.0
 30
0.0
 11
355.440287
 21
99.0
 31
0.0
  0
LINE
  5
4F8
100
AcDbEntity
  8
_2
  6
CONTINUOUS
 62
     6
100
AcDbLine
 10
356.484979
 20
103.0
 30
0.0
 11
357.190287
 21
99.0
 31
0.0
  0
LINE
  5
4F9
100
AcDbEntity
  8
_2
  6
CONTINUOUS
 62
     6
100
AcDbLine
 10
358.234979
 20
103.0
 30
0.0
 11
358.940287
 21
99.0
 31
0.0
  0
LINE
  5
4FA
100
AcDbEntity
  8
_2
  6
CONTINUOUS
 62
     6
100
AcDbLine
 10
359.984979
 20
103.0
 30
0.0
 11
360.690287
 21
99.0
 31
0.0
  0
LINE
  5
4FB
100
AcDbEntity
  8
_2
  6
CONTINUOUS
 62
     6
100
AcDbLine
 10
361.734979
 20
103.0
 30
0.0
 11
362.440287
 21
99.0
 31
0.0
  0
LINE
  5
4FC
100
AcDbEntity
  8
_2
  6
CONTINUOUS
 62
     6
100
AcDbLine
 10
363.484979
 20
103.0
 30
0.0
 11
364.190287
 21
99.0
 31
0.0
  0
LINE
  5
4FD
100
AcDbEntity
  8
_2
  6
CONTINUOUS
 62
     6
100
AcDbLine
 10
365.234979
 20
103.0
 30
0.0
 11
365.940287
 21
99.0
 31
0.0
  0
LINE
  5
4FE
100
AcDbEntity
  8
_2
  6
CONTINUOUS
 62
     6
100
AcDbLine
 10
366.984979
 20
103.0
 30
0.0
 11
367.690287
 21
99.0
 31
0.0
  0
LINE
  5
4FF
100
AcDbEntity
  8
_2
  6
CONTINUOUS
 62
     6
100
AcDbLine
 10
368.734979
 20
103.0
 30
0.0
 11
369.440287
 21
99.0
 31
0.0
  0
LINE
  5
500
100
AcDbEntity
  8
_2
  6
CONTINUOUS
 62
     6
100
AcDbLine
 10
370.484979
 20
103.0
 30
0.0
 11
371.190287
 21
99.0
 31
0.0
  0
LINE
  5
501
100
AcDbEntity
  8
_2
  6
CONTINUOUS
 62
     6
100
AcDbLine
 10
377.460968
 20
100.003074
 30
0.0
 11
380.2
 21
101.0
 31
0.0
  0
ARC
  5
502
100
AcDbEntity
  8
_2
  6
CONTINUOUS
 62
     6
100
AcDbCircle
 10
374.040766
 20
109.4
 30
0.0
 40
10.0
100
AcDbArc
 50
270.0
 51
290.0
  0
LINE
  5
503
100
AcDbEntity
  8
_2
  6
CONTINUOUS
 62
     6
100
AcDbLine
 10
377.460968
 20
101.996926
 30
0.0
 11
380.2
 21
101.0
 31
0.0
  0
ARC
  5
504
100
AcDbEntity
  8
_2
  6
CONTINUOUS
 62
     6
100
AcDbCircle
 10
374.040766
 20
92.6
 30
0.0
 40
10.0
100
AcDbArc
 50
70.0
 51
90.0
  0
LINE
  5
505
100
AcDbEntity
  8
_2
  6
CONTINUOUS
 62
     6
100
AcDbLine
 10
372.234979
 20
103.0
 30
0.0
 11
372.940287
 21
99.0
 31
0.0
  0
LINE
  5
506
100
AcDbEntity
  8
_2
  6
CONTINUOUS
 62
     6
100
AcDbLine
 10
373.984979
 20
103.0
 30
0.0
 11
374.690287
 21
99.0
 31
0.0
  0
LINE
  5
507
100
AcDbEntity
  8
_2
  6
CONTINUOUS
 62
     6
100
AcDbLine
 10
375.764636
 20
102.831808
 30
0.0
 11
376.392672
 21
99.270039
 31
0.0
  0
LINE
  5
508
100
AcDbEntity
  8
_2
  6
CONTINUOUS
 62
     6
100
AcDbLine
 10
377.606165
 20
102.312721
 30
0.0
 11
378.04956
 21
99.7981
 31
0.0
  0
LINE
  5
509
100
AcDbEntity
  8
_2
  6
CONTINUOUS
 62
     6
100
AcDbLine
 10
379.476178
 20
101.632092
 30
0.0
 11
379.694022
 21
100.396635
 31
0.0
  0
LINE
  5
50A
100
AcDbEntity
  8
_2
  6
CONTINUOUS
 62
     6
100
AcDbLine
 10
350.2
 20
105.0
 30
0.0
 11
350.2
 21
97.0
 31
0.0
  0
LINE
  5
50B
100
AcDbEntity
  8
_2
  6
CONTINUOUS
 62
     6
100
AcDbLine
 10
352.0
 20
103.5
 30
0.0
 11
350.5
 21
105.0
 31
0.0
  0
LINE
  5
50C
100
AcDbEntity
  8
_2
  6
CONTINUOUS
 62
     6
100
AcDbLine
 10
352.0
 20
98.5
 30
0.0
 11
350.5
 21
97.0
 31
0.0
  0
LINE
  5
50D
100
AcDbEntity
  8
_2
  6
CONTINUOUS
 62
     6
100
AcDbLine
 10
353.0
 20
102.6
 30
0.0
 11
374.040766
 21
102.6
 31
0.0
  0
LINE
  5
50E
100
AcDbEntity
  8
_2
  6
CONTINUOUS
 62
     6
100
AcDbLine
 10
353.0
 20
99.4
 30
0.0
 11
374.040766
 21
99.4
 31
0.0
  0
LINE
  5
50F
100
AcDbEntity
  8
_2
  6
CONTINUOUS
 62
     6
100
AcDbLine
 10
350.5
 20
530.5
 30
0.0
 11
350.5
 21
538.5
 31
0.0
  0
LINE
  5
510
100
AcDbEntity
  8
_2
  6
CONTINUOUS
 62
     6
100
AcDbLine
 10
350.2
 20
530.5
 30
0.0
 11
350.5
 21
530.5
 31
0.0
  0
LINE
  5
511
100
AcDbEntity
  8
_2
  6
CONTINUOUS
 62
     6
100
AcDbLine
 10
350.2
 20
538.5
 30
0.0
 11
350.5
 21
538.5
 31
0.0
  0
LINE
  5
512
100
AcDbEntity
  8
_2
  6
CONTINUOUS
 62
     6
100
AcDbLine
 10
352.984979
 20
536.5
 30
0.0
 11
353.690287
 21
532.5
 31
0.0
  0
LINE
  5
513
100
AcDbEntity
  8
_2
  6
CONTINUOUS
 62
     6
100
AcDbLine
 10
354.734979
 20
536.5
 30
0.0
 11
355.440287
 21
532.5
 31
0.0
  0
LINE
  5
514
100
AcDbEntity
  8
_2
  6
CONTINUOUS
 62
     6
100
AcDbLine
 10
356.484979
 20
536.5
 30
0.0
 11
357.190287
 21
532.5
 31
0.0
  0
LINE
  5
515
100
AcDbEntity
  8
_2
  6
CONTINUOUS
 62
     6
100
AcDbLine
 10
358.234979
 20
536.5
 30
0.0
 11
358.940287
 21
532.5
 31
0.0
  0
LINE
  5
516
100
AcDbEntity
  8
_2
  6
CONTINUOUS
 62
     6
100
AcDbLine
 10
359.984979
 20
536.5
 30
0.0
 11
360.690287
 21
532.5
 31
0.0
  0
LINE
  5
517
100
AcDbEntity
  8
_2
  6
CONTINUOUS
 62
     6
100
AcDbLine
 10
361.734979
 20
536.5
 30
0.0
 11
362.440287
 21
532.5
 31
0.0
  0
LINE
  5
518
100
AcDbEntity
  8
_2
  6
CONTINUOUS
 62
     6
100
AcDbLine
 10
363.484979
 20
536.5
 30
0.0
 11
364.190287
 21
532.5
 31
0.0
  0
LINE
  5
519
100
AcDbEntity
  8
_2
  6
CONTINUOUS
 62
     6
100
AcDbLine
 10
365.234979
 20
536.5
 30
0.0
 11
365.940287
 21
532.5
 31
0.0
  0
LINE
  5
51A
100
AcDbEntity
  8
_2
  6
CONTINUOUS
 62
     6
100
AcDbLine
 10
366.984979
 20
536.5
 30
0.0
 11
367.690287
 21
532.5
 31
0.0
  0
LINE
  5
51B
100
AcDbEntity
  8
_2
  6
CONTINUOUS
 62
     6
100
AcDbLine
 10
368.734979
 20
536.5
 30
0.0
 11
369.440287
 21
532.5
 31
0.0
  0
LINE
  5
51C
100
AcDbEntity
  8
_2
  6
CONTINUOUS
 62
     6
100
AcDbLine
 10
370.484979
 20
536.5
 30
0.0
 11
371.190287
 21
532.5
 31
0.0
  0
LINE
  5
51D
100
AcDbEntity
  8
_2
  6
CONTINUOUS
 62
     6
100
AcDbLine
 10
377.460968
 20
533.503074
 30
0.0
 11
380.2
 21
534.5
 31
0.0
  0
ARC
  5
51E
100
AcDbEntity
  8
_2
  6
CONTINUOUS
 62
     6
100
AcDbCircle
 10
374.040766
 20
542.9
 30
0.0
 40
10.0
100
AcDbArc
 50
270.0
 51
290.0
  0
LINE
  5
51F
100
AcDbEntity
  8
_2
  6
CONTINUOUS
 62
     6
100
AcDbLine
 10
377.460968
 20
535.496926
 30
0.0
 11
380.2
 21
534.5
 31
0.0
  0
ARC
  5
520
100
AcDbEntity
  8
_2
  6
CONTINUOUS
 62
     6
100
AcDbCircle
 10
374.040766
 20
526.1
 30
0.0
 40
10.0
100
AcDbArc
 50
70.0
 51
90.0
  0
LINE
  5
521
100
AcDbEntity
  8
_2
  6
CONTINUOUS
 62
     6
100
AcDbLine
 10
372.234979
 20
536.5
 30
0.0
 11
372.940287
 21
532.5
 31
0.0
  0
LINE
  5
522
100
AcDbEntity
  8
_2
  6
CONTINUOUS
 62
     6
100
AcDbLine
 10
373.984979
 20
536.5
 30
0.0
 11
374.690287
 21
532.5
 31
0.0
  0
LINE
  5
523
100
AcDbEntity
  8
_2
  6
CONTINUOUS
 62
     6
100
AcDbLine
 10
375.764636
 20
536.331808
 30
0.0
 11
376.392672
 21
532.770039
 31
0.0
  0
LINE
  5
524
100
AcDbEntity
  8
_2
  6
CONTINUOUS
 62
     6
100
AcDbLine
 10
377.606165
 20
535.812721
 30
0.0
 11
378.04956
 21
533.2981
 31
0.0
  0
LINE
  5
525
100
AcDbEntity
  8
_2
  6
CONTINUOUS
 62
     6
100
AcDbLine
 10
379.476178
 20
535.132092
 30
0.0
 11
379.694022
 21
533.896635
 31
0.0
  0
LINE
  5
526
100
AcDbEntity
  8
_2
  6
CONTINUOUS
 62
     6
100
AcDbLine
 10
350.2
 20
538.5
 30
0.0
 11
350.2
 21
530.5
 31
0.0
  0
LINE
  5
527
100
AcDbEntity
  8
_2
  6
CONTINUOUS
 62
     6
100
AcDbLine
 10
352.0
 20
537.0
 30
0.0
 11
350.5
 21
538.5
 31
0.0
  0
LINE
  5
528
100
AcDbEntity
  8
_2
  6
CONTINUOUS
 62
     6
100
AcDbLine
 10
352.0
 20
532.0
 30
0.0
 11
350.5
 21
530.5
 31
0.0
  0
LINE
  5
529
100
AcDbEntity
  8
_2
  6
CONTINUOUS
 62
     6
100
AcDbLine
 10
353.0
 20
536.1
 30
0.0
 11
374.040766
 21
536.1
 31
0.0
  0
LINE
  5
52A
100
AcDbEntity
  8
_2
  6
CONTINUOUS
 62
     6
100
AcDbLine
 10
353.0
 20
532.9
 30
0.0
 11
374.040766
 21
532.9
 31
0.0
  0
LEADER
  5
52B
100
AcDbEntity
  8
_2
  6
CONTINUOUS
 62
     6
100
AcDbLeader
  3
STANDARD
 73
     3
 74
     1
 75
     0
 40
0.0
 76
     2
 10
360.690287
 20
532.5
 30
0.0
 10
366.970531
 20
517.2
 30
0.0
 77
     6
1001
ACAD
1000
DSTYLE
1002
{
1070
    41
1040
7.0
1070
     5
1000
_EX_NORM
1070
     6
1000
_EX_NORM
1070
     7
1000
_EX_NORM
1070
   341
1005
28
1002
}
  0
TEXT
  5
52C
100
AcDbEntity
  8
_2
  6
CONTINUOUS
 62
     2
100
AcDbText
 10
366.970531
 20
517.9
 30
0.0
 40
8.0
  1
４×３０
 41
0.819
  7
EXCADSTD
 72
     5
 11
398.170531
 21
517.9
 31
0.0
100
AcDbText
  0
LINE
  5
52D
100
AcDbEntity
  8
_2
  6
CONTINUOUS
 62
     6
100
AcDbLine
 10
366.970531
 20
517.2
 30
0.0
 11
395.230531
 21
517.2
 31
0.0
  0
LINE
  5
52E
100
AcDbEntity
  8
_2
  6
CONTINUOUS
 62
     7
100
AcDbLine
 10
46.0
 20
84.0
 30
0.0
 11
46.0
 21
541.0
 31
0.0
  0
LINE
  5
52F
100
AcDbEntity
  8
_2
  6
CONTINUOUS
 62
     7
100
AcDbLine
 10
314.0
 20
541.0
 30
0.0
 11
314.0
 21
84.0
 31
0.0
  0
LINE
  5
530
100
AcDbEntity
  8
_2
  6
CONTINUOUS
 62
     7
100
AcDbLine
 10
89.3
 20
541.0
 30
0.0
 11
175.203302
 21
541.0
 31
0.0
  0
LINE
  5
531
100
AcDbEntity
  8
_2
  6
CONTINUOUS
 62
     7
100
AcDbLine
 10
179.798574
 20
541.0
 30
0.0
 11
270.7
 21
541.0
 31
0.0
  0
LINE
  5
532
100
AcDbEntity
  8
_2
  6
CONTINUOUS
 62
     7
100
AcDbLine
 10
89.3
 20
84.0
 30
0.0
 11
174.080023
 21
84.0
 31
0.0
  0
LINE
  5
533
100
AcDbEntity
  8
_2
  6
CONTINUOUS
 62
     7
100
AcDbLine
 10
178.671991
 20
84.0
 30
0.0
 11
270.7
 21
84.0
 31
0.0
  0
LINE
  5
534
100
AcDbEntity
  8
_2
  6
CONTINUOUS
 62
     7
100
AcDbLine
 10
349.0
 20
84.0
 30
0.0
 11
349.0
 21
541.0
 31
0.0
  0
LINE
  5
535
100
AcDbEntity
  8
_2
  6
CONTINUOUS
 62
     7
100
AcDbLine
 10
344.0
 20
84.0
 30
0.0
 11
344.0
 21
541.0
 31
0.0
  0
ENDSEC
  0
SECTION
  2
OBJECTS
  0
DICTIONARY
  5
19
100
AcDbDictionary
  3
ACAD_GROUP
350
1A
  3
ACAD_MLINESTYLE
350
1B
  0
DICTIONARY
  5
1A
102
{ACAD_REACTORS
330
19
102
}
100
AcDbDictionary
  0
DICTIONARY
  5
1B
102
{ACAD_REACTORS
330
19
102
}
100
AcDbDictionary
  3
STANDARD
350
1C
  0
MLINESTYLE
  5
1C
102
{ACAD_REACTORS
330
1B
102
}
100
AcDbMlineStyle
  2
Standard
 70
     0
  3

 62
     0
 51
90.0
 52
90.0
 71
     2
 49
0.5
 62
   256
  6
ByLayer
 49
-0.5
 62
   256
  6
ByLayer
  0
ENDSEC
  0
EOF
