  0
SECTION
  2
HEADER
  9
$ACADVER
  1
AC1014
  9
$ACADMAINTVER
 70
     0
  9
$DWGCODEPAGE
  3
ANSI_932
  9
$INSBASE
 10
0.0
 20
0.0
 30
0.0
  9
$EXTMIN
 10
-2.1
 20
11.5
 30
0.0
  9
$EXTMAX
 10
199.9
 20
291.5
 30
0.0
  9
$LIMMIN
 10
0.0
 20
0.0
  9
$LIMMAX
 10
210.0
 20
297.0
  9
$ORTHOMODE
 70
     0
  9
$REGENMODE
 70
     1
  9
$FILLMODE
 70
     1
  9
$QTEXTMODE
 70
     0
  9
$MIRRTEXT
 70
     1
  9
$DRAGMODE
 70
     2
  9
$LTSCALE
 40
1.0
  9
$OSMODE
 70
     0
  9
$ATTMODE
 70
     1
  9
$TEXTSIZE
 40
0.2
  9
$TRACEWID
 40
0.05
  9
$TEXTSTYLE
  7
STANDARD
  9
$CLAYER
  8
スト－ル
  9
$CELTYPE
  6
CONTINUOUS
  9
$CECOLOR
 62
   256
  9
$CELTSCALE
 40
1.0
  9
$DELOBJ
 70
     1
  9
$DISPSILH
 70
     0
  9
$DIMSCALE
 40
1.0
  9
$DIMASZ
 40
0.18
  9
$DIMEXO
 40
0.0625
  9
$DIMDLI
 40
0.38
  9
$DIMRND
 40
0.0
  9
$DIMDLE
 40
0.0
  9
$DIMEXE
 40
0.18
  9
$DIMTP
 40
0.0
  9
$DIMTM
 40
0.0
  9
$DIMTXT
 40
0.18
  9
$DIMCEN
 40
0.09
  9
$DIMTSZ
 40
0.0
  9
$DIMTOL
 70
     0
  9
$DIMLIM
 70
     0
  9
$DIMTIH
 70
     1
  9
$DIMTOH
 70
     1
  9
$DIMSE1
 70
     0
  9
$DIMSE2
 70
     0
  9
$DIMTAD
 70
     0
  9
$DIMZIN
 70
     0
  9
$DIMBLK
  1

  9
$DIMASO
 70
     1
  9
$DIMSHO
 70
     1
  9
$DIMPOST
  1

  9
$DIMAPOST
  1

  9
$DIMALT
 70
     0
  9
$DIMALTD
 70
     2
  9
$DIMALTF
 40
25.4
  9
$DIMLFAC
 40
1.0
  9
$DIMTOFL
 70
     0
  9
$DIMTVP
 40
0.0
  9
$DIMTIX
 70
     0
  9
$DIMSOXD
 70
     0
  9
$DIMSAH
 70
     0
  9
$DIMBLK1
  1

  9
$DIMBLK2
  1

  9
$DIMSTYLE
  2
STANDARD
  9
$DIMCLRD
 70
     0
  9
$DIMCLRE
 70
     0
  9
$DIMCLRT
 70
     0
  9
$DIMTFAC
 40
1.0
  9
$DIMGAP
 40
0.09
  9
$DIMJUST
 70
     0
  9
$DIMSD1
 70
     0
  9
$DIMSD2
 70
     0
  9
$DIMTOLJ
 70
     1
  9
$DIMTZIN
 70
     0
  9
$DIMALTZ
 70
     0
  9
$DIMALTTZ
 70
     0
  9
$DIMFIT
 70
     3
  9
$DIMUPT
 70
     0
  9
$DIMUNIT
 70
     2
  9
$DIMDEC
 70
     4
  9
$DIMTDEC
 70
     4
  9
$DIMALTU
 70
     2
  9
$DIMALTTD
 70
     2
  9
$DIMTXSTY
  7
STANDARD
  9
$DIMAUNIT
 70
     0
  9
$LUNITS
 70
     2
  9
$LUPREC
 70
     4
  9
$SKETCHINC
 40
0.1
  9
$FILLETRAD
 40
0.0
  9
$AUNITS
 70
     0
  9
$AUPREC
 70
     0
  9
$MENU
  1
acad
  9
$ELEVATION
 40
0.0
  9
$PELEVATION
 40
0.0
  9
$THICKNESS
 40
0.0
  9
$LIMCHECK
 70
     0
  9
$BLIPMODE
 70
     1
  9
$CHAMFERA
 40
0.0
  9
$CHAMFERB
 40
0.0
  9
$CHAMFERC
 40
0.0
  9
$CHAMFERD
 40
0.0
  9
$SKPOLY
 70
     0
  9
$TDCREATE
 40
2454512.900303368
  9
$TDUPDATE
 40
2454512.900303368
  9
$TDINDWG
 40
0.0000000000
  9
$TDUSRTIMER
 40
0.0000000000
  9
$USRTIMER
 70
     1
  9
$ANGBASE
 50
0.0
  9
$ANGDIR
 70
     0
  9
$PDMODE
 70
     0
  9
$PDSIZE
 40
0.0
  9
$PLINEWID
 40
0.0
  9
$COORDS
 70
     1
  9
$SPLFRAME
 70
     0
  9
$SPLINETYPE
 70
     6
  9
$SPLINESEGS
 70
     8
  9
$ATTDIA
 70
     0
  9
$ATTREQ
 70
     1
  9
$HANDLING
 70
     1
  9
$HANDSEED
  5
89F
  9
$SURFTAB1
 70
     6
  9
$SURFTAB2
 70
     6
  9
$SURFTYPE
 70
     6
  9
$SURFU
 70
     6
  9
$SURFV
 70
     6
  9
$UCSNAME
  2

  9
$UCSORG
 10
0.0
 20
0.0
 30
0.0
  9
$UCSXDIR
 10
1.0
 20
0.0
 30
0.0
  9
$UCSYDIR
 10
0.0
 20
1.0
 30
0.0
  9
$PUCSNAME
  2

  9
$PUCSORG
 10
0.0
 20
0.0
 30
0.0
  9
$PUCSXDIR
 10
1.0
 20
0.0
 30
0.0
  9
$PUCSYDIR
 10
0.0
 20
1.0
 30
0.0
  9
$USERI1
 70
     0
  9
$USERI2
 70
     0
  9
$USERI3
 70
     0
  9
$USERI4
 70
     0
  9
$USERI5
 70
     0
  9
$USERR1
 40
0.0
  9
$USERR2
 40
0.0
  9
$USERR3
 40
0.0
  9
$USERR4
 40
0.0
  9
$USERR5
 40
0.0
  9
$WORLDVIEW
 70
     1
  9
$SHADEDGE
 70
     3
  9
$SHADEDIF
 70
    70
  9
$TILEMODE
 70
     1
  9
$MAXACTVP
 70
    16
  9
$PINSBASE
 10
0.0
 20
0.0
 30
0.0
  9
$PLIMCHECK
 70
     0
  9
$PEXTMIN
 10
1.000000E+20
 20
1.000000E+20
 30
1.000000E+20
  9
$PEXTMAX
 10
-1.000000E+20
 20
-1.000000E+20
 30
-1.000000E+20
  9
$PLIMMIN
 10
0.0
 20
0.0
  9
$PLIMMAX
 10
12.0
 20
9.0
  9
$UNITMODE
 70
     0
  9
$VISRETAIN
 70
     0
  9
$PLINEGEN
 70
     1
  9
$PSLTSCALE
 70
     0
  9
$TREEDEPTH
 70
  3020
  9
$PICKSTYLE
 70
     1
  9
$CMLSTYLE
  2
Standard
  9
$CMLJUST
 70
     0
  9
$CMLSCALE
 40
1.0
  9
$PROXYGRAPHICS
 70
     0
  9
$MEASUREMENT
 70
     0
  0
ENDSEC
  0
SECTION
  2
CLASSES
  0
CLASS
  1
LWPOLYLINE
  2
AcDbPolyline
  3
"AutoCAD"
 90
        0
280
     0
281
     1
  0
CLASS
  1
IMAGE
  2
AcDbRasterImage
  3
ISM
 90
      127
280
     0
281
     1
  0
CLASS
  1
OLE2FRAME
  2
AcDbOle2Frame
  3
""
 90
        0
280
     0
281
     1
  0
CLASS
  1
HATCH
  2
AcDbHatch
  3
"ACAD_SEDONA"
 90
        0
280
     0
281
     1
  0
CLASS
  1
DICTIONARYVAR
  2
AcDbDictionaryVar
  3
"AutoCAD"
 90
        0
280
     0
281
     0
  0
CLASS
  1
RASTERVARIABLES
  2
AcDbRasterVariables
  3
ISM
 90
        0
280
     0
281
     0
  0
CLASS
  1
IMAGEDEF
  2
AcDbRasterImageDef
  3
ISM
 90
        0
280
     0
281
     0
  0
CLASS
  1
IMAGEDEF_REACTOR
  2
AcDbRasterImageDefReactor
  3
ISM
 90
        1
280
     0
281
     0
  0
CLASS
  1
IDBUFFER
  2
AcDbIdBuffer
  3
"Acad"
 90
        0
280
     0
281
     0
  0
CLASS
  1
SPATIAL_FILTER
  2
AcDbSpatialFilter
  3
"Acad"
 90
        0
280
     0
281
     0
  0
CLASS
  1
XRECORD
  2
AcDbXrecord
  3
"<Built In>"
 90
        0
280
     0
281
     0
  0
CLASS
  1
SORTENTSTABLE
  2
AcDbSortentsTable
  3
"AutoCAD"
 90
        0
280
     0
281
     0
  0
CLASS
  1
LAYER_INDEX
  2
AcDbLayerIndex
  3
"Acad"
 90
        0
280
     0
281
     0
  0
CLASS
  1
SPATIAL_INDEX
  2
AcDbSpatialIndex
  3
"Acad"
 90
        0
280
     0
281
     0
  0
CLASS
  1
OBJECT_PTR
  2
CAseDLPNTableRecord
  3
"ASE-LPNTableRecord"
 90
        1
280
     0
281
     0
  0
CLASS
  1
LAYOUT
  2
AcDbLayout
  3
"AutoCAD 2000"
 90
        1
280
     0
281
     0
  0
CLASS
  1
PLOTSETTINGS
  2
AcDbPlotSettings
  3
"AutoCAD 2000"
 90
        1
280
     0
281
     0
  0
CLASS
  1
ACDBDICTIONARYWDFLT
  2
AcDbDictionaryWithDefault
  3
"AutoCAD 2000"
 90
        1
280
     0
281
     0
  0
CLASS
  1
ACDBPLACEHOLDER
  2
AcDbPlaceHolder
  3
"AutoCAD 2000"
 90
        1
280
     0
281
     0
  0
CLASS
  1
VBA_PROJECT
  2
AcDbVbaProject
  3
"acadvba"
 90
        1
280
     0
281
     0
  0
CLASS
  1
WIPEOUT
  2
AcDbWipeout
  3
WipeOut|AutoCAD Express Tool|expresstools@autodesk.com
 90
      127
280
     0
281
     1
  0
CLASS
  1
WIPEOUTVARIABLES
  2
AcDbWipeoutVariables
  3
WipeOut|AutoCAD Express Tool|expresstools@autodesk.com
 90
        0
280
     0
281
     0
  0
CLASS
  1
RTEXT
  2
RText
  3
RText|AutoCAD Express Tool|expresstools@autodesk.com
 90
        0
280
     0
281
     1
  0
CLASS
  1
ARCALIGNEDTEXT
  2
AcDbArcAlignedText
  3
ATEXT|AutoCAD Express Tool|expresstools@autodesk.com
 90
        0
280
     0
281
     1
  0
ENDSEC
  0
SECTION
  2
TABLES
  0
TABLE
  2
VPORT
  5
7
100
AcDbSymbolTable
 70
     1
  0
VPORT
  5
15
100
AcDbSymbolTableRecord
100
AcDbViewportTableRecord
  2
*ACTIVE
 70
     0
 10
0.0
 20
0.0
 11
1.0
 21
1.0
 12
989.0
 22
1515.0
 13
0.0
 23
0.0
 14
1.0
 24
1.0
 15
0.0
 25
0.0
 16
0.0
 26
0.0
 36
1.0
 17
0.0
 27
0.0
 37
0.0
 40
2800.0
 41
1.722533
 42
50.0
 43
0.0
 44
0.0
 50
0.0
 51
0.0
 71
     0
 72
   100
 73
     1
 74
     1
 75
     0
 76
     0
 77
     0
 78
     0
  0
ENDTAB
  0
TABLE
  2
LTYPE
  5
4
100
AcDbSymbolTable
 70
     9
  0
LTYPE
  5
11
100
AcDbSymbolTableRecord
100
AcDbLinetypeTableRecord
  2
BYBLOCK
 70
    64
  3

 72
    65
 73
     0
 40
0.0
  0
LTYPE
  5
12
100
AcDbSymbolTableRecord
100
AcDbLinetypeTableRecord
  2
BYLAYER
 70
    64
  3

 72
    65
 73
     0
 40
0.0
  0
LTYPE
  5
13
100
AcDbSymbolTableRecord
100
AcDbLinetypeTableRecord
  2
CONTINUOUS
 70
    64
  3
実線
 72
    65
 73
     0
 40
0.0
  0
LTYPE
  5
1D
100
AcDbSymbolTableRecord
100
AcDbLinetypeTableRecord
  2
EXLTYPE1
 70
    64
  3
破線
 72
    65
 73
     2
 40
3.0
 49
2.0
 74
     0
 49
-1.0
 74
     0
  0
LTYPE
  5
1E
100
AcDbSymbolTableRecord
100
AcDbLinetypeTableRecord
  2
EXLTYPE2
 70
    64
  3
点線
 72
    65
 73
     2
 40
2.0
 49
1.0
 74
     0
 49
-1.0
 74
     0
  0
LTYPE
  5
1F
100
AcDbSymbolTableRecord
100
AcDbLinetypeTableRecord
  2
EXLTYPE3
 70
    64
  3
一点鎖線
 72
    65
 73
     4
 40
10.0
 49
7.0
 74
     0
 49
-1.0
 74
     0
 49
1.0
 74
     0
 49
-1.0
 74
     0
  0
LTYPE
  5
20
100
AcDbSymbolTableRecord
100
AcDbLinetypeTableRecord
  2
EXLTYPE4
 70
    64
  3
二点鎖線
 72
    65
 73
     6
 40
12.0
 49
7.0
 74
     0
 49
-1.0
 74
     0
 49
1.0
 74
     0
 49
-1.0
 74
     0
 49
1.0
 74
     0
 49
-1.0
 74
     0
  0
LTYPE
  5
21
100
AcDbSymbolTableRecord
100
AcDbLinetypeTableRecord
  2
EXLTYPE5
 70
    64
  3
三点鎖線
 72
    65
 73
     8
 40
37.0
 49
30.0
 74
     0
 49
-1.0
 74
     0
 49
1.0
 74
     0
 49
-1.0
 74
     0
 49
1.0
 74
     0
 49
-1.0
 74
     0
 49
1.0
 74
     0
 49
-1.0
 74
     0
  0
LTYPE
  5
22
100
AcDbSymbolTableRecord
100
AcDbLinetypeTableRecord
  2
EXLTYPE6
 70
    64
  3
四点鎖線
 72
    65
 73
    10
 40
39.0
 49
30.0
 74
     0
 49
-1.0
 74
     0
 49
1.0
 74
     0
 49
-1.0
 74
     0
 49
1.0
 74
     0
 49
-1.0
 74
     0
 49
1.0
 74
     0
 49
-1.0
 74
     0
 49
1.0
 74
     0
 49
-1.0
 74
     0
  0
ENDTAB
  0
TABLE
  2
LAYER
  5
2
100
AcDbSymbolTable
 70
     6
  0
LAYER
  5
14
100
AcDbSymbolTableRecord
100
AcDbLayerTableRecord
  2
0
 70
     0
 62
     7
  6
CONTINUOUS
  0
LAYER
  5
25
100
AcDbSymbolTableRecord
100
AcDbLayerTableRecord
  2
枠_
 70
    64
 62
     7
  6
CONTINUOUS
  0
LAYER
  5
26
100
AcDbSymbolTableRecord
100
AcDbLayerTableRecord
  2
スト－ル
 70
    64
 62
     7
  6
CONTINUOUS
  0
LAYER
  5
27
100
AcDbSymbolTableRecord
100
AcDbLayerTableRecord
  2
フラッシュバルブ
 70
    64
 62
     7
  6
CONTINUOUS
  0
LAYER
  5
28
100
AcDbSymbolTableRecord
100
AcDbLayerTableRecord
  2
寸法
 70
    64
 62
     7
  6
CONTINUOUS
  0
LAYER
  5
29
100
AcDbSymbolTableRecord
100
AcDbLayerTableRecord
  2
器具明細表_
 70
    64
 62
     7
  6
CONTINUOUS
  0
ENDTAB
  0
TABLE
  2
STYLE
  5
3
100
AcDbSymbolTable
 70
     3
  0
STYLE
  5
17
100
AcDbSymbolTableRecord
100
AcDbTextStyleTableRecord
  2
STANDARD
 70
     0
 40
0.0
 41
1.0
 50
0.0
 71
     0
 42
0.0
  3
monotxt
  4
extfont
  0
STYLE
  5
23
100
AcDbSymbolTableRecord
100
AcDbTextStyleTableRecord
  2
EXCADSTD
 70
    64
 40
0.0
 41
1.0
 50
0.0
 71
     0
 42
0.2
  3
monotxt
  4
extfont
  0
STYLE
  5
24
100
AcDbSymbolTableRecord
100
AcDbTextStyleTableRecord
  2
EXCADVERT
 70
    68
 40
0.0
 41
1.0
 50
0.0
 71
     0
 42
0.286885
  3
monotxt
  4
extfont
  0
ENDTAB
  0
TABLE
  2
VIEW
  5
5
100
AcDbSymbolTable
 70
     0
  0
ENDTAB
  0
TABLE
  2
UCS
  5
6
100
AcDbSymbolTable
 70
     0
  0
ENDTAB
  0
TABLE
  2
APPID
  5
8
100
AcDbSymbolTable
 70
     1
  0
APPID
  5
16
100
AcDbSymbolTableRecord
100
AcDbRegAppTableRecord
  2
ACAD
 70
     0
  0
ENDTAB
  0
TABLE
  2
DIMSTYLE
  5
9
100
AcDbSymbolTable
 70
     1
  0
DIMSTYLE
105
18
100
AcDbSymbolTableRecord
100
AcDbDimStyleTableRecord
  2
STANDARD
 70
     0
  3

  4

  5

  6

  7

 40
1.0
 41
0.18
 42
0.0625
 43
0.38
 44
0.18
 45
0.0
 46
0.0
 47
0.0
 48
0.0
 71
     0
 72
     0
 73
     1
 74
     1
 75
     0
 76
     0
 77
     0
 78
     0
140
0.18
141
0.09
142
0.0
143
25.4
144
1.0
145
0.0
146
1.0
147
0.09
170
     0
171
     2
172
     1
173
     0
174
     0
175
     0
176
     0
177
     0
178
     0
270
     2
271
     4
272
     4
273
     2
274
     2
275
     0
280
     0
281
     0
282
     0
283
     1
284
     0
285
     0
286
     0
287
     0
288
     0
340
17
  0
ENDTAB
  0
TABLE
  2
BLOCK_RECORD
  5
1
100
AcDbSymbolTable
 70
    15
  0
BLOCK_RECORD
  5
A
100
AcDbSymbolTableRecord
100
AcDbBlockTableRecord
  2
*MODEL_SPACE
  0
BLOCK_RECORD
  5
B
100
AcDbSymbolTableRecord
100
AcDbBlockTableRecord
  2
*PAPER_SPACE
  0
BLOCK_RECORD
  5
2A
100
AcDbSymbolTableRecord
100
AcDbBlockTableRecord
  2
_EX_NORM
  0
BLOCK_RECORD
  5
2B
100
AcDbSymbolTableRecord
100
AcDbBlockTableRecord
  2
_EX_BNORM
  0
BLOCK_RECORD
  5
2C
100
AcDbSymbolTableRecord
100
AcDbBlockTableRecord
  2
_EX_BCIR
  0
BLOCK_RECORD
  5
2D
100
AcDbSymbolTableRecord
100
AcDbBlockTableRecord
  2
_EX_RCIVIL
  0
BLOCK_RECORD
  5
2E
100
AcDbSymbolTableRecord
100
AcDbBlockTableRecord
  2
_EX_SLANT
  0
BLOCK_RECORD
  5
2F
100
AcDbSymbolTableRecord
100
AcDbBlockTableRecord
  2
_EX_NONE
  0
BLOCK_RECORD
  5
30
100
AcDbSymbolTableRecord
100
AcDbBlockTableRecord
  2
_EX_CIVIL
  0
BLOCK_RECORD
  5
31
100
AcDbSymbolTableRecord
100
AcDbBlockTableRecord
  2
_EX_WCIR
  0
BLOCK_RECORD
  5
32
100
AcDbSymbolTableRecord
100
AcDbBlockTableRecord
  2
_EX_WCIR2
  0
BLOCK_RECORD
  5
33
100
AcDbSymbolTableRecord
100
AcDbBlockTableRecord
  2
_EX_WNORM
  0
BLOCK_RECORD
  5
34
100
AcDbSymbolTableRecord
100
AcDbBlockTableRecord
  2
_EX_NNORM
  0
BLOCK_RECORD
  5
35
100
AcDbSymbolTableRecord
100
AcDbBlockTableRecord
  2
_EX_BBOX
  0
BLOCK_RECORD
  5
36
100
AcDbSymbolTableRecord
100
AcDbBlockTableRecord
  2
_EX_WBOX
  0
BLOCK_RECORD
  5
37
100
AcDbSymbolTableRecord
100
AcDbBlockTableRecord
  2
_EX_INTEGRAL
  0
BLOCK_RECORD
  5
38
100
AcDbSymbolTableRecord
100
AcDbBlockTableRecord
  2
NC510LSK
  0
ENDTAB
  0
ENDSEC
  0
SECTION
  2
BLOCKS
  0
BLOCK
  5
D
100
AcDbEntity
  8
0
100
AcDbBlockBegin
  2
*MODEL_SPACE
 70
     0
 10
0.0
 20
0.0
 30
0.0
  3
*MODEL_SPACE
  1

  0
ENDBLK
  5
E
100
AcDbEntity
  8
0
100
AcDbBlockEnd
  0
BLOCK
  5
F
100
AcDbEntity
 67
     1
  8
0
100
AcDbBlockBegin
  2
*PAPER_SPACE
 70
     0
 10
0.0
 20
0.0
 30
0.0
  3
*PAPER_SPACE
  1

  0
ENDBLK
  5
10
100
AcDbEntity
 67
     1
  8
0
100
AcDbBlockEnd
  0
BLOCK
  5
39
100
AcDbEntity
  8
0
100
AcDbBlockBegin
  2
_EX_NORM
 70
     0
 10
0.0
 20
0.0
 30
0.0
  3
_EX_NORM
  1

  0
LINE
  5
3A
100
AcDbEntity
  8
0
  6
CONTINUOUS
 62
     0
100
AcDbLine
 10
0.0
 20
0.0
 30
0.0
 11
-1.0
 21
0.0
 31
0.0
  0
LINE
  5
3B
100
AcDbEntity
  8
0
  6
CONTINUOUS
 62
     0
100
AcDbLine
 10
0.0
 20
0.0
 30
0.0
 11
-1.0
 21
0.166667
 31
0.0
  0
LINE
  5
3C
100
AcDbEntity
  8
0
  6
CONTINUOUS
 62
     0
100
AcDbLine
 10
0.0
 20
0.0
 30
0.0
 11
-1.0
 21
-0.166667
 31
0.0
  0
ENDBLK
  5
3D
100
AcDbEntity
  8
0
100
AcDbBlockEnd
  0
BLOCK
  5
3E
100
AcDbEntity
  8
0
100
AcDbBlockBegin
  2
_EX_BNORM
 70
     0
 10
0.0
 20
0.0
 30
0.0
  3
_EX_BNORM
  1

  0
LINE
  5
3F
100
AcDbEntity
  8
0
  6
CONTINUOUS
 62
     0
100
AcDbLine
 10
0.0
 20
0.0
 30
0.0
 11
-1.0
 21
0.0
 31
0.0
  0
LINE
  5
40
100
AcDbEntity
  8
0
  6
CONTINUOUS
 62
     0
100
AcDbLine
 10
0.0
 20
0.0
 30
0.0
 11
-1.0
 21
0.166667
 31
0.0
  0
LINE
  5
41
100
AcDbEntity
  8
0
  6
CONTINUOUS
 62
     0
100
AcDbLine
 10
0.0
 20
0.0
 30
0.0
 11
-1.0
 21
-0.166667
 31
0.0
  0
LINE
  5
42
100
AcDbEntity
  8
0
  6
CONTINUOUS
 62
     0
100
AcDbLine
 10
0.0
 20
0.0
 30
0.0
 11
-1.0
 21
0.083333
 31
0.0
  0
LINE
  5
43
100
AcDbEntity
  8
0
  6
CONTINUOUS
 62
     0
100
AcDbLine
 10
0.0
 20
0.0
 30
0.0
 11
-1.0
 21
-0.083333
 31
0.0
  0
LINE
  5
44
100
AcDbEntity
  8
0
  6
CONTINUOUS
 62
     0
100
AcDbLine
 10
-1.0
 20
0.166667
 30
0.0
 11
-1.0
 21
-0.166667
 31
0.0
  0
ENDBLK
  5
45
100
AcDbEntity
  8
0
100
AcDbBlockEnd
  0
BLOCK
  5
46
100
AcDbEntity
  8
0
100
AcDbBlockBegin
  2
_EX_BCIR
 70
     0
 10
0.0
 20
0.0
 30
0.0
  3
_EX_BCIR
  1

  0
LINE
  5
47
100
AcDbEntity
  8
0
  6
CONTINUOUS
 62
     0
100
AcDbLine
 10
0.0
 20
0.0
 30
0.0
 11
-1.0
 21
0.0
 31
0.0
  0
CIRCLE
  5
48
100
AcDbEntity
  8
0
  6
CONTINUOUS
 62
     0
100
AcDbCircle
 10
0.0
 20
0.0
 30
0.0
 40
0.5
  0
CIRCLE
  5
49
100
AcDbEntity
  8
0
  6
CONTINUOUS
 62
     0
100
AcDbCircle
 10
0.0
 20
0.0
 30
0.0
 40
0.25
  0
ENDBLK
  5
4A
100
AcDbEntity
  8
0
100
AcDbBlockEnd
  0
BLOCK
  5
4B
100
AcDbEntity
  8
0
100
AcDbBlockBegin
  2
_EX_RCIVIL
 70
     0
 10
0.0
 20
0.0
 30
0.0
  3
_EX_RCIVIL
  1

  0
LINE
  5
4C
100
AcDbEntity
  8
0
  6
CONTINUOUS
 62
     0
100
AcDbLine
 10
0.0
 20
0.0
 30
0.0
 11
-1.0
 21
0.0
 31
0.0
  0
LINE
  5
4D
100
AcDbEntity
  8
0
  6
CONTINUOUS
 62
     0
100
AcDbLine
 10
-1.0
 20
-0.25
 30
0.0
 11
0.0
 21
-0.25
 31
0.0
  0
LINE
  5
4E
100
AcDbEntity
  8
0
  6
CONTINUOUS
 62
     0
100
AcDbLine
 10
-1.0
 20
-0.125
 30
0.0
 11
0.0
 21
-0.125
 31
0.0
  0
ENDBLK
  5
4F
100
AcDbEntity
  8
0
100
AcDbBlockEnd
  0
BLOCK
  5
50
100
AcDbEntity
  8
0
100
AcDbBlockBegin
  2
_EX_SLANT
 70
     0
 10
0.0
 20
0.0
 30
0.0
  3
_EX_SLANT
  1

  0
LINE
  5
51
100
AcDbEntity
  8
0
  6
CONTINUOUS
 62
     0
100
AcDbLine
 10
0.0
 20
0.0
 30
0.0
 11
-1.0
 21
0.0
 31
0.0
  0
LINE
  5
52
100
AcDbEntity
  8
0
  6
CONTINUOUS
 62
     0
100
AcDbLine
 10
0.707107
 20
0.707107
 30
0.0
 11
-0.707107
 21
-0.707107
 31
0.0
  0
ENDBLK
  5
53
100
AcDbEntity
  8
0
100
AcDbBlockEnd
  0
BLOCK
  5
54
100
AcDbEntity
  8
0
100
AcDbBlockBegin
  2
_EX_NONE
 70
     0
 10
0.0
 20
0.0
 30
0.0
  3
_EX_NONE
  1

  0
LINE
  5
55
100
AcDbEntity
  8
0
  6
CONTINUOUS
 62
     0
100
AcDbLine
 10
0.0
 20
0.0
 30
0.0
 11
-1.0
 21
0.0
 31
0.0
  0
ENDBLK
  5
56
100
AcDbEntity
  8
0
100
AcDbBlockEnd
  0
BLOCK
  5
57
100
AcDbEntity
  8
0
100
AcDbBlockBegin
  2
_EX_CIVIL
 70
     0
 10
0.0
 20
0.0
 30
0.0
  3
_EX_CIVIL
  1

  0
LINE
  5
58
100
AcDbEntity
  8
0
  6
CONTINUOUS
 62
     0
100
AcDbLine
 10
0.0
 20
0.0
 30
0.0
 11
-1.0
 21
0.0
 31
0.0
  0
LINE
  5
59
100
AcDbEntity
  8
0
  6
CONTINUOUS
 62
     0
100
AcDbLine
 10
-1.0
 20
0.25
 30
0.0
 11
0.0
 21
0.25
 31
0.0
  0
LINE
  5
5A
100
AcDbEntity
  8
0
  6
CONTINUOUS
 62
     0
100
AcDbLine
 10
-1.0
 20
0.125
 30
0.0
 11
0.0
 21
0.125
 31
0.0
  0
ENDBLK
  5
5B
100
AcDbEntity
  8
0
100
AcDbBlockEnd
  0
BLOCK
  5
5C
100
AcDbEntity
  8
0
100
AcDbBlockBegin
  2
_EX_WCIR
 70
     0
 10
0.0
 20
0.0
 30
0.0
  3
_EX_WCIR
  1

  0
LINE
  5
5D
100
AcDbEntity
  8
0
  6
CONTINUOUS
 62
     0
100
AcDbLine
 10
0.0
 20
0.0
 30
0.0
 11
-1.0
 21
0.0
 31
0.0
  0
CIRCLE
  5
5E
100
AcDbEntity
  8
0
  6
CONTINUOUS
 62
     0
100
AcDbCircle
 10
0.0
 20
0.0
 30
0.0
 40
0.5
  0
ENDBLK
  5
5F
100
AcDbEntity
  8
0
100
AcDbBlockEnd
  0
BLOCK
  5
60
100
AcDbEntity
  8
0
100
AcDbBlockBegin
  2
_EX_WCIR2
 70
     0
 10
0.0
 20
0.0
 30
0.0
  3
_EX_WCIR2
  1

  0
LINE
  5
61
100
AcDbEntity
  8
0
  6
CONTINUOUS
 62
     0
100
AcDbLine
 10
-0.5
 20
0.0
 30
0.0
 11
-1.0
 21
0.0
 31
0.0
  0
CIRCLE
  5
62
100
AcDbEntity
  8
0
  6
CONTINUOUS
 62
     0
100
AcDbCircle
 10
0.0
 20
0.0
 30
0.0
 40
0.5
  0
ENDBLK
  5
63
100
AcDbEntity
  8
0
100
AcDbBlockEnd
  0
BLOCK
  5
64
100
AcDbEntity
  8
0
100
AcDbBlockBegin
  2
_EX_WNORM
 70
     0
 10
0.0
 20
0.0
 30
0.0
  3
_EX_WNORM
  1

  0
LINE
  5
65
100
AcDbEntity
  8
0
  6
CONTINUOUS
 62
     0
100
AcDbLine
 10
-1.0
 20
0.0
 30
0.0
 11
-1.0
 21
0.0
 31
0.0
  0
LINE
  5
66
100
AcDbEntity
  8
0
  6
CONTINUOUS
 62
     0
100
AcDbLine
 10
0.0
 20
0.0
 30
0.0
 11
-1.0
 21
0.166667
 31
0.0
  0
LINE
  5
67
100
AcDbEntity
  8
0
  6
CONTINUOUS
 62
     0
100
AcDbLine
 10
0.0
 20
0.0
 30
0.0
 11
-1.0
 21
-0.166667
 31
0.0
  0
LINE
  5
68
100
AcDbEntity
  8
0
  6
CONTINUOUS
 62
     0
100
AcDbLine
 10
-1.0
 20
0.166667
 30
0.0
 11
-1.0
 21
-0.166667
 31
0.0
  0
ENDBLK
  5
69
100
AcDbEntity
  8
0
100
AcDbBlockEnd
  0
BLOCK
  5
6A
100
AcDbEntity
  8
0
100
AcDbBlockBegin
  2
_EX_NNORM
 70
     0
 10
0.0
 20
0.0
 30
0.0
  3
_EX_NNORM
  1

  0
LINE
  5
6B
100
AcDbEntity
  8
0
  6
CONTINUOUS
 62
     0
100
AcDbLine
 10
0.0
 20
0.0
 30
0.0
 11
-1.0
 21
0.0
 31
0.0
  0
LINE
  5
6C
100
AcDbEntity
  8
0
  6
CONTINUOUS
 62
     0
100
AcDbLine
 10
0.0
 20
0.0
 30
0.0
 11
-1.0
 21
0.166667
 31
0.0
  0
LINE
  5
6D
100
AcDbEntity
  8
0
  6
CONTINUOUS
 62
     0
100
AcDbLine
 10
0.0
 20
0.0
 30
0.0
 11
-1.0
 21
-0.166667
 31
0.0
  0
LINE
  5
6E
100
AcDbEntity
  8
0
  6
CONTINUOUS
 62
     0
100
AcDbLine
 10
-1.0
 20
0.166667
 30
0.0
 11
-1.0
 21
-0.166667
 31
0.0
  0
ENDBLK
  5
6F
100
AcDbEntity
  8
0
100
AcDbBlockEnd
  0
BLOCK
  5
70
100
AcDbEntity
  8
0
100
AcDbBlockBegin
  2
_EX_BBOX
 70
     0
 10
0.0
 20
0.0
 30
0.0
  3
_EX_BBOX
  1

  0
LINE
  5
71
100
AcDbEntity
  8
0
  6
CONTINUOUS
 62
     0
100
AcDbLine
 10
0.0
 20
0.0
 30
0.0
 11
-1.0
 21
0.0
 31
0.0
  0
LINE
  5
72
100
AcDbEntity
  8
0
  6
CONTINUOUS
 62
     0
100
AcDbLine
 10
-0.5
 20
0.5
 30
0.0
 11
0.5
 21
0.5
 31
0.0
  0
LINE
  5
73
100
AcDbEntity
  8
0
  6
CONTINUOUS
 62
     0
100
AcDbLine
 10
0.5
 20
0.5
 30
0.0
 11
0.5
 21
-0.5
 31
0.0
  0
LINE
  5
74
100
AcDbEntity
  8
0
  6
CONTINUOUS
 62
     0
100
AcDbLine
 10
0.5
 20
-0.5
 30
0.0
 11
-0.5
 21
-0.5
 31
0.0
  0
LINE
  5
75
100
AcDbEntity
  8
0
  6
CONTINUOUS
 62
     0
100
AcDbLine
 10
-0.5
 20
-0.5
 30
0.0
 11
-0.5
 21
0.5
 31
0.0
  0
LINE
  5
76
100
AcDbEntity
  8
0
  6
CONTINUOUS
 62
     0
100
AcDbLine
 10
-0.25
 20
0.25
 30
0.0
 11
0.25
 21
0.25
 31
0.0
  0
LINE
  5
77
100
AcDbEntity
  8
0
  6
CONTINUOUS
 62
     0
100
AcDbLine
 10
0.25
 20
0.25
 30
0.0
 11
0.25
 21
-0.25
 31
0.0
  0
LINE
  5
78
100
AcDbEntity
  8
0
  6
CONTINUOUS
 62
     0
100
AcDbLine
 10
0.25
 20
-0.25
 30
0.0
 11
-0.25
 21
-0.25
 31
0.0
  0
LINE
  5
79
100
AcDbEntity
  8
0
  6
CONTINUOUS
 62
     0
100
AcDbLine
 10
-0.25
 20
-0.25
 30
0.0
 11
-0.25
 21
0.25
 31
0.0
  0
ENDBLK
  5
7A
100
AcDbEntity
  8
0
100
AcDbBlockEnd
  0
BLOCK
  5
7B
100
AcDbEntity
  8
0
100
AcDbBlockBegin
  2
_EX_WBOX
 70
     0
 10
0.0
 20
0.0
 30
0.0
  3
_EX_WBOX
  1

  0
LINE
  5
7C
100
AcDbEntity
  8
0
  6
CONTINUOUS
 62
     0
100
AcDbLine
 10
-0.5
 20
0.0
 30
0.0
 11
-1.0
 21
0.0
 31
0.0
  0
LINE
  5
7D
100
AcDbEntity
  8
0
  6
CONTINUOUS
 62
     0
100
AcDbLine
 10
-0.5
 20
0.5
 30
0.0
 11
0.5
 21
0.5
 31
0.0
  0
LINE
  5
7E
100
AcDbEntity
  8
0
  6
CONTINUOUS
 62
     0
100
AcDbLine
 10
0.5
 20
0.5
 30
0.0
 11
0.5
 21
-0.5
 31
0.0
  0
LINE
  5
7F
100
AcDbEntity
  8
0
  6
CONTINUOUS
 62
     0
100
AcDbLine
 10
0.5
 20
-0.5
 30
0.0
 11
-0.5
 21
-0.5
 31
0.0
  0
LINE
  5
80
100
AcDbEntity
  8
0
  6
CONTINUOUS
 62
     0
100
AcDbLine
 10
-0.5
 20
-0.5
 30
0.0
 11
-0.5
 21
0.5
 31
0.0
  0
ENDBLK
  5
81
100
AcDbEntity
  8
0
100
AcDbBlockEnd
  0
BLOCK
  5
82
100
AcDbEntity
  8
0
100
AcDbBlockBegin
  2
_EX_INTEGRAL
 70
     0
 10
0.0
 20
0.0
 30
0.0
  3
_EX_INTEGRAL
  1

  0
LINE
  5
83
100
AcDbEntity
  8
0
  6
CONTINUOUS
 62
     0
100
AcDbLine
 10
0.0
 20
0.0
 30
0.0
 11
-1.0
 21
0.0
 31
0.0
  0
ARC
  5
84
100
AcDbEntity
  8
0
  6
CONTINUOUS
 62
     0
100
AcDbCircle
 10
0.542115
 20
0.164992
 30
0.0
 40
0.56667
100
AcDbArc
 50
73.07249
 51
196.927513
  0
ARC
  5
85
100
AcDbEntity
  8
0
  6
CONTINUOUS
 62
     0
100
AcDbCircle
 10
-0.542115
 20
-0.164992
 30
0.0
 40
0.56667
100
AcDbArc
 50
253.072487
 51
16.927513
  0
ENDBLK
  5
86
100
AcDbEntity
  8
0
100
AcDbBlockEnd
  0
BLOCK
  5
87
100
AcDbEntity
  8
0
100
AcDbBlockBegin
  2
NC510LSK
 70
     0
 10
0.0
 20
0.0
 30
0.0
  3
NC510LSK
  1

  0
POINT
  5
88
100
AcDbEntity
  8
0
  6
CONTINUOUS
 62
     7
100
AcDbPoint
 10
0.0
 20
0.0
 30
0.0
  0
ENDBLK
  5
89
100
AcDbEntity
  8
0
100
AcDbBlockEnd
  0
ENDSEC
  0
SECTION
  2
ENTITIES
  0
LINE
  5
8A
100
AcDbEntity
  8
枠_
  6
EXLTYPE2
 62
     6
100
AcDbLine
 10
169.0
 20
1515.0
 30
0.0
 11
-21.0
 21
1515.0
 31
0.0
  0
LINE
  5
8B
100
AcDbEntity
  8
枠_
  6
CONTINUOUS
 62
     7
100
AcDbLine
 10
179.0
 20
115.0
 30
0.0
 11
1999.0
 21
115.0
 31
0.0
  0
LINE
  5
8C
100
AcDbEntity
  8
枠_
  6
CONTINUOUS
 62
     7
100
AcDbLine
 10
1999.0
 20
115.0
 30
0.0
 11
1999.0
 21
2915.0
 31
0.0
  0
LINE
  5
8D
100
AcDbEntity
  8
枠_
  6
CONTINUOUS
 62
     7
100
AcDbLine
 10
179.0
 20
115.0
 30
0.0
 11
179.0
 21
2915.0
 31
0.0
  0
LINE
  5
8E
100
AcDbEntity
  8
枠_
  6
CONTINUOUS
 62
     7
100
AcDbLine
 10
179.0
 20
2915.0
 30
0.0
 11
1999.0
 21
2915.0
 31
0.0
  0
LINE
  5
8F
100
AcDbEntity
  8
枠_
  6
CONTINUOUS
 62
     7
100
AcDbLine
 10
179.0
 20
335.0
 30
0.0
 11
1999.0
 21
335.0
 31
0.0
  0
LINE
  5
90
100
AcDbEntity
  8
枠_
  6
CONTINUOUS
 62
     6
100
AcDbLine
 10
1999.0
 20
215.0
 30
0.0
 11
749.0
 21
215.0
 31
0.0
  0
LINE
  5
91
100
AcDbEntity
  8
枠_
  6
CONTINUOUS
 62
     6
100
AcDbLine
 10
1859.0
 20
335.0
 30
0.0
 11
1859.0
 21
215.0
 31
0.0
  0
LINE
  5
92
100
AcDbEntity
  8
枠_
  6
CONTINUOUS
 62
     6
100
AcDbLine
 10
1809.0
 20
335.0
 30
0.0
 11
1809.0
 21
215.0
 31
0.0
  0
LINE
  5
93
100
AcDbEntity
  8
枠_
  6
CONTINUOUS
 62
     6
100
AcDbLine
 10
1439.0
 20
335.0
 30
0.0
 11
1439.0
 21
115.0
 31
0.0
  0
LINE
  5
94
100
AcDbEntity
  8
枠_
  6
CONTINUOUS
 62
     6
100
AcDbLine
 10
1389.0
 20
335.0
 30
0.0
 11
1389.0
 21
115.0
 31
0.0
  0
LINE
  5
95
100
AcDbEntity
  8
枠_
  6
CONTINUOUS
 62
     6
100
AcDbLine
 10
799.0
 20
335.0
 30
0.0
 11
799.0
 21
215.0
 31
0.0
  0
LINE
  5
96
100
AcDbEntity
  8
枠_
  6
CONTINUOUS
 62
     6
100
AcDbLine
 10
749.0
 20
335.0
 30
0.0
 11
749.0
 21
115.0
 31
0.0
  0
LINE
  5
97
100
AcDbEntity
  8
枠_
  6
CONTINUOUS
 62
     6
100
AcDbLine
 10
619.0
 20
335.0
 30
0.0
 11
619.0
 21
115.0
 31
0.0
  0
LINE
  5
98
100
AcDbEntity
  8
枠_
  6
CONTINUOUS
 62
     6
100
AcDbLine
 10
489.0
 20
335.0
 30
0.0
 11
489.0
 21
115.0
 31
0.0
  0
LINE
  5
99
100
AcDbEntity
  8
枠_
  6
CONTINUOUS
 62
     6
100
AcDbLine
 10
334.0
 20
335.0
 30
0.0
 11
334.0
 21
115.0
 31
0.0
  0
LINE
  5
9A
100
AcDbEntity
  8
枠_
  6
CONTINUOUS
 62
     6
100
AcDbLine
 10
179.0
 20
285.0
 30
0.0
 11
749.0
 21
285.0
 31
0.0
  0
LINE
  5
9B
100
AcDbEntity
  8
枠_
  6
CONTINUOUS
 62
     6
100
AcDbLine
 10
1891.653809
 20
238.00293
 30
0.0
 11
1968.993896
 21
316.699829
 31
0.0
  0
LINE
  5
9C
100
AcDbEntity
  8
枠_
  6
EXLTYPE2
 62
     6
100
AcDbLine
 10
179.0
 20
165.0
 30
0.0
 11
489.0
 21
165.0
 31
0.0
  0
CIRCLE
  5
9D
100
AcDbEntity
  8
枠_
  6
CONTINUOUS
 62
     6
100
AcDbCircle
 10
229.0
 20
140.0
 30
0.0
 40
1.0
  0
CIRCLE
  5
9E
100
AcDbEntity
  8
枠_
  6
CONTINUOUS
 62
     6
100
AcDbCircle
 10
279.0
 20
140.0
 30
0.0
 40
1.0
  0
CIRCLE
  5
9F
100
AcDbEntity
  8
枠_
  6
CONTINUOUS
 62
     6
100
AcDbCircle
 10
384.0
 20
140.0
 30
0.0
 40
1.0
  0
CIRCLE
  5
A0
100
AcDbEntity
  8
枠_
  6
CONTINUOUS
 62
     6
100
AcDbCircle
 10
434.0
 20
140.0
 30
0.0
 40
1.0
  0
LINE
  5
A1
100
AcDbEntity
  8
枠_
  6
EXLTYPE2
 62
     6
100
AcDbLine
 10
169.0
 20
1515.0
 30
0.0
 11
-21.0
 21
1515.0
 31
0.0
  0
TEXT
  5
A2
100
AcDbEntity
  8
枠_
  6
CONTINUOUS
 62
     2
100
AcDbText
 10
1889.537109
 20
282.722778
 30
0.0
 40
30.0
  1
１
 41
0.826
  7
EXCADSTD
 72
     5
 11
1913.13711
 21
282.722778
 31
0.0
100
AcDbText
  0
TEXT
  5
A3
100
AcDbEntity
  8
枠_
  6
CONTINUOUS
 62
     2
100
AcDbText
 10
1930.279297
 20
238.348846
 30
0.0
 40
30.0
  1
１０
 41
0.791
  7
EXCADSTD
 72
     5
 11
1982.067198
 21
238.348846
 31
0.0
100
AcDbText
  0
TEXT
  5
A4
100
AcDbEntity
  8
枠_
  6
CONTINUOUS
 62
     2
100
AcDbText
 10
201.5
 20
288.75
 30
0.0
 40
42.5
  1
製図
 41
1.087059
  7
EXCADSTD
 72
     5
 11
302.326
 21
288.75
 31
0.0
100
AcDbText
  0
TEXT
  5
A5
100
AcDbEntity
  8
枠_
  6
CONTINUOUS
 62
     2
100
AcDbText
 10
356.5
 20
288.75
 30
0.0
 40
42.5
  1
写図
 41
1.087059
  7
EXCADSTD
 72
     5
 11
457.326
 21
288.75
 31
0.0
100
AcDbText
  0
TEXT
  5
A6
100
AcDbEntity
  8
枠_
  6
CONTINUOUS
 62
     2
100
AcDbText
 10
506.5
 20
288.75
 30
0.0
 40
42.5
  1
検図
 41
0.938824
  7
EXCADSTD
 72
     5
 11
593.577
 21
288.75
 31
0.0
100
AcDbText
  0
TEXT
  5
A7
100
AcDbEntity
  8
枠_
  6
CONTINUOUS
 62
     2
100
AcDbText
 10
636.5
 20
288.75
 30
0.0
 40
42.5
  1
承認
 41
0.938824
  7
EXCADSTD
 72
     5
 11
723.577
 21
288.75
 31
0.0
100
AcDbText
  0
TEXT
  5
A8
100
AcDbEntity
  8
枠_
  6
CONTINUOUS
 62
     2
100
AcDbText
 10
752.75
 20
278.75
 30
0.0
 40
42.5
  1
品
 41
0.84
  7
EXCADSTD
 72
     5
 11
786.75
 21
278.75
 31
0.0
100
AcDbText
  0
TEXT
  5
A9
100
AcDbEntity
  8
枠_
  6
CONTINUOUS
 62
     2
100
AcDbText
 10
752.75
 20
228.75
 30
0.0
 40
42.5
  1
名
 41
0.84
  7
EXCADSTD
 72
     5
 11
786.75
 21
228.75
 31
0.0
100
AcDbText
  0
TEXT
  5
AA
100
AcDbEntity
  8
枠_
  6
CONTINUOUS
 62
     2
100
AcDbText
 10
1392.75
 20
278.75
 30
0.0
 40
42.5
  1
品
 41
0.84
  7
EXCADSTD
 72
     5
 11
1426.75
 21
278.75
 31
0.0
100
AcDbText
  0
TEXT
  5
AB
100
AcDbEntity
  8
枠_
  6
CONTINUOUS
 62
     2
100
AcDbText
 10
1392.75
 20
228.75
 30
0.0
 40
42.5
  1
番
 41
0.84
  7
EXCADSTD
 72
     5
 11
1426.75
 21
228.75
 31
0.0
100
AcDbText
  0
TEXT
  5
AC
100
AcDbEntity
  8
枠_
  6
CONTINUOUS
 62
     2
100
AcDbText
 10
1812.75
 20
278.75
 30
0.0
 40
42.5
  1
尺
 41
0.84
  7
EXCADSTD
 72
     5
 11
1846.75
 21
278.75
 31
0.0
100
AcDbText
  0
TEXT
  5
AD
100
AcDbEntity
  8
枠_
  6
CONTINUOUS
 62
     2
100
AcDbText
 10
1812.75
 20
228.75
 30
0.0
 40
42.5
  1
度
 41
0.84
  7
EXCADSTD
 72
     5
 11
1846.75
 21
228.75
 31
0.0
100
AcDbText
  0
TEXT
  5
AE
100
AcDbEntity
  8
枠_
  6
CONTINUOUS
 62
     2
100
AcDbText
 10
1392.75
 20
165.75
 30
0.0
 40
42.5
  1
図
 41
0.84
  7
EXCADSTD
 72
     5
 11
1426.75
 21
165.75
 31
0.0
100
AcDbText
  0
TEXT
  5
AF
100
AcDbEntity
  8
枠_
  6
CONTINUOUS
 62
     2
100
AcDbText
 10
1392.75
 20
122.75
 30
0.0
 40
42.5
  1
番
 41
0.84
  7
EXCADSTD
 72
     5
 11
1426.75
 21
122.75
 31
0.0
100
AcDbText
  0
LINE
  5
B0
100
AcDbEntity
  8
枠_
  6
CONTINUOUS
 62
     3
100
AcDbLine
 10
826.447754
 20
180.287994
 30
0.0
 11
818.384094
 21
180.287994
 31
0.0
  0
LINE
  5
B1
100
AcDbEntity
  8
枠_
  6
CONTINUOUS
 62
     3
100
AcDbLine
 10
826.447754
 20
188.351959
 30
0.0
 11
826.447754
 21
180.287994
 31
0.0
  0
LINE
  5
B2
100
AcDbEntity
  8
枠_
  6
CONTINUOUS
 62
     3
100
AcDbLine
 10
818.384094
 20
188.351959
 30
0.0
 11
826.447754
 21
188.351959
 31
0.0
  0
LINE
  5
B3
100
AcDbEntity
  8
枠_
  6
CONTINUOUS
 62
     3
100
AcDbLine
 10
818.384094
 20
188.351959
 30
0.0
 11
818.384094
 21
180.287994
 31
0.0
  0
LINE
  5
B4
100
AcDbEntity
  8
枠_
  6
CONTINUOUS
 62
     3
100
AcDbLine
 10
815.359192
 20
180.287994
 30
0.0
 11
807.295532
 21
180.287994
 31
0.0
  0
LINE
  5
B5
100
AcDbEntity
  8
枠_
  6
CONTINUOUS
 62
     3
100
AcDbLine
 10
815.359192
 20
188.351959
 30
0.0
 11
815.359192
 21
180.287994
 31
0.0
  0
LINE
  5
B6
100
AcDbEntity
  8
枠_
  6
CONTINUOUS
 62
     3
100
AcDbLine
 10
807.295532
 20
188.351959
 30
0.0
 11
815.359192
 21
188.351959
 31
0.0
  0
LINE
  5
B7
100
AcDbEntity
  8
枠_
  6
CONTINUOUS
 62
     3
100
AcDbLine
 10
807.295532
 20
188.351959
 30
0.0
 11
807.295532
 21
180.287994
 31
0.0
  0
LINE
  5
B8
100
AcDbEntity
  8
枠_
  6
CONTINUOUS
 62
     3
100
AcDbLine
 10
798.887329
 20
144.0
 30
0.0
 11
770.0
 21
144.0
 31
0.0
  0
ARC
  5
B9
100
AcDbEntity
  8
枠_
  6
CONTINUOUS
 62
     3
100
AcDbCircle
 10
798.887329
 20
162.144073
 30
0.0
 40
18.143997
100
AcDbArc
 50
270.000031
 51
334.000137
  0
LINE
  5
BA
100
AcDbEntity
  8
枠_
  6
CONTINUOUS
 62
     3
100
AcDbLine
 10
826.447754
 20
177.264008
 30
0.0
 11
815.193024
 21
154.190125
 31
0.0
  0
LINE
  5
BB
100
AcDbEntity
  8
枠_
  6
CONTINUOUS
 62
     3
100
AcDbLine
 10
814.112244
 20
177.264008
 30
0.0
 11
826.447754
 21
177.264008
 31
0.0
  0
LINE
  5
BC
100
AcDbEntity
  8
枠_
  6
CONTINUOUS
 62
     3
100
AcDbLine
 10
805.01297
 20
158.60907
 30
0.0
 11
814.112244
 21
177.264008
 31
0.0
  0
ARC
  5
BD
100
AcDbEntity
  8
枠_
  6
CONTINUOUS
 62
     3
100
AcDbCircle
 10
797.765503
 20
162.144073
 30
0.0
 40
8.064
100
AcDbArc
 50
270.000031
 51
333.99855
  0
LINE
  5
BE
100
AcDbEntity
  8
枠_
  6
CONTINUOUS
 62
     3
100
AcDbLine
 10
770.0
 20
154.079956
 30
0.0
 11
797.765503
 21
154.079956
 31
0.0
  0
LINE
  5
BF
100
AcDbEntity
  8
枠_
  6
CONTINUOUS
 62
     3
100
AcDbLine
 10
770.0
 20
154.079956
 30
0.0
 11
770.0
 21
144.0
 31
0.0
  0
LINE
  5
C0
100
AcDbEntity
  8
枠_
  6
CONTINUOUS
 62
     3
100
AcDbLine
 10
798.224945
 20
167.183899
 30
0.0
 11
770.0
 21
167.183899
 31
0.0
  0
LINE
  5
C1
100
AcDbEntity
  8
枠_
  6
CONTINUOUS
 62
     3
100
AcDbLine
 10
798.224945
 20
176.256012
 30
0.0
 11
798.224945
 21
167.183899
 31
0.0
  0
LINE
  5
C2
100
AcDbEntity
  8
枠_
  6
CONTINUOUS
 62
     3
100
AcDbLine
 10
770.0
 20
176.256012
 30
0.0
 11
798.224945
 21
176.256012
 31
0.0
  0
LINE
  5
C3
100
AcDbEntity
  8
枠_
  6
CONTINUOUS
 62
     3
100
AcDbLine
 10
770.0
 20
176.256012
 30
0.0
 11
770.0
 21
167.183899
 31
0.0
  0
LINE
  5
C4
100
AcDbEntity
  8
枠_
  6
CONTINUOUS
 62
     3
100
AcDbLine
 10
798.224945
 20
179.279999
 30
0.0
 11
770.0
 21
179.279999
 31
0.0
  0
LINE
  5
C5
100
AcDbEntity
  8
枠_
  6
CONTINUOUS
 62
     3
100
AcDbLine
 10
798.224945
 20
188.351959
 30
0.0
 11
798.224945
 21
179.279999
 31
0.0
  0
LINE
  5
C6
100
AcDbEntity
  8
枠_
  6
CONTINUOUS
 62
     3
100
AcDbLine
 10
770.0
 20
188.351959
 30
0.0
 11
798.224945
 21
188.351959
 31
0.0
  0
LINE
  5
C7
100
AcDbEntity
  8
枠_
  6
CONTINUOUS
 62
     3
100
AcDbLine
 10
770.0
 20
188.351959
 30
0.0
 11
770.0
 21
179.279999
 31
0.0
  0
LINE
  5
C8
100
AcDbEntity
  8
枠_
  6
CONTINUOUS
 62
     3
100
AcDbLine
 10
829.472656
 20
177.264008
 30
0.0
 11
829.472656
 21
170.207886
 31
0.0
  0
LINE
  5
C9
100
AcDbEntity
  8
枠_
  6
CONTINUOUS
 62
     3
100
AcDbLine
 10
829.472656
 20
177.264008
 30
0.0
 11
838.654022
 21
177.264008
 31
0.0
  0
LINE
  5
CA
100
AcDbEntity
  8
枠_
  6
CONTINUOUS
 62
     3
100
AcDbLine
 10
837.536316
 20
184.319977
 30
0.0
 11
838.654022
 21
177.264008
 31
0.0
  0
LINE
  5
CB
100
AcDbEntity
  8
枠_
  6
CONTINUOUS
 62
     3
100
AcDbLine
 10
837.536316
 20
184.319977
 30
0.0
 11
848.76236
 21
184.319977
 31
0.0
  0
LINE
  5
CC
100
AcDbEntity
  8
枠_
  6
CONTINUOUS
 62
     3
100
AcDbLine
 10
848.76236
 20
184.319977
 30
0.0
 11
849.879913
 21
177.264008
 31
0.0
  0
LINE
  5
CD
100
AcDbEntity
  8
枠_
  6
CONTINUOUS
 62
     3
100
AcDbLine
 10
849.879913
 20
177.264008
 30
0.0
 11
877.85675
 21
177.264008
 31
0.0
  0
LINE
  5
CE
100
AcDbEntity
  8
枠_
  6
CONTINUOUS
 62
     3
100
AcDbLine
 10
877.85675
 20
177.264008
 30
0.0
 11
871.973114
 21
164.050507
 31
0.0
  0
ARC
  5
CF
100
AcDbEntity
  8
枠_
  6
CONTINUOUS
 62
     3
100
AcDbCircle
 10
858.161011
 20
170.200409
 30
0.0
 40
15.120106
100
AcDbArc
 50
263.465775
 51
335.998779
  0
LINE
  5
D0
100
AcDbEntity
  8
枠_
  6
CONTINUOUS
 62
     3
100
AcDbLine
 10
856.438446
 20
155.178589
 30
0.0
 11
855.337067
 21
162.144073
 31
0.0
  0
ARC
  5
D1
100
AcDbEntity
  8
枠_
  6
CONTINUOUS
 62
     3
100
AcDbCircle
 10
855.058136
 20
168.192047
 30
0.0
 40
6.048006
100
AcDbArc
 50
272.623749
 51
336.006531
  0
LINE
  5
D2
100
AcDbEntity
  8
枠_
  6
CONTINUOUS
 62
     3
100
AcDbLine
 10
860.585022
 20
165.732025
 30
0.0
 11
862.576294
 21
170.207886
 31
0.0
  0
LINE
  5
D3
100
AcDbEntity
  8
枠_
  6
CONTINUOUS
 62
     3
100
AcDbLine
 10
862.576294
 20
170.207886
 30
0.0
 11
850.99762
 21
170.207886
 31
0.0
  0
LINE
  5
D4
100
AcDbEntity
  8
枠_
  6
CONTINUOUS
 62
     3
100
AcDbLine
 10
850.99762
 20
170.207886
 30
0.0
 11
855.148468
 21
144.0
 31
0.0
  0
LINE
  5
D5
100
AcDbEntity
  8
枠_
  6
CONTINUOUS
 62
     3
100
AcDbLine
 10
855.148468
 20
144.0
 30
0.0
 11
843.922424
 21
144.0
 31
0.0
  0
LINE
  5
D6
100
AcDbEntity
  8
枠_
  6
CONTINUOUS
 62
     3
100
AcDbLine
 10
876.847687
 20
144.0
 30
0.0
 11
876.847687
 21
154.079956
 31
0.0
  0
LINE
  5
D7
100
AcDbEntity
  8
枠_
  6
CONTINUOUS
 62
     3
100
AcDbLine
 10
876.847687
 20
154.079956
 30
0.0
 11
933.295441
 21
154.079956
 31
0.0
  0
LINE
  5
D8
100
AcDbEntity
  8
枠_
  6
CONTINUOUS
 62
     3
100
AcDbLine
 10
933.295441
 20
154.079956
 30
0.0
 11
933.295441
 21
144.0
 31
0.0
  0
LINE
  5
D9
100
AcDbEntity
  8
枠_
  6
CONTINUOUS
 62
     3
100
AcDbLine
 10
933.295441
 20
144.0
 30
0.0
 11
876.847687
 21
144.0
 31
0.0
  0
LINE
  5
DA
100
AcDbEntity
  8
枠_
  6
CONTINUOUS
 62
     3
100
AcDbLine
 10
880.879517
 20
188.351959
 30
0.0
 11
880.879517
 21
178.272003
 31
0.0
  0
LINE
  5
DB
100
AcDbEntity
  8
枠_
  6
CONTINUOUS
 62
     3
100
AcDbLine
 10
880.879517
 20
188.351959
 30
0.0
 11
929.263611
 21
188.351959
 31
0.0
  0
LINE
  5
DC
100
AcDbEntity
  8
枠_
  6
CONTINUOUS
 62
     3
100
AcDbLine
 10
929.263611
 20
188.351959
 30
0.0
 11
929.263611
 21
178.272003
 31
0.0
  0
LINE
  5
DD
100
AcDbEntity
  8
枠_
  6
CONTINUOUS
 62
     3
100
AcDbLine
 10
929.263611
 20
178.272003
 30
0.0
 11
880.879517
 21
178.272003
 31
0.0
  0
LINE
  5
DE
100
AcDbEntity
  8
枠_
  6
CONTINUOUS
 62
     3
100
AcDbLine
 10
940.352173
 20
188.351959
 30
0.0
 11
940.352173
 21
178.272003
 31
0.0
  0
LINE
  5
DF
100
AcDbEntity
  8
枠_
  6
CONTINUOUS
 62
     3
100
AcDbLine
 10
940.352173
 20
188.351959
 30
0.0
 11
992.768097
 21
188.351959
 31
0.0
  0
LINE
  5
E0
100
AcDbEntity
  8
枠_
  6
CONTINUOUS
 62
     3
100
AcDbLine
 10
992.768097
 20
188.351959
 30
0.0
 11
977.050934
 21
166.718964
 31
0.0
  0
LINE
  5
E1
100
AcDbEntity
  8
枠_
  6
CONTINUOUS
 62
     3
100
AcDbLine
 10
977.050934
 20
166.718964
 30
0.0
 11
996.799927
 21
144.0
 31
0.0
  0
LINE
  5
E2
100
AcDbEntity
  8
枠_
  6
CONTINUOUS
 62
     3
100
AcDbLine
 10
996.799927
 20
144.0
 30
0.0
 11
982.108154
 21
144.0
 31
0.0
  0
LINE
  5
E3
100
AcDbEntity
  8
枠_
  6
CONTINUOUS
 62
     3
100
AcDbLine
 10
982.108154
 20
144.0
 30
0.0
 11
970.361328
 21
157.512726
 31
0.0
  0
LINE
  5
E4
100
AcDbEntity
  8
枠_
  6
CONTINUOUS
 62
     3
100
AcDbLine
 10
970.361328
 20
157.512726
 30
0.0
 11
965.978851
 21
151.479248
 31
0.0
  0
ARC
  5
E5
100
AcDbEntity
  8
枠_
  6
CONTINUOUS
 62
     3
100
AcDbCircle
 10
951.299286
 20
162.144073
 30
0.0
 40
18.143997
100
AcDbArc
 50
270.000031
 51
324.00116
  0
LINE
  5
E6
100
AcDbEntity
  8
枠_
  6
CONTINUOUS
 62
     3
100
AcDbLine
 10
951.299286
 20
144.0
 30
0.0
 11
936.320343
 21
144.0
 31
0.0
  0
LINE
  5
E7
100
AcDbEntity
  8
枠_
  6
CONTINUOUS
 62
     3
100
AcDbLine
 10
936.320343
 20
144.0
 30
0.0
 11
936.320343
 21
154.079956
 31
0.0
  0
LINE
  5
E8
100
AcDbEntity
  8
枠_
  6
CONTINUOUS
 62
     3
100
AcDbLine
 10
936.320343
 20
154.079956
 30
0.0
 11
949.0271
 21
154.079956
 31
0.0
  0
ARC
  5
E9
100
AcDbEntity
  8
枠_
  6
CONTINUOUS
 62
     3
100
AcDbCircle
 10
949.0271
 20
164.159912
 30
0.0
 40
10.079994
100
AcDbArc
 50
270.000031
 51
323.996597
  0
LINE
  5
EA
100
AcDbEntity
  8
枠_
  6
CONTINUOUS
 62
     3
100
AcDbLine
 10
957.180939
 20
158.235077
 30
0.0
 11
971.739502
 21
178.272003
 31
0.0
  0
LINE
  5
EB
100
AcDbEntity
  8
枠_
  6
CONTINUOUS
 62
     3
100
AcDbLine
 10
971.739502
 20
178.272003
 30
0.0
 11
940.352173
 21
178.272003
 31
0.0
  0
LINE
  5
EC
100
AcDbEntity
  8
枠_
  6
CONTINUOUS
 62
     3
100
AcDbLine
 10
1008.895569
 20
188.351959
 30
0.0
 11
1008.895569
 21
181.29599
 31
0.0
  0
LINE
  5
ED
100
AcDbEntity
  8
枠_
  6
CONTINUOUS
 62
     3
100
AcDbLine
 10
1008.895569
 20
188.351959
 30
0.0
 11
1061.31134
 21
188.351959
 31
0.0
  0
LINE
  5
EE
100
AcDbEntity
  8
枠_
  6
CONTINUOUS
 62
     3
100
AcDbLine
 10
1061.31134
 20
188.351959
 30
0.0
 11
1061.31134
 21
181.29599
 31
0.0
  0
LINE
  5
EF
100
AcDbEntity
  8
枠_
  6
CONTINUOUS
 62
     3
100
AcDbLine
 10
1061.31134
 20
181.29599
 30
0.0
 11
1040.647736
 21
181.29599
 31
0.0
  0
LINE
  5
F0
100
AcDbEntity
  8
枠_
  6
CONTINUOUS
 62
     3
100
AcDbLine
 10
1040.647736
 20
181.29599
 30
0.0
 11
1040.647736
 21
152.064117
 31
0.0
  0
LINE
  5
F1
100
AcDbEntity
  8
枠_
  6
CONTINUOUS
 62
     3
100
AcDbLine
 10
1040.647736
 20
152.064117
 30
0.0
 11
1063.327332
 21
152.064117
 31
0.0
  0
LINE
  5
F2
100
AcDbEntity
  8
枠_
  6
CONTINUOUS
 62
     3
100
AcDbLine
 10
1063.327332
 20
152.064117
 30
0.0
 11
1063.327332
 21
144.0
 31
0.0
  0
LINE
  5
F3
100
AcDbEntity
  8
枠_
  6
CONTINUOUS
 62
     3
100
AcDbLine
 10
1063.327332
 20
144.0
 30
0.0
 11
1006.879578
 21
144.0
 31
0.0
  0
LINE
  5
F4
100
AcDbEntity
  8
枠_
  6
CONTINUOUS
 62
     3
100
AcDbLine
 10
1006.879578
 20
144.0
 30
0.0
 11
1006.879578
 21
152.064117
 31
0.0
  0
LINE
  5
F5
100
AcDbEntity
  8
枠_
  6
CONTINUOUS
 62
     3
100
AcDbLine
 10
1006.879578
 20
152.064117
 30
0.0
 11
1029.559174
 21
152.064117
 31
0.0
  0
LINE
  5
F6
100
AcDbEntity
  8
枠_
  6
CONTINUOUS
 62
     3
100
AcDbLine
 10
1029.559174
 20
152.064117
 30
0.0
 11
1029.559174
 21
181.29599
 31
0.0
  0
LINE
  5
F7
100
AcDbEntity
  8
枠_
  6
CONTINUOUS
 62
     3
100
AcDbLine
 10
1029.559174
 20
181.29599
 30
0.0
 11
1008.895569
 21
181.29599
 31
0.0
  0
LINE
  5
F8
100
AcDbEntity
  8
枠_
  6
CONTINUOUS
 62
     3
100
AcDbLine
 10
1064.336243
 20
182.303986
 30
0.0
 11
1064.336243
 21
177.667145
 31
0.0
  0
LINE
  5
F9
100
AcDbEntity
  8
枠_
  6
CONTINUOUS
 62
     3
100
AcDbLine
 10
1064.336243
 20
182.303986
 30
0.0
 11
1073.093109
 21
182.303986
 31
0.0
  0
LINE
  5
FA
100
AcDbEntity
  8
枠_
  6
CONTINUOUS
 62
     3
100
AcDbLine
 10
1073.093109
 20
182.303986
 30
0.0
 11
1068.368225
 21
188.351959
 31
0.0
  0
LINE
  5
FB
100
AcDbEntity
  8
枠_
  6
CONTINUOUS
 62
     3
100
AcDbLine
 10
1068.368225
 20
188.351959
 30
0.0
 11
1077.32193
 21
188.351959
 31
0.0
  0
LINE
  5
FC
100
AcDbEntity
  8
枠_
  6
CONTINUOUS
 62
     3
100
AcDbLine
 10
1077.32193
 20
188.351959
 30
0.0
 11
1082.046814
 21
182.303986
 31
0.0
  0
LINE
  5
FD
100
AcDbEntity
  8
枠_
  6
CONTINUOUS
 62
     3
100
AcDbLine
 10
1082.046814
 20
182.303986
 30
0.0
 11
1083.993073
 21
182.303986
 31
0.0
  0
LINE
  5
FE
100
AcDbEntity
  8
枠_
  6
CONTINUOUS
 62
     3
100
AcDbLine
 10
1083.993073
 20
182.303986
 30
0.0
 11
1083.993073
 21
188.351959
 31
0.0
  0
LINE
  5
FF
100
AcDbEntity
  8
枠_
  6
CONTINUOUS
 62
     3
100
AcDbLine
 10
1083.993073
 20
188.351959
 30
0.0
 11
1091.047669
 21
188.351959
 31
0.0
  0
LINE
  5
100
100
AcDbEntity
  8
枠_
  6
CONTINUOUS
 62
     3
100
AcDbLine
 10
1091.047669
 20
188.351959
 30
0.0
 11
1091.047669
 21
182.303986
 31
0.0
  0
LINE
  5
101
100
AcDbEntity
  8
枠_
  6
CONTINUOUS
 62
     3
100
AcDbLine
 10
1091.047669
 20
182.303986
 30
0.0
 11
1094.072571
 21
182.303986
 31
0.0
  0
LINE
  5
102
100
AcDbEntity
  8
枠_
  6
CONTINUOUS
 62
     3
100
AcDbLine
 10
1094.072571
 20
182.303986
 30
0.0
 11
1094.072571
 21
188.351959
 31
0.0
  0
LINE
  5
103
100
AcDbEntity
  8
枠_
  6
CONTINUOUS
 62
     3
100
AcDbLine
 10
1094.072571
 20
188.351959
 30
0.0
 11
1101.127319
 21
188.351959
 31
0.0
  0
LINE
  5
104
100
AcDbEntity
  8
枠_
  6
CONTINUOUS
 62
     3
100
AcDbLine
 10
1101.127319
 20
188.351959
 30
0.0
 11
1101.127319
 21
182.303986
 31
0.0
  0
LINE
  5
105
100
AcDbEntity
  8
枠_
  6
CONTINUOUS
 62
     3
100
AcDbLine
 10
1101.127319
 20
182.303986
 30
0.0
 11
1103.073578
 21
182.303986
 31
0.0
  0
LINE
  5
106
100
AcDbEntity
  8
枠_
  6
CONTINUOUS
 62
     3
100
AcDbLine
 10
1103.073578
 20
182.303986
 30
0.0
 11
1107.798462
 21
188.351959
 31
0.0
  0
LINE
  5
107
100
AcDbEntity
  8
枠_
  6
CONTINUOUS
 62
     3
100
AcDbLine
 10
1107.798462
 20
188.351959
 30
0.0
 11
1116.752167
 21
188.351959
 31
0.0
  0
LINE
  5
108
100
AcDbEntity
  8
枠_
  6
CONTINUOUS
 62
     3
100
AcDbLine
 10
1116.752167
 20
188.351959
 30
0.0
 11
1112.027283
 21
182.303986
 31
0.0
  0
LINE
  5
109
100
AcDbEntity
  8
枠_
  6
CONTINUOUS
 62
     3
100
AcDbLine
 10
1112.027283
 20
182.303986
 30
0.0
 11
1120.783997
 21
182.303986
 31
0.0
  0
LINE
  5
10A
100
AcDbEntity
  8
枠_
  6
CONTINUOUS
 62
     3
100
AcDbLine
 10
1120.783997
 20
182.303986
 30
0.0
 11
1120.783997
 21
177.667145
 31
0.0
  0
LINE
  5
10B
100
AcDbEntity
  8
枠_
  6
CONTINUOUS
 62
     3
100
AcDbLine
 10
1120.783997
 20
177.667145
 30
0.0
 11
1110.16098
 21
177.667145
 31
0.0
  0
LINE
  5
10C
100
AcDbEntity
  8
枠_
  6
CONTINUOUS
 62
     3
100
AcDbLine
 10
1110.16098
 20
177.667145
 30
0.0
 11
1108.327637
 21
172.627319
 31
0.0
  0
LINE
  5
10D
100
AcDbEntity
  8
枠_
  6
CONTINUOUS
 62
     3
100
AcDbLine
 10
1108.327637
 20
172.627319
 30
0.0
 11
1120.783997
 21
172.627319
 31
0.0
  0
LINE
  5
10E
100
AcDbEntity
  8
枠_
  6
CONTINUOUS
 62
     3
100
AcDbLine
 10
1120.783997
 20
172.627319
 30
0.0
 11
1120.783997
 21
167.990478
 31
0.0
  0
LINE
  5
10F
100
AcDbEntity
  8
枠_
  6
CONTINUOUS
 62
     3
100
AcDbLine
 10
1120.783997
 20
167.990478
 30
0.0
 11
1097.599945
 21
167.990478
 31
0.0
  0
LINE
  5
110
100
AcDbEntity
  8
枠_
  6
CONTINUOUS
 62
     3
100
AcDbLine
 10
1097.599945
 20
167.990478
 30
0.0
 11
1097.599945
 21
165.672058
 31
0.0
  0
LINE
  5
111
100
AcDbEntity
  8
枠_
  6
CONTINUOUS
 62
     3
100
AcDbLine
 10
1097.599945
 20
165.672058
 30
0.0
 11
1120.783997
 21
165.672058
 31
0.0
  0
LINE
  5
112
100
AcDbEntity
  8
枠_
  6
CONTINUOUS
 62
     3
100
AcDbLine
 10
1120.783997
 20
165.672058
 30
0.0
 11
1120.783997
 21
161.035217
 31
0.0
  0
LINE
  5
113
100
AcDbEntity
  8
枠_
  6
CONTINUOUS
 62
     3
100
AcDbLine
 10
1120.783997
 20
161.035217
 30
0.0
 11
1097.599945
 21
161.035217
 31
0.0
  0
LINE
  5
114
100
AcDbEntity
  8
枠_
  6
CONTINUOUS
 62
     3
100
AcDbLine
 10
1097.599945
 20
161.035217
 30
0.0
 11
1097.599945
 21
158.716797
 31
0.0
  0
LINE
  5
115
100
AcDbEntity
  8
枠_
  6
CONTINUOUS
 62
     3
100
AcDbLine
 10
1097.599945
 20
158.716797
 30
0.0
 11
1120.783997
 21
158.716797
 31
0.0
  0
LINE
  5
116
100
AcDbEntity
  8
枠_
  6
CONTINUOUS
 62
     3
100
AcDbLine
 10
1120.783997
 20
158.716797
 30
0.0
 11
1120.783997
 21
154.079956
 31
0.0
  0
LINE
  5
117
100
AcDbEntity
  8
枠_
  6
CONTINUOUS
 62
     3
100
AcDbLine
 10
1120.783997
 20
154.079956
 30
0.0
 11
1109.627838
 21
154.079956
 31
0.0
  0
LINE
  5
118
100
AcDbEntity
  8
枠_
  6
CONTINUOUS
 62
     3
100
AcDbLine
 10
1109.627838
 20
154.079956
 30
0.0
 11
1120.783997
 21
144.0
 31
0.0
  0
LINE
  5
119
100
AcDbEntity
  8
枠_
  6
CONTINUOUS
 62
     3
100
AcDbLine
 10
1120.783997
 20
144.0
 30
0.0
 11
1108.756256
 21
144.0
 31
0.0
  0
LINE
  5
11A
100
AcDbEntity
  8
枠_
  6
CONTINUOUS
 62
     3
100
AcDbLine
 10
1108.756256
 20
144.0
 30
0.0
 11
1097.599945
 21
154.079956
 31
0.0
  0
LINE
  5
11B
100
AcDbEntity
  8
枠_
  6
CONTINUOUS
 62
     3
100
AcDbLine
 10
1097.599945
 20
154.079956
 30
0.0
 11
1097.599945
 21
144.0
 31
0.0
  0
LINE
  5
11C
100
AcDbEntity
  8
枠_
  6
CONTINUOUS
 62
     3
100
AcDbLine
 10
1097.599945
 20
144.0
 30
0.0
 11
1087.520447
 21
144.0
 31
0.0
  0
LINE
  5
11D
100
AcDbEntity
  8
枠_
  6
CONTINUOUS
 62
     3
100
AcDbLine
 10
1087.520447
 20
144.0
 30
0.0
 11
1087.520447
 21
154.079956
 31
0.0
  0
LINE
  5
11E
100
AcDbEntity
  8
枠_
  6
CONTINUOUS
 62
     3
100
AcDbLine
 10
1087.520447
 20
154.079956
 30
0.0
 11
1076.364136
 21
144.0
 31
0.0
  0
LINE
  5
11F
100
AcDbEntity
  8
枠_
  6
CONTINUOUS
 62
     3
100
AcDbLine
 10
1076.364136
 20
144.0
 30
0.0
 11
1064.336243
 21
144.0
 31
0.0
  0
LINE
  5
120
100
AcDbEntity
  8
枠_
  6
CONTINUOUS
 62
     3
100
AcDbLine
 10
1064.336243
 20
144.0
 30
0.0
 11
1075.492554
 21
154.079956
 31
0.0
  0
LINE
  5
121
100
AcDbEntity
  8
枠_
  6
CONTINUOUS
 62
     3
100
AcDbLine
 10
1075.492554
 20
154.079956
 30
0.0
 11
1064.336243
 21
154.079956
 31
0.0
  0
LINE
  5
122
100
AcDbEntity
  8
枠_
  6
CONTINUOUS
 62
     3
100
AcDbLine
 10
1064.336243
 20
154.079956
 30
0.0
 11
1064.336243
 21
158.716797
 31
0.0
  0
LINE
  5
123
100
AcDbEntity
  8
枠_
  6
CONTINUOUS
 62
     3
100
AcDbLine
 10
1064.336243
 20
158.716797
 30
0.0
 11
1087.520447
 21
158.716797
 31
0.0
  0
LINE
  5
124
100
AcDbEntity
  8
枠_
  6
CONTINUOUS
 62
     3
100
AcDbLine
 10
1087.520447
 20
158.716797
 30
0.0
 11
1087.520447
 21
161.035217
 31
0.0
  0
LINE
  5
125
100
AcDbEntity
  8
枠_
  6
CONTINUOUS
 62
     3
100
AcDbLine
 10
1087.520447
 20
161.035217
 30
0.0
 11
1064.336243
 21
161.035217
 31
0.0
  0
LINE
  5
126
100
AcDbEntity
  8
枠_
  6
CONTINUOUS
 62
     3
100
AcDbLine
 10
1064.336243
 20
161.035217
 30
0.0
 11
1064.336243
 21
165.672058
 31
0.0
  0
LINE
  5
127
100
AcDbEntity
  8
枠_
  6
CONTINUOUS
 62
     3
100
AcDbLine
 10
1064.336243
 20
165.672058
 30
0.0
 11
1087.520447
 21
165.672058
 31
0.0
  0
LINE
  5
128
100
AcDbEntity
  8
枠_
  6
CONTINUOUS
 62
     3
100
AcDbLine
 10
1087.520447
 20
165.672058
 30
0.0
 11
1087.520447
 21
167.990478
 31
0.0
  0
LINE
  5
129
100
AcDbEntity
  8
枠_
  6
CONTINUOUS
 62
     3
100
AcDbLine
 10
1087.520447
 20
167.990478
 30
0.0
 11
1064.336243
 21
167.990478
 31
0.0
  0
LINE
  5
12A
100
AcDbEntity
  8
枠_
  6
CONTINUOUS
 62
     3
100
AcDbLine
 10
1064.336243
 20
167.990478
 30
0.0
 11
1064.336243
 21
172.627319
 31
0.0
  0
LINE
  5
12B
100
AcDbEntity
  8
枠_
  6
CONTINUOUS
 62
     3
100
AcDbLine
 10
1064.336243
 20
172.627319
 30
0.0
 11
1076.792755
 21
172.627319
 31
0.0
  0
LINE
  5
12C
100
AcDbEntity
  8
枠_
  6
CONTINUOUS
 62
     3
100
AcDbLine
 10
1076.792755
 20
172.627319
 30
0.0
 11
1074.959412
 21
177.667145
 31
0.0
  0
LINE
  5
12D
100
AcDbEntity
  8
枠_
  6
CONTINUOUS
 62
     3
100
AcDbLine
 10
1074.959412
 20
177.667145
 30
0.0
 11
1064.336243
 21
177.667145
 31
0.0
  0
LINE
  5
12E
100
AcDbEntity
  8
枠_
  6
CONTINUOUS
 62
     3
100
AcDbLine
 10
1085.684967
 20
177.667145
 30
0.0
 11
1099.435425
 21
177.667145
 31
0.0
  0
LINE
  5
12F
100
AcDbEntity
  8
枠_
  6
CONTINUOUS
 62
     3
100
AcDbLine
 10
1099.435425
 20
177.667145
 30
0.0
 11
1097.599945
 21
172.627319
 31
0.0
  0
LINE
  5
130
100
AcDbEntity
  8
枠_
  6
CONTINUOUS
 62
     3
100
AcDbLine
 10
1097.599945
 20
172.627319
 30
0.0
 11
1087.520447
 21
172.627319
 31
0.0
  0
LINE
  5
131
100
AcDbEntity
  8
枠_
  6
CONTINUOUS
 62
     3
100
AcDbLine
 10
1087.520447
 20
172.627319
 30
0.0
 11
1085.684967
 21
177.667145
 31
0.0
  0
LINE
  5
132
100
AcDbEntity
  8
枠_
  6
CONTINUOUS
 62
     3
100
AcDbLine
 10
1148.256378
 20
188.351959
 30
0.0
 11
1144.989472
 21
175.248016
 31
0.0
  0
LINE
  5
133
100
AcDbEntity
  8
枠_
  6
CONTINUOUS
 62
     3
100
AcDbLine
 10
1148.256378
 20
188.351959
 30
0.0
 11
1156.568146
 21
188.351959
 31
0.0
  0
LINE
  5
134
100
AcDbEntity
  8
枠_
  6
CONTINUOUS
 62
     3
100
AcDbLine
 10
1156.568146
 20
188.351959
 30
0.0
 11
1155.310974
 21
183.311981
 31
0.0
  0
LINE
  5
135
100
AcDbEntity
  8
枠_
  6
CONTINUOUS
 62
     3
100
AcDbLine
 10
1155.310974
 20
183.311981
 30
0.0
 11
1158.584137
 21
183.311981
 31
0.0
  0
LINE
  5
136
100
AcDbEntity
  8
枠_
  6
CONTINUOUS
 62
     3
100
AcDbLine
 10
1158.584137
 20
183.311981
 30
0.0
 11
1158.584137
 21
188.351959
 31
0.0
  0
LINE
  5
137
100
AcDbEntity
  8
枠_
  6
CONTINUOUS
 62
     3
100
AcDbLine
 10
1158.584137
 20
188.351959
 30
0.0
 11
1167.656708
 21
188.351959
 31
0.0
  0
LINE
  5
138
100
AcDbEntity
  8
枠_
  6
CONTINUOUS
 62
     3
100
AcDbLine
 10
1167.656708
 20
188.351959
 30
0.0
 11
1167.656708
 21
183.311981
 31
0.0
  0
LINE
  5
139
100
AcDbEntity
  8
枠_
  6
CONTINUOUS
 62
     3
100
AcDbLine
 10
1167.656708
 20
183.311981
 30
0.0
 11
1179.247742
 21
183.311981
 31
0.0
  0
LINE
  5
13A
100
AcDbEntity
  8
枠_
  6
CONTINUOUS
 62
     3
100
AcDbLine
 10
1179.247742
 20
183.311981
 30
0.0
 11
1179.247742
 21
178.272003
 31
0.0
  0
LINE
  5
13B
100
AcDbEntity
  8
枠_
  6
CONTINUOUS
 62
     3
100
AcDbLine
 10
1167.656708
 20
178.272003
 30
0.0
 11
1179.247742
 21
178.272003
 31
0.0
  0
LINE
  5
13C
100
AcDbEntity
  8
枠_
  6
CONTINUOUS
 62
     3
100
AcDbLine
 10
1167.656708
 20
178.272003
 30
0.0
 11
1167.656708
 21
173.232025
 31
0.0
  0
LINE
  5
13D
100
AcDbEntity
  8
枠_
  6
CONTINUOUS
 62
     3
100
AcDbLine
 10
1167.656708
 20
173.232025
 30
0.0
 11
1180.256653
 21
173.232025
 31
0.0
  0
LINE
  5
13E
100
AcDbEntity
  8
枠_
  6
CONTINUOUS
 62
     3
100
AcDbLine
 10
1180.256653
 20
173.232025
 30
0.0
 11
1180.256653
 21
168.192047
 31
0.0
  0
LINE
  5
13F
100
AcDbEntity
  8
枠_
  6
CONTINUOUS
 62
     3
100
AcDbLine
 10
1180.256653
 20
168.192047
 30
0.0
 11
1175.851593
 21
168.192047
 31
0.0
  0
LINE
  5
140
100
AcDbEntity
  8
枠_
  6
CONTINUOUS
 62
     3
100
AcDbLine
 10
1175.851593
 20
168.192047
 30
0.0
 11
1180.256653
 21
144.0
 31
0.0
  0
LINE
  5
141
100
AcDbEntity
  8
枠_
  6
CONTINUOUS
 62
     3
100
AcDbLine
 10
1180.256653
 20
144.0
 30
0.0
 11
1172.059784
 21
144.0
 31
0.0
  0
LINE
  5
142
100
AcDbEntity
  8
枠_
  6
CONTINUOUS
 62
     3
100
AcDbLine
 10
1172.059784
 20
144.0
 30
0.0
 11
1167.656708
 21
168.191742
 31
0.0
  0
LINE
  5
143
100
AcDbEntity
  8
枠_
  6
CONTINUOUS
 62
     3
100
AcDbLine
 10
1167.656708
 20
168.191742
 30
0.0
 11
1167.656708
 21
144.0
 31
0.0
  0
LINE
  5
144
100
AcDbEntity
  8
枠_
  6
CONTINUOUS
 62
     3
100
AcDbLine
 10
1167.656708
 20
144.0
 30
0.0
 11
1158.584137
 21
144.0
 31
0.0
  0
LINE
  5
145
100
AcDbEntity
  8
枠_
  6
CONTINUOUS
 62
     3
100
AcDbLine
 10
1158.584137
 20
144.0
 30
0.0
 11
1158.584137
 21
168.192047
 31
0.0
  0
LINE
  5
146
100
AcDbEntity
  8
枠_
  6
CONTINUOUS
 62
     3
100
AcDbLine
 10
1158.584137
 20
168.192047
 30
0.0
 11
1154.181061
 21
144.0
 31
0.0
  0
LINE
  5
147
100
AcDbEntity
  8
枠_
  6
CONTINUOUS
 62
     3
100
AcDbLine
 10
1154.181061
 20
144.0
 30
0.0
 11
1145.984039
 21
144.0
 31
0.0
  0
LINE
  5
148
100
AcDbEntity
  8
枠_
  6
CONTINUOUS
 62
     3
100
AcDbLine
 10
1145.984039
 20
144.0
 30
0.0
 11
1150.387115
 21
168.192047
 31
0.0
  0
LINE
  5
149
100
AcDbEntity
  8
枠_
  6
CONTINUOUS
 62
     3
100
AcDbLine
 10
1150.387115
 20
168.192047
 30
0.0
 11
1145.984039
 21
168.192047
 31
0.0
  0
LINE
  5
14A
100
AcDbEntity
  8
枠_
  6
CONTINUOUS
 62
     3
100
AcDbLine
 10
1145.984039
 20
168.192047
 30
0.0
 11
1145.984039
 21
173.232025
 31
0.0
  0
LINE
  5
14B
100
AcDbEntity
  8
枠_
  6
CONTINUOUS
 62
     3
100
AcDbLine
 10
1145.984039
 20
173.232025
 30
0.0
 11
1158.584137
 21
173.232025
 31
0.0
  0
LINE
  5
14C
100
AcDbEntity
  8
枠_
  6
CONTINUOUS
 62
     3
100
AcDbLine
 10
1158.584137
 20
173.232025
 30
0.0
 11
1158.584137
 21
178.272003
 31
0.0
  0
LINE
  5
14D
100
AcDbEntity
  8
枠_
  6
CONTINUOUS
 62
     3
100
AcDbLine
 10
1158.584137
 20
178.272003
 30
0.0
 11
1154.053955
 21
178.272003
 31
0.0
  0
LINE
  5
14E
100
AcDbEntity
  8
枠_
  6
CONTINUOUS
 62
     3
100
AcDbLine
 10
1154.053955
 20
178.272003
 30
0.0
 11
1153.301239
 21
175.248016
 31
0.0
  0
LINE
  5
14F
100
AcDbEntity
  8
枠_
  6
CONTINUOUS
 62
     3
100
AcDbLine
 10
1153.301239
 20
175.248016
 30
0.0
 11
1144.989472
 21
175.248016
 31
0.0
  0
LINE
  5
150
100
AcDbEntity
  8
枠_
  6
CONTINUOUS
 62
     3
100
AcDbLine
 10
1122.799988
 20
183.311981
 30
0.0
 11
1122.799988
 21
178.272003
 31
0.0
  0
LINE
  5
151
100
AcDbEntity
  8
枠_
  6
CONTINUOUS
 62
     3
100
AcDbLine
 10
1122.799988
 20
183.311981
 30
0.0
 11
1132.879639
 21
183.311981
 31
0.0
  0
LINE
  5
152
100
AcDbEntity
  8
枠_
  6
CONTINUOUS
 62
     3
100
AcDbLine
 10
1132.879639
 20
183.311981
 30
0.0
 11
1132.879639
 21
188.351959
 31
0.0
  0
LINE
  5
153
100
AcDbEntity
  8
枠_
  6
CONTINUOUS
 62
     3
100
AcDbLine
 10
1132.879639
 20
188.351959
 30
0.0
 11
1141.95221
 21
188.351959
 31
0.0
  0
LINE
  5
154
100
AcDbEntity
  8
枠_
  6
CONTINUOUS
 62
     3
100
AcDbLine
 10
1141.95221
 20
188.351959
 30
0.0
 11
1141.95221
 21
183.311981
 31
0.0
  0
LINE
  5
155
100
AcDbEntity
  8
枠_
  6
CONTINUOUS
 62
     3
100
AcDbLine
 10
1141.95221
 20
183.311981
 30
0.0
 11
1144.975128
 21
183.311981
 31
0.0
  0
LINE
  5
156
100
AcDbEntity
  8
枠_
  6
CONTINUOUS
 62
     3
100
AcDbLine
 10
1144.975128
 20
183.311981
 30
0.0
 11
1144.975128
 21
178.272003
 31
0.0
  0
LINE
  5
157
100
AcDbEntity
  8
枠_
  6
CONTINUOUS
 62
     3
100
AcDbLine
 10
1144.975128
 20
178.272003
 30
0.0
 11
1141.95221
 21
178.272003
 31
0.0
  0
LINE
  5
158
100
AcDbEntity
  8
枠_
  6
CONTINUOUS
 62
     3
100
AcDbLine
 10
1141.95221
 20
178.272003
 30
0.0
 11
1144.975128
 21
174.110016
 31
0.0
  0
LINE
  5
159
100
AcDbEntity
  8
枠_
  6
CONTINUOUS
 62
     3
100
AcDbLine
 10
1144.975128
 20
174.110016
 30
0.0
 11
1144.975128
 21
163.820709
 31
0.0
  0
LINE
  5
15A
100
AcDbEntity
  8
枠_
  6
CONTINUOUS
 62
     3
100
AcDbLine
 10
1144.975128
 20
163.820709
 30
0.0
 11
1141.95221
 21
167.982849
 31
0.0
  0
LINE
  5
15B
100
AcDbEntity
  8
枠_
  6
CONTINUOUS
 62
     3
100
AcDbLine
 10
1141.95221
 20
167.982849
 30
0.0
 11
1141.95221
 21
144.0
 31
0.0
  0
LINE
  5
15C
100
AcDbEntity
  8
枠_
  6
CONTINUOUS
 62
     3
100
AcDbLine
 10
1141.95221
 20
144.0
 30
0.0
 11
1132.879639
 21
144.0
 31
0.0
  0
LINE
  5
15D
100
AcDbEntity
  8
枠_
  6
CONTINUOUS
 62
     3
100
AcDbLine
 10
1132.879639
 20
144.0
 30
0.0
 11
1132.879639
 21
178.272003
 31
0.0
  0
LINE
  5
15E
100
AcDbEntity
  8
枠_
  6
CONTINUOUS
 62
     3
100
AcDbLine
 10
1132.483826
 20
178.272003
 30
0.0
 11
1128.880615
 21
144.0
 31
0.0
  0
LINE
  5
15F
100
AcDbEntity
  8
枠_
  6
CONTINUOUS
 62
     3
100
AcDbLine
 10
1128.880615
 20
144.0
 30
0.0
 11
1122.799988
 21
144.0
 31
0.0
  0
LINE
  5
160
100
AcDbEntity
  8
枠_
  6
CONTINUOUS
 62
     3
100
AcDbLine
 10
1122.799988
 20
144.0
 30
0.0
 11
1126.403198
 21
178.272003
 31
0.0
  0
LINE
  5
161
100
AcDbEntity
  8
枠_
  6
CONTINUOUS
 62
     3
100
AcDbLine
 10
1126.403198
 20
178.272003
 30
0.0
 11
1122.799988
 21
178.272003
 31
0.0
  0
LINE
  5
162
100
AcDbEntity
  8
枠_
  6
CONTINUOUS
 62
     3
100
AcDbLine
 10
1185.295563
 20
172.22403
 30
0.0
 11
1185.295563
 21
166.176056
 31
0.0
  0
LINE
  5
163
100
AcDbEntity
  8
枠_
  6
CONTINUOUS
 62
     3
100
AcDbLine
 10
1185.295563
 20
172.22403
 30
0.0
 11
1215.536347
 21
172.22403
 31
0.0
  0
LINE
  5
164
100
AcDbEntity
  8
枠_
  6
CONTINUOUS
 62
     3
100
AcDbLine
 10
1215.536347
 20
172.22403
 30
0.0
 11
1215.536347
 21
166.176056
 31
0.0
  0
LINE
  5
165
100
AcDbEntity
  8
枠_
  6
CONTINUOUS
 62
     3
100
AcDbLine
 10
1215.536347
 20
166.176056
 30
0.0
 11
1205.959167
 21
166.176056
 31
0.0
  0
LINE
  5
166
100
AcDbEntity
  8
枠_
  6
CONTINUOUS
 62
     3
100
AcDbLine
 10
1205.959167
 20
166.176056
 30
0.0
 11
1205.959167
 21
157.774109
 31
0.0
  0
LINE
  5
167
100
AcDbEntity
  8
枠_
  6
CONTINUOUS
 62
     3
100
AcDbLine
 10
1205.959167
 20
157.774109
 30
0.0
 11
1216.040802
 21
159.916596
 31
0.0
  0
LINE
  5
168
100
AcDbEntity
  8
枠_
  6
CONTINUOUS
 62
     3
100
AcDbLine
 10
1216.040802
 20
159.916596
 30
0.0
 11
1216.040802
 21
150.641998
 31
0.0
  0
LINE
  5
169
100
AcDbEntity
  8
枠_
  6
CONTINUOUS
 62
     3
100
AcDbLine
 10
1216.040802
 20
150.641998
 30
0.0
 11
1184.790955
 21
144.0
 31
0.0
  0
LINE
  5
16A
100
AcDbEntity
  8
枠_
  6
CONTINUOUS
 62
     3
100
AcDbLine
 10
1184.790955
 20
144.0
 30
0.0
 11
1184.790955
 21
153.274597
 31
0.0
  0
LINE
  5
16B
100
AcDbEntity
  8
枠_
  6
CONTINUOUS
 62
     3
100
AcDbLine
 10
1184.790955
 20
153.274597
 30
0.0
 11
1194.872589
 21
155.417236
 31
0.0
  0
LINE
  5
16C
100
AcDbEntity
  8
枠_
  6
CONTINUOUS
 62
     3
100
AcDbLine
 10
1194.872589
 20
155.417236
 30
0.0
 11
1194.872589
 21
166.176056
 31
0.0
  0
LINE
  5
16D
100
AcDbEntity
  8
枠_
  6
CONTINUOUS
 62
     3
100
AcDbLine
 10
1194.872589
 20
166.176056
 30
0.0
 11
1185.295563
 21
166.176056
 31
0.0
  0
LINE
  5
16E
100
AcDbEntity
  8
枠_
  6
CONTINUOUS
 62
     3
100
AcDbLine
 10
1182.272644
 20
184.319977
 30
0.0
 11
1182.272644
 21
178.272003
 31
0.0
  0
LINE
  5
16F
100
AcDbEntity
  8
枠_
  6
CONTINUOUS
 62
     3
100
AcDbLine
 10
1182.272644
 20
184.319977
 30
0.0
 11
1212.244873
 21
184.319977
 31
0.0
  0
LINE
  5
170
100
AcDbEntity
  8
枠_
  6
CONTINUOUS
 62
     3
100
AcDbLine
 10
1212.244873
 20
184.319977
 30
0.0
 11
1210.778504
 21
188.351959
 31
0.0
  0
LINE
  5
171
100
AcDbEntity
  8
枠_
  6
CONTINUOUS
 62
     3
100
AcDbLine
 10
1210.778504
 20
188.351959
 30
0.0
 11
1222.576599
 21
188.351959
 31
0.0
  0
LINE
  5
172
100
AcDbEntity
  8
枠_
  6
CONTINUOUS
 62
     3
100
AcDbLine
 10
1222.576599
 20
188.351959
 30
0.0
 11
1224.044952
 21
184.319977
 31
0.0
  0
LINE
  5
173
100
AcDbEntity
  8
枠_
  6
CONTINUOUS
 62
     3
100
AcDbLine
 10
1224.044952
 20
184.319977
 30
0.0
 11
1226.624908
 21
184.319977
 31
0.0
  0
LINE
  5
174
100
AcDbEntity
  8
枠_
  6
CONTINUOUS
 62
     3
100
AcDbLine
 10
1226.624908
 20
184.319977
 30
0.0
 11
1226.624908
 21
188.351959
 31
0.0
  0
LINE
  5
175
100
AcDbEntity
  8
枠_
  6
CONTINUOUS
 62
     3
100
AcDbLine
 10
1226.624908
 20
188.351959
 30
0.0
 11
1235.695496
 21
188.351959
 31
0.0
  0
LINE
  5
176
100
AcDbEntity
  8
枠_
  6
CONTINUOUS
 62
     3
100
AcDbLine
 10
1235.695496
 20
188.351959
 30
0.0
 11
1235.695496
 21
184.319977
 31
0.0
  0
LINE
  5
177
100
AcDbEntity
  8
枠_
  6
CONTINUOUS
 62
     3
100
AcDbLine
 10
1235.695496
 20
184.319977
 30
0.0
 11
1238.720398
 21
184.319977
 31
0.0
  0
LINE
  5
178
100
AcDbEntity
  8
枠_
  6
CONTINUOUS
 62
     3
100
AcDbLine
 10
1238.720398
 20
184.319977
 30
0.0
 11
1238.720398
 21
178.272003
 31
0.0
  0
LINE
  5
179
100
AcDbEntity
  8
枠_
  6
CONTINUOUS
 62
     3
100
AcDbLine
 10
1238.720398
 20
178.272003
 30
0.0
 11
1226.245422
 21
178.272003
 31
0.0
  0
LINE
  5
17A
100
AcDbEntity
  8
枠_
  6
CONTINUOUS
 62
     3
100
AcDbLine
 10
1226.245422
 20
178.272003
 30
0.0
 11
1238.720398
 21
144.0
 31
0.0
  0
LINE
  5
17B
100
AcDbEntity
  8
枠_
  6
CONTINUOUS
 62
     3
100
AcDbLine
 10
1238.720398
 20
144.0
 30
0.0
 11
1226.920166
 21
144.0
 31
0.0
  0
LINE
  5
17C
100
AcDbEntity
  8
枠_
  6
CONTINUOUS
 62
     3
100
AcDbLine
 10
1226.920166
 20
144.0
 30
0.0
 11
1214.447327
 21
178.272003
 31
0.0
  0
LINE
  5
17D
100
AcDbEntity
  8
枠_
  6
CONTINUOUS
 62
     3
100
AcDbLine
 10
1214.447327
 20
178.272003
 30
0.0
 11
1182.272644
 21
178.272003
 31
0.0
  0
LINE
  5
17E
100
AcDbEntity
  8
枠_
  6
CONTINUOUS
 62
     3
100
AcDbLine
 10
1240.736389
 20
179.747833
 30
0.0
 11
1240.736389
 21
173.369965
 31
0.0
  0
LINE
  5
17F
100
AcDbEntity
  8
枠_
  6
CONTINUOUS
 62
     3
100
AcDbLine
 10
1240.736389
 20
179.747833
 30
0.0
 11
1269.463654
 21
189.359955
 31
0.0
  0
LINE
  5
180
100
AcDbEntity
  8
枠_
  6
CONTINUOUS
 62
     3
100
AcDbLine
 10
1269.463654
 20
189.359955
 30
0.0
 11
1298.191071
 21
179.747528
 31
0.0
  0
LINE
  5
181
100
AcDbEntity
  8
枠_
  6
CONTINUOUS
 62
     3
100
AcDbLine
 10
1298.191071
 20
179.747528
 30
0.0
 11
1298.191071
 21
173.369965
 31
0.0
  0
LINE
  5
182
100
AcDbEntity
  8
枠_
  6
CONTINUOUS
 62
     3
100
AcDbLine
 10
1298.191071
 20
173.369965
 30
0.0
 11
1289.624939
 21
176.236786
 31
0.0
  0
LINE
  5
183
100
AcDbEntity
  8
枠_
  6
CONTINUOUS
 62
     3
100
AcDbLine
 10
1289.624939
 20
176.236786
 30
0.0
 11
1289.624939
 21
171.216034
 31
0.0
  0
LINE
  5
184
100
AcDbEntity
  8
枠_
  6
CONTINUOUS
 62
     3
100
AcDbLine
 10
1289.624939
 20
171.216034
 30
0.0
 11
1249.304504
 21
171.216034
 31
0.0
  0
LINE
  5
185
100
AcDbEntity
  8
枠_
  6
CONTINUOUS
 62
     3
100
AcDbLine
 10
1249.304504
 20
171.216034
 30
0.0
 11
1249.304504
 21
176.236786
 31
0.0
  0
LINE
  5
186
100
AcDbEntity
  8
枠_
  6
CONTINUOUS
 62
     3
100
AcDbLine
 10
1249.304504
 20
176.236786
 30
0.0
 11
1240.736389
 21
173.369965
 31
0.0
  0
LINE
  5
187
100
AcDbEntity
  8
枠_
  6
CONTINUOUS
 62
     3
100
AcDbLine
 10
1252.374573
 20
177.264008
 30
0.0
 11
1269.463654
 21
182.982239
 31
0.0
  0
LINE
  5
188
100
AcDbEntity
  8
枠_
  6
CONTINUOUS
 62
     3
100
AcDbLine
 10
1269.463654
 20
182.982239
 30
0.0
 11
1286.554871
 21
177.264008
 31
0.0
  0
LINE
  5
189
100
AcDbEntity
  8
枠_
  6
CONTINUOUS
 62
     3
100
AcDbLine
 10
1286.554871
 20
177.264008
 30
0.0
 11
1252.374573
 21
177.264008
 31
0.0
  0
LINE
  5
18A
100
AcDbEntity
  8
枠_
  6
CONTINUOUS
 62
     3
100
AcDbLine
 10
1240.736389
 20
167.183899
 30
0.0
 11
1240.736389
 21
161.135925
 31
0.0
  0
LINE
  5
18B
100
AcDbEntity
  8
枠_
  6
CONTINUOUS
 62
     3
100
AcDbLine
 10
1240.736389
 20
167.183899
 30
0.0
 11
1298.191071
 21
167.183899
 31
0.0
  0
LINE
  5
18C
100
AcDbEntity
  8
枠_
  6
CONTINUOUS
 62
     3
100
AcDbLine
 10
1298.191071
 20
167.183899
 30
0.0
 11
1298.191071
 21
161.135925
 31
0.0
  0
LINE
  5
18D
100
AcDbEntity
  8
枠_
  6
CONTINUOUS
 62
     3
100
AcDbLine
 10
1298.191071
 20
161.135925
 30
0.0
 11
1290.201111
 21
161.135925
 31
0.0
  0
LINE
  5
18E
100
AcDbEntity
  8
枠_
  6
CONTINUOUS
 62
     3
100
AcDbLine
 10
1290.201111
 20
161.135925
 30
0.0
 11
1298.191071
 21
144.0
 31
0.0
  0
LINE
  5
18F
100
AcDbEntity
  8
枠_
  6
CONTINUOUS
 62
     3
100
AcDbLine
 10
1298.191071
 20
144.0
 30
0.0
 11
1240.736389
 21
144.0
 31
0.0
  0
LINE
  5
190
100
AcDbEntity
  8
枠_
  6
CONTINUOUS
 62
     3
100
AcDbLine
 10
1240.736389
 20
144.0
 30
0.0
 11
1248.726196
 21
161.135925
 31
0.0
  0
LINE
  5
191
100
AcDbEntity
  8
枠_
  6
CONTINUOUS
 62
     3
100
AcDbLine
 10
1248.726196
 20
161.135925
 30
0.0
 11
1240.736389
 21
161.135925
 31
0.0
  0
LINE
  5
192
100
AcDbEntity
  8
枠_
  6
CONTINUOUS
 62
     3
100
AcDbLine
 10
1259.847565
 20
161.135925
 30
0.0
 11
1279.079743
 21
161.135925
 31
0.0
  0
LINE
  5
193
100
AcDbEntity
  8
枠_
  6
CONTINUOUS
 62
     3
100
AcDbLine
 10
1279.079743
 20
161.135925
 30
0.0
 11
1284.249725
 21
150.047974
 31
0.0
  0
LINE
  5
194
100
AcDbEntity
  8
枠_
  6
CONTINUOUS
 62
     3
100
AcDbLine
 10
1284.249725
 20
150.047974
 30
0.0
 11
1254.677582
 21
150.047974
 31
0.0
  0
LINE
  5
195
100
AcDbEntity
  8
枠_
  6
CONTINUOUS
 62
     3
100
AcDbLine
 10
1259.847565
 20
161.135925
 30
0.0
 11
1254.677582
 21
150.047974
 31
0.0
  0
LINE
  5
196
100
AcDbEntity
  8
枠_
  6
CONTINUOUS
 62
     3
100
AcDbLine
 10
1327.424927
 20
177.264008
 30
0.0
 11
1327.424927
 21
171.216034
 31
0.0
  0
LINE
  5
197
100
AcDbEntity
  8
枠_
  6
CONTINUOUS
 62
     3
100
AcDbLine
 10
1327.424927
 20
177.264008
 30
0.0
 11
1336.495514
 21
177.264008
 31
0.0
  0
LINE
  5
198
100
AcDbEntity
  8
枠_
  6
CONTINUOUS
 62
     3
100
AcDbLine
 10
1336.495514
 20
177.264008
 30
0.0
 11
1336.495514
 21
188.351959
 31
0.0
  0
LINE
  5
199
100
AcDbEntity
  8
枠_
  6
CONTINUOUS
 62
     3
100
AcDbLine
 10
1336.495514
 20
188.351959
 30
0.0
 11
1346.575012
 21
188.351959
 31
0.0
  0
LINE
  5
19A
100
AcDbEntity
  8
枠_
  6
CONTINUOUS
 62
     3
100
AcDbLine
 10
1346.575012
 20
188.351959
 30
0.0
 11
1346.575012
 21
177.264008
 31
0.0
  0
LINE
  5
19B
100
AcDbEntity
  8
枠_
  6
CONTINUOUS
 62
     3
100
AcDbLine
 10
1346.575012
 20
177.264008
 30
0.0
 11
1355.647736
 21
177.264008
 31
0.0
  0
LINE
  5
19C
100
AcDbEntity
  8
枠_
  6
CONTINUOUS
 62
     3
100
AcDbLine
 10
1355.647736
 20
177.264008
 30
0.0
 11
1355.647736
 21
171.216034
 31
0.0
  0
LINE
  5
19D
100
AcDbEntity
  8
枠_
  6
CONTINUOUS
 62
     3
100
AcDbLine
 10
1355.647736
 20
171.216034
 30
0.0
 11
1346.575012
 21
171.216034
 31
0.0
  0
LINE
  5
19E
100
AcDbEntity
  8
枠_
  6
CONTINUOUS
 62
     3
100
AcDbLine
 10
1346.575012
 20
171.216034
 30
0.0
 11
1346.575012
 21
150.047974
 31
0.0
  0
LINE
  5
19F
100
AcDbEntity
  8
枠_
  6
CONTINUOUS
 62
     3
100
AcDbLine
 10
1346.575012
 20
150.047974
 30
0.0
 11
1356.656647
 21
150.047974
 31
0.0
  0
LINE
  5
1A0
100
AcDbEntity
  8
枠_
  6
CONTINUOUS
 62
     3
100
AcDbLine
 10
1356.656647
 20
150.047974
 30
0.0
 11
1356.656647
 21
144.0
 31
0.0
  0
LINE
  5
1A1
100
AcDbEntity
  8
枠_
  6
CONTINUOUS
 62
     3
100
AcDbLine
 10
1356.656647
 20
144.0
 30
0.0
 11
1323.390961
 21
144.0
 31
0.0
  0
LINE
  5
1A2
100
AcDbEntity
  8
枠_
  6
CONTINUOUS
 62
     3
100
AcDbLine
 10
1323.390961
 20
144.0
 30
0.0
 11
1323.390961
 21
150.047974
 31
0.0
  0
LINE
  5
1A3
100
AcDbEntity
  8
枠_
  6
CONTINUOUS
 62
     3
100
AcDbLine
 10
1323.390961
 20
150.047974
 30
0.0
 11
1336.495514
 21
150.047974
 31
0.0
  0
LINE
  5
1A4
100
AcDbEntity
  8
枠_
  6
CONTINUOUS
 62
     3
100
AcDbLine
 10
1336.495514
 20
150.047974
 30
0.0
 11
1336.495514
 21
171.216034
 31
0.0
  0
LINE
  5
1A5
100
AcDbEntity
  8
枠_
  6
CONTINUOUS
 62
     3
100
AcDbLine
 10
1336.495514
 20
171.216034
 30
0.0
 11
1327.424927
 21
171.216034
 31
0.0
  0
LINE
  5
1A6
100
AcDbEntity
  8
枠_
  6
CONTINUOUS
 62
     3
100
AcDbLine
 10
1300.206909
 20
184.319977
 30
0.0
 11
1300.206909
 21
178.272003
 31
0.0
  0
LINE
  5
1A7
100
AcDbEntity
  8
枠_
  6
CONTINUOUS
 62
     3
100
AcDbLine
 10
1300.206909
 20
184.319977
 30
0.0
 11
1309.279633
 21
184.319977
 31
0.0
  0
LINE
  5
1A8
100
AcDbEntity
  8
枠_
  6
CONTINUOUS
 62
     3
100
AcDbLine
 10
1309.279633
 20
184.319977
 30
0.0
 11
1309.279633
 21
188.351959
 31
0.0
  0
LINE
  5
1A9
100
AcDbEntity
  8
枠_
  6
CONTINUOUS
 62
     3
100
AcDbLine
 10
1309.279633
 20
188.351959
 30
0.0
 11
1319.359131
 21
188.351959
 31
0.0
  0
LINE
  5
1AA
100
AcDbEntity
  8
枠_
  6
CONTINUOUS
 62
     3
100
AcDbLine
 10
1319.359131
 20
188.351959
 30
0.0
 11
1319.359131
 21
184.319977
 31
0.0
  0
LINE
  5
1AB
100
AcDbEntity
  8
枠_
  6
CONTINUOUS
 62
     3
100
AcDbLine
 10
1319.359131
 20
184.319977
 30
0.0
 11
1328.431854
 21
184.319977
 31
0.0
  0
LINE
  5
1AC
100
AcDbEntity
  8
枠_
  6
CONTINUOUS
 62
     3
100
AcDbLine
 10
1328.431854
 20
184.319977
 30
0.0
 11
1318.026123
 21
169.45578
 31
0.0
  0
LINE
  5
1AD
100
AcDbEntity
  8
枠_
  6
CONTINUOUS
 62
     3
100
AcDbLine
 10
1318.026123
 20
169.45578
 30
0.0
 11
1327.424927
 21
162.875885
 31
0.0
  0
LINE
  5
1AE
100
AcDbEntity
  8
枠_
  6
CONTINUOUS
 62
     3
100
AcDbLine
 10
1327.424927
 20
162.875885
 30
0.0
 11
1327.424927
 21
151.801209
 31
0.0
  0
LINE
  5
1AF
100
AcDbEntity
  8
枠_
  6
CONTINUOUS
 62
     3
100
AcDbLine
 10
1327.424927
 20
151.801209
 30
0.0
 11
1319.359131
 21
157.447723
 31
0.0
  0
LINE
  5
1B0
100
AcDbEntity
  8
枠_
  6
CONTINUOUS
 62
     3
100
AcDbLine
 10
1319.359131
 20
157.447723
 30
0.0
 11
1319.359131
 21
144.0
 31
0.0
  0
LINE
  5
1B1
100
AcDbEntity
  8
枠_
  6
CONTINUOUS
 62
     3
100
AcDbLine
 10
1319.359131
 20
144.0
 30
0.0
 11
1309.279633
 21
144.0
 31
0.0
  0
LINE
  5
1B2
100
AcDbEntity
  8
枠_
  6
CONTINUOUS
 62
     3
100
AcDbLine
 10
1309.279633
 20
144.0
 30
0.0
 11
1309.279633
 21
156.9599
 31
0.0
  0
LINE
  5
1B3
100
AcDbEntity
  8
枠_
  6
CONTINUOUS
 62
     3
100
AcDbLine
 10
1309.279633
 20
156.9599
 30
0.0
 11
1300.206909
 21
144.0
 31
0.0
  0
LINE
  5
1B4
100
AcDbEntity
  8
枠_
  6
CONTINUOUS
 62
     3
100
AcDbLine
 10
1300.206909
 20
144.0
 30
0.0
 11
1300.206909
 21
159.819397
 31
0.0
  0
LINE
  5
1B5
100
AcDbEntity
  8
枠_
  6
CONTINUOUS
 62
     3
100
AcDbLine
 10
1300.206909
 20
159.819397
 30
0.0
 11
1313.124848
 21
178.272003
 31
0.0
  0
LINE
  5
1B6
100
AcDbEntity
  8
枠_
  6
CONTINUOUS
 62
     3
100
AcDbLine
 10
1313.124848
 20
178.272003
 30
0.0
 11
1300.206909
 21
178.272003
 31
0.0
  0
ARC
  5
1B7
100
AcDbEntity
  8
枠_
  6
CONTINUOUS
 62
     2
100
AcDbCircle
 10
858.161011
 20
170.200409
 30
0.0
 40
6.300122
100
AcDbArc
 50
310.768311
 51
335.998779
  0
LINE
  5
1B8
100
AcDbEntity
  8
枠_
  6
CONTINUOUS
 62
     2
100
AcDbLine
 10
865.400238
 20
170.964111
 30
0.0
 11
863.919678
 21
167.639069
 31
0.0
  0
LINE
  5
1B9
100
AcDbEntity
  8
枠_
  6
CONTINUOUS
 62
     2
100
AcDbLine
 10
847.985077
 20
174.744019
 30
0.0
 11
871.218414
 21
174.744019
 31
0.0
  0
ARC
  5
1BA
100
AcDbEntity
  8
枠_
  6
CONTINUOUS
 62
     2
100
AcDbCircle
 10
951.299286
 20
162.144073
 30
0.0
 40
15.624008
100
AcDbArc
 50
270.000031
 51
324.00116
  0
ARC
  5
1BB
100
AcDbEntity
  8
枠_
  6
CONTINUOUS
 62
     2
100
AcDbCircle
 10
951.299286
 20
162.144073
 30
0.0
 40
13.10401
100
AcDbArc
 50
270.000031
 51
324.00116
  0
ARC
  5
1BC
100
AcDbEntity
  8
枠_
  6
CONTINUOUS
 62
     2
100
AcDbCircle
 10
798.565674
 20
162.144073
 30
0.0
 40
15.62398
100
AcDbArc
 50
270.000031
 51
333.99855
  0
ARC
  5
1BD
100
AcDbEntity
  8
枠_
  6
CONTINUOUS
 62
     2
100
AcDbCircle
 10
797.765503
 20
162.144073
 30
0.0
 40
10.583992
100
AcDbArc
 50
270.000031
 51
333.99855
  0
ARC
  5
1BE
100
AcDbEntity
  8
枠_
  6
CONTINUOUS
 62
     2
100
AcDbCircle
 10
798.165588
 20
162.144073
 30
0.0
 40
13.103991
100
AcDbArc
 50
270.000031
 51
333.99855
  0
LINE
  5
1BF
100
AcDbEntity
  8
枠_
  6
CONTINUOUS
 62
     2
100
AcDbLine
 10
771.84082
 20
186.032127
 30
0.0
 11
796.383972
 21
186.032127
 31
0.0
  0
LINE
  5
1C0
100
AcDbEntity
  8
枠_
  6
CONTINUOUS
 62
     2
100
AcDbLine
 10
771.84082
 20
183.712143
 30
0.0
 11
796.383972
 21
183.712143
 31
0.0
  0
LINE
  5
1C1
100
AcDbEntity
  8
枠_
  6
CONTINUOUS
 62
     2
100
AcDbLine
 10
771.84082
 20
181.392311
 30
0.0
 11
796.383972
 21
181.392311
 31
0.0
  0
LINE
  5
1C2
100
AcDbEntity
  8
枠_
  6
CONTINUOUS
 62
     2
100
AcDbLine
 10
771.84082
 20
174.136032
 30
0.0
 11
796.383972
 21
174.136032
 31
0.0
  0
LINE
  5
1C3
100
AcDbEntity
  8
枠_
  6
CONTINUOUS
 62
     2
100
AcDbLine
 10
771.84082
 20
171.615891
 30
0.0
 11
796.383972
 21
171.615891
 31
0.0
  0
LINE
  5
1C4
100
AcDbEntity
  8
枠_
  6
CONTINUOUS
 62
     2
100
AcDbLine
 10
771.84082
 20
169.296059
 30
0.0
 11
796.383972
 21
169.296059
 31
0.0
  0
LINE
  5
1C5
100
AcDbEntity
  8
枠_
  6
CONTINUOUS
 62
     2
100
AcDbLine
 10
771.84082
 20
151.559967
 30
0.0
 11
797.765503
 21
151.559967
 31
0.0
  0
LINE
  5
1C6
100
AcDbEntity
  8
枠_
  6
CONTINUOUS
 62
     2
100
AcDbLine
 10
771.84082
 20
149.039978
 30
0.0
 11
797.765503
 21
149.039978
 31
0.0
  0
LINE
  5
1C7
100
AcDbEntity
  8
枠_
  6
CONTINUOUS
 62
     2
100
AcDbLine
 10
771.84082
 20
146.519989
 30
0.0
 11
797.765503
 21
146.519989
 31
0.0
  0
LINE
  5
1C8
100
AcDbEntity
  8
枠_
  6
CONTINUOUS
 62
     2
100
AcDbLine
 10
807.277069
 20
157.504028
 30
0.0
 11
816.108246
 21
175.610365
 31
0.0
  0
LINE
  5
1C9
100
AcDbEntity
  8
枠_
  6
CONTINUOUS
 62
     2
100
AcDbLine
 10
809.941254
 20
156.399597
 30
0.0
 11
819.311676
 21
175.610375
 31
0.0
  0
LINE
  5
1CA
100
AcDbEntity
  8
枠_
  6
CONTINUOUS
 62
     2
100
AcDbLine
 10
812.605286
 20
155.294251
 30
0.0
 11
822.513123
 21
175.610346
 31
0.0
  0
LINE
  5
1CB
100
AcDbEntity
  8
枠_
  6
CONTINUOUS
 62
     2
100
AcDbLine
 10
809.136353
 20
185.695976
 30
0.0
 11
813.518372
 21
185.695976
 31
0.0
  0
LINE
  5
1CC
100
AcDbEntity
  8
枠_
  6
CONTINUOUS
 62
     2
100
AcDbLine
 10
809.136353
 20
182.839989
 30
0.0
 11
813.518372
 21
182.839989
 31
0.0
  0
LINE
  5
1CD
100
AcDbEntity
  8
枠_
  6
CONTINUOUS
 62
     2
100
AcDbLine
 10
820.224915
 20
185.695976
 30
0.0
 11
824.606934
 21
185.695976
 31
0.0
  0
LINE
  5
1CE
100
AcDbEntity
  8
枠_
  6
CONTINUOUS
 62
     2
100
AcDbLine
 10
820.224915
 20
182.839989
 30
0.0
 11
824.606934
 21
182.839989
 31
0.0
  0
LINE
  5
1CF
100
AcDbEntity
  8
枠_
  6
CONTINUOUS
 62
     2
100
AcDbLine
 10
831.313477
 20
172.224182
 30
0.0
 11
843.28064
 21
172.224182
 31
0.0
  0
LINE
  5
1D0
100
AcDbEntity
  8
枠_
  6
CONTINUOUS
 62
     2
100
AcDbLine
 10
840.375366
 20
182.502684
 30
0.0
 11
841.605072
 21
174.744019
 31
0.0
  0
LINE
  5
1D1
100
AcDbEntity
  8
枠_
  6
CONTINUOUS
 62
     2
100
AcDbLine
 10
846.188049
 20
145.817303
 30
0.0
 11
842.449036
 21
169.419044
 31
0.0
  0
ARC
  5
1D2
100
AcDbEntity
  8
枠_
  6
CONTINUOUS
 62
     2
100
AcDbCircle
 10
857.960968
 20
170.200409
 30
0.0
 40
8.820121
100
AcDbArc
 50
272.671387
 51
335.998779
  0
ARC
  5
1D3
100
AcDbEntity
  8
枠_
  6
CONTINUOUS
 62
     2
100
AcDbCircle
 10
857.760925
 20
170.200409
 30
0.0
 40
11.340113
100
AcDbArc
 50
267.367432
 51
335.998779
  0
LINE
  5
1D4
100
AcDbEntity
  8
枠_
  6
CONTINUOUS
 62
     2
100
AcDbLine
 10
872.351685
 20
175.090527
 30
0.0
 11
868.121491
 21
165.588593
 31
0.0
  0
LINE
  5
1D5
100
AcDbEntity
  8
枠_
  6
CONTINUOUS
 62
     2
100
AcDbLine
 10
852.090607
 20
145.817303
 30
0.0
 11
848.220367
 21
170.248817
 31
0.0
  0
LINE
  5
1D6
100
AcDbEntity
  8
枠_
  6
CONTINUOUS
 62
     2
100
AcDbLine
 10
849.339294
 20
145.817303
 30
0.0
 11
843.528442
 21
182.502674
 31
0.0
  0
LINE
  5
1D7
100
AcDbEntity
  8
枠_
  6
CONTINUOUS
 62
     2
100
AcDbLine
 10
846.279755
 20
182.502674
 30
0.0
 11
847.39563
 21
175.459465
 31
0.0
  0
LINE
  5
1D8
100
AcDbEntity
  8
枠_
  6
CONTINUOUS
 62
     2
100
AcDbLine
 10
831.313477
 20
174.744019
 30
0.0
 11
839.605103
 21
174.744019
 31
0.0
  0
LINE
  5
1D9
100
AcDbEntity
  8
枠_
  6
CONTINUOUS
 62
     2
100
AcDbLine
 10
868.669891
 20
172.570395
 30
0.0
 11
866.020508
 21
166.613525
 31
0.0
  0
LINE
  5
1DA
100
AcDbEntity
  8
枠_
  6
CONTINUOUS
 62
     2
100
AcDbLine
 10
847.107391
 20
172.224182
 30
0.0
 11
866.338196
 21
172.224182
 31
0.0
  0
ARC
  5
1DB
100
AcDbEntity
  8
枠_
  6
CONTINUOUS
 62
     2
100
AcDbCircle
 10
857.560883
 20
170.200409
 30
0.0
 40
13.860111
100
AcDbArc
 50
269.611328
 51
335.998779
  0
LINE
  5
1DC
100
AcDbEntity
  8
枠_
  6
CONTINUOUS
 62
     2
100
AcDbLine
 10
874.909821
 20
175.090555
 30
0.0
 11
870.222473
 21
164.563355
 31
0.0
  0
LINE
  5
1DD
100
AcDbEntity
  8
枠_
  6
CONTINUOUS
 62
     2
100
AcDbLine
 10
982.312622
 20
183.312134
 30
0.0
 11
961.880646
 21
155.182709
 31
0.0
  0
LINE
  5
1DE
100
AcDbEntity
  8
枠_
  6
CONTINUOUS
 62
     2
100
AcDbLine
 10
976.868134
 20
180.792297
 30
0.0
 11
959.342041
 21
156.664032
 31
0.0
  0
ARC
  5
1DF
100
AcDbEntity
  8
枠_
  6
CONTINUOUS
 62
     2
100
AcDbCircle
 10
951.999359
 20
161.744064
 30
0.0
 40
9.324021
100
AcDbArc
 50
270.000031
 51
324.00116
  0
LINE
  5
1E0
100
AcDbEntity
  8
枠_
  6
CONTINUOUS
 62
     2
100
AcDbLine
 10
882.879486
 20
186.015591
 30
0.0
 11
927.263641
 21
186.015591
 31
0.0
  0
LINE
  5
1E1
100
AcDbEntity
  8
枠_
  6
CONTINUOUS
 62
     2
100
AcDbLine
 10
882.879486
 20
183.395752
 30
0.0
 11
927.263641
 21
183.395752
 31
0.0
  0
LINE
  5
1E2
100
AcDbEntity
  8
枠_
  6
CONTINUOUS
 62
     2
100
AcDbLine
 10
882.879486
 20
180.675911
 30
0.0
 11
927.263641
 21
180.675911
 31
0.0
  0
LINE
  5
1E3
100
AcDbEntity
  8
枠_
  6
CONTINUOUS
 62
     2
100
AcDbLine
 10
878.847656
 20
151.644043
 30
0.0
 11
931.295471
 21
151.644043
 31
0.0
  0
LINE
  5
1E4
100
AcDbEntity
  8
枠_
  6
CONTINUOUS
 62
     2
100
AcDbLine
 10
878.847656
 20
149.124054
 30
0.0
 11
931.295471
 21
149.124054
 31
0.0
  0
LINE
  5
1E5
100
AcDbEntity
  8
枠_
  6
CONTINUOUS
 62
     2
100
AcDbLine
 10
878.847656
 20
146.403908
 30
0.0
 11
931.295471
 21
146.403908
 31
0.0
  0
LINE
  5
1E6
100
AcDbEntity
  8
枠_
  6
CONTINUOUS
 62
     2
100
AcDbLine
 10
942.352142
 20
185.932125
 30
0.0
 11
985.256806
 21
185.932125
 31
0.0
  0
LINE
  5
1E7
100
AcDbEntity
  8
枠_
  6
CONTINUOUS
 62
     2
100
AcDbLine
 10
987.856903
 20
185.832123
 30
0.0
 11
964.519043
 21
153.700623
 31
0.0
  0
LINE
  5
1E8
100
AcDbEntity
  8
枠_
  6
CONTINUOUS
 62
     2
100
AcDbLine
 10
942.352142
 20
183.312134
 30
0.0
 11
980.3125
 21
183.312134
 31
0.0
  0
LINE
  5
1E9
100
AcDbEntity
  8
枠_
  6
CONTINUOUS
 62
     2
100
AcDbLine
 10
951.299286
 20
151.659969
 30
0.0
 11
938.320313
 21
151.659969
 31
0.0
  0
LINE
  5
1EA
100
AcDbEntity
  8
枠_
  6
CONTINUOUS
 62
     2
100
AcDbLine
 10
951.299286
 20
149.039978
 30
0.0
 11
938.320313
 21
149.039978
 31
0.0
  0
LINE
  5
1EB
100
AcDbEntity
  8
枠_
  6
CONTINUOUS
 62
     2
100
AcDbLine
 10
951.299286
 20
146.419987
 30
0.0
 11
938.320313
 21
146.419987
 31
0.0
  0
LINE
  5
1EC
100
AcDbEntity
  8
枠_
  6
CONTINUOUS
 62
     2
100
AcDbLine
 10
971.431885
 20
159.737152
 30
0.0
 11
983.371582
 21
145.999998
 31
0.0
  0
LINE
  5
1ED
100
AcDbEntity
  8
枠_
  6
CONTINUOUS
 62
     2
100
AcDbLine
 10
972.953491
 20
161.530508
 30
0.0
 11
986.451721
 21
145.999998
 31
0.0
  0
LINE
  5
1EE
100
AcDbEntity
  8
枠_
  6
CONTINUOUS
 62
     2
100
AcDbLine
 10
974.473114
 20
163.322949
 30
0.0
 11
989.529419
 21
145.999998
 31
0.0
  0
LINE
  5
1EF
100
AcDbEntity
  8
枠_
  6
CONTINUOUS
 62
     2
100
AcDbLine
 10
975.992737
 20
165.115847
 30
0.0
 11
992.609253
 21
145.999998
 31
0.0
  0
LINE
  5
1F0
100
AcDbEntity
  8
枠_
  6
CONTINUOUS
 62
     2
100
AcDbLine
 10
942.352142
 20
180.592293
 30
0.0
 11
974.367981
 21
180.592293
 31
0.0
  0
LINE
  5
1F1
100
AcDbEntity
  8
枠_
  6
CONTINUOUS
 62
     2
100
AcDbLine
 10
1010.895538
 20
186.032127
 30
0.0
 11
1059.311371
 21
186.032127
 31
0.0
  0
LINE
  5
1F2
100
AcDbEntity
  8
枠_
  6
CONTINUOUS
 62
     2
100
AcDbLine
 10
1010.895538
 20
183.512138
 30
0.0
 11
1059.311371
 21
183.512138
 31
0.0
  0
LINE
  5
1F3
100
AcDbEntity
  8
枠_
  6
CONTINUOUS
 62
     2
100
AcDbLine
 10
1031.677399
 20
151.479916
 30
0.0
 11
1031.677399
 21
181.212219
 31
0.0
  0
LINE
  5
1F4
100
AcDbEntity
  8
枠_
  6
CONTINUOUS
 62
     2
100
AcDbLine
 10
1034.195862
 20
151.479916
 30
0.0
 11
1034.195862
 21
181.212219
 31
0.0
  0
LINE
  5
1F5
100
AcDbEntity
  8
枠_
  6
CONTINUOUS
 62
     2
100
AcDbLine
 10
1036.714172
 20
151.479916
 30
0.0
 11
1036.714172
 21
181.212219
 31
0.0
  0
LINE
  5
1F6
100
AcDbEntity
  8
枠_
  6
CONTINUOUS
 62
     2
100
AcDbLine
 10
1039.03244
 20
151.479916
 30
0.0
 11
1039.03244
 21
181.212219
 31
0.0
  0
LINE
  5
1F7
100
AcDbEntity
  8
枠_
  6
CONTINUOUS
 62
     2
100
AcDbLine
 10
1008.879547
 20
149.479918
 30
0.0
 11
1061.327362
 21
149.479918
 31
0.0
  0
LINE
  5
1F8
100
AcDbEntity
  8
枠_
  6
CONTINUOUS
 62
     2
100
AcDbLine
 10
1008.879547
 20
146.459927
 30
0.0
 11
1061.327362
 21
146.459927
 31
0.0
  0
LINE
  5
1F9
100
AcDbEntity
  8
枠_
  6
CONTINUOUS
 62
     2
100
AcDbLine
 10
1073.127594
 20
186.351961
 30
0.0
 11
1076.87088
 21
181.561502
 31
0.0
  0
LINE
  5
1FA
100
AcDbEntity
  8
枠_
  6
CONTINUOUS
 62
     2
100
AcDbLine
 10
1076.324768
 20
186.351961
 30
0.0
 11
1080.068054
 21
181.561502
 31
0.0
  0
LINE
  5
1FB
100
AcDbEntity
  8
枠_
  6
CONTINUOUS
 62
     2
100
AcDbLine
 10
1086.31134
 20
186.351961
 30
0.0
 11
1086.31134
 21
181.985563
 31
0.0
  0
LINE
  5
1FC
100
AcDbEntity
  8
枠_
  6
CONTINUOUS
 62
     2
100
AcDbLine
 10
1089.029846
 20
186.351961
 30
0.0
 11
1089.029846
 21
181.985563
 31
0.0
  0
LINE
  5
1FD
100
AcDbEntity
  8
枠_
  6
CONTINUOUS
 62
     2
100
AcDbLine
 10
1096.390991
 20
186.351961
 30
0.0
 11
1096.390991
 21
181.985563
 31
0.0
  0
LINE
  5
1FE
100
AcDbEntity
  8
枠_
  6
CONTINUOUS
 62
     2
100
AcDbLine
 10
1099.309387
 20
186.351961
 30
0.0
 11
1099.309387
 21
181.985563
 31
0.0
  0
LINE
  5
1FF
100
AcDbEntity
  8
枠_
  6
CONTINUOUS
 62
     2
100
AcDbLine
 10
1108.995667
 20
186.351961
 30
0.0
 11
1105.25238
 21
181.561502
 31
0.0
  0
LINE
  5
200
100
AcDbEntity
  8
枠_
  6
CONTINUOUS
 62
     2
100
AcDbLine
 10
1112.392883
 20
186.351961
 30
0.0
 11
1108.649597
 21
181.561502
 31
0.0
  0
LINE
  5
201
100
AcDbEntity
  8
枠_
  6
CONTINUOUS
 62
     2
100
AcDbLine
 10
1066.336212
 20
179.985565
 30
0.0
 11
1118.784027
 21
179.985565
 31
0.0
  0
LINE
  5
202
100
AcDbEntity
  8
枠_
  6
CONTINUOUS
 62
     2
100
AcDbLine
 10
1079.431763
 20
172.188286
 30
0.0
 11
1077.277832
 21
178.106178
 31
0.0
  0
LINE
  5
203
100
AcDbEntity
  8
枠_
  6
CONTINUOUS
 62
     2
100
AcDbLine
 10
1082.512207
 20
172.188286
 30
0.0
 11
1080.358276
 21
178.106178
 31
0.0
  0
LINE
  5
204
100
AcDbEntity
  8
枠_
  6
CONTINUOUS
 62
     2
100
AcDbLine
 10
1085.392609
 20
172.188515
 30
0.0
 11
1083.241119
 21
178.105949
 31
0.0
  0
LINE
  5
205
100
AcDbEntity
  8
枠_
  6
CONTINUOUS
 62
     2
100
AcDbLine
 10
1099.919434
 20
172.188067
 30
0.0
 11
1102.075653
 21
178.106398
 31
0.0
  0
LINE
  5
206
100
AcDbEntity
  8
枠_
  6
CONTINUOUS
 62
     2
100
AcDbLine
 10
1103.002014
 20
172.188067
 30
0.0
 11
1105.158234
 21
178.106398
 31
0.0
  0
LINE
  5
207
100
AcDbEntity
  8
枠_
  6
CONTINUOUS
 62
     2
100
AcDbLine
 10
1105.882416
 20
172.188067
 30
0.0
 11
1108.038635
 21
178.106398
 31
0.0
  0
LINE
  5
208
100
AcDbEntity
  8
枠_
  6
CONTINUOUS
 62
     2
100
AcDbLine
 10
1066.336212
 20
170.308899
 30
0.0
 11
1118.784027
 21
170.308899
 31
0.0
  0
LINE
  5
209
100
AcDbEntity
  8
枠_
  6
CONTINUOUS
 62
     2
100
AcDbLine
 10
1066.336212
 20
163.353638
 30
0.0
 11
1087.838745
 21
163.353638
 31
0.0
  0
LINE
  5
20A
100
AcDbEntity
  8
枠_
  6
CONTINUOUS
 62
     2
100
AcDbLine
 10
1066.336212
 20
156.398377
 30
0.0
 11
1087.838745
 21
156.398377
 31
0.0
  0
LINE
  5
20B
100
AcDbEntity
  8
枠_
  6
CONTINUOUS
 62
     2
100
AcDbLine
 10
1097.475586
 20
156.398377
 30
0.0
 11
1118.784027
 21
156.398377
 31
0.0
  0
LINE
  5
20C
100
AcDbEntity
  8
枠_
  6
CONTINUOUS
 62
     2
100
AcDbLine
 10
1069.50882
 20
145.999998
 30
0.0
 11
1079.533234
 21
155.057539
 31
0.0
  0
LINE
  5
20D
100
AcDbEntity
  8
枠_
  6
CONTINUOUS
 62
     2
100
AcDbLine
 10
1072.867737
 20
145.999998
 30
0.0
 11
1082.892456
 21
155.057558
 31
0.0
  0
LINE
  5
20E
100
AcDbEntity
  8
枠_
  6
CONTINUOUS
 62
     2
100
AcDbLine
 10
1076.028748
 20
145.999998
 30
0.0
 11
1086.053467
 21
155.057558
 31
0.0
  0
LINE
  5
20F
100
AcDbEntity
  8
枠_
  6
CONTINUOUS
 62
     2
100
AcDbLine
 10
1089.838715
 20
145.999998
 30
0.0
 11
1089.838715
 21
168.308901
 31
0.0
  0
LINE
  5
210
100
AcDbEntity
  8
枠_
  6
CONTINUOUS
 62
     2
100
AcDbLine
 10
1092.757111
 20
145.999998
 30
0.0
 11
1092.757111
 21
168.308901
 31
0.0
  0
LINE
  5
211
100
AcDbEntity
  8
枠_
  6
CONTINUOUS
 62
     2
100
AcDbLine
 10
1095.475617
 20
145.999998
 30
0.0
 11
1095.475617
 21
168.308901
 31
0.0
  0
LINE
  5
212
100
AcDbEntity
  8
枠_
  6
CONTINUOUS
 62
     2
100
AcDbLine
 10
1109.171753
 20
145.999998
 30
0.0
 11
1099.147339
 21
155.057539
 31
0.0
  0
LINE
  5
213
100
AcDbEntity
  8
枠_
  6
CONTINUOUS
 62
     2
100
AcDbLine
 10
1112.530823
 20
145.999998
 30
0.0
 11
1102.506104
 21
155.057558
 31
0.0
  0
LINE
  5
214
100
AcDbEntity
  8
枠_
  6
CONTINUOUS
 62
     2
100
AcDbLine
 10
1115.891876
 20
145.999998
 30
0.0
 11
1105.867157
 21
155.057558
 31
0.0
  0
LINE
  5
215
100
AcDbEntity
  8
枠_
  6
CONTINUOUS
 62
     2
100
AcDbLine
 10
1134.997864
 20
186.351961
 30
0.0
 11
1134.997864
 21
182.79199
 31
0.0
  0
LINE
  5
216
100
AcDbEntity
  8
枠_
  6
CONTINUOUS
 62
     2
100
AcDbLine
 10
1137.516174
 20
186.351961
 30
0.0
 11
1137.516174
 21
182.79199
 31
0.0
  0
LINE
  5
217
100
AcDbEntity
  8
枠_
  6
CONTINUOUS
 62
     2
100
AcDbLine
 10
1140.034637
 20
186.351961
 30
0.0
 11
1140.034637
 21
182.79199
 31
0.0
  0
LINE
  5
218
100
AcDbEntity
  8
枠_
  6
CONTINUOUS
 62
     2
100
AcDbLine
 10
1124.799957
 20
180.791992
 30
0.0
 11
1142.975159
 21
180.791992
 31
0.0
  0
LINE
  5
219
100
AcDbEntity
  8
枠_
  6
CONTINUOUS
 62
     2
100
AcDbLine
 10
1124.944153
 20
145.98905
 30
0.0
 11
1128.392029
 21
178.802942
 31
0.0
  0
LINE
  5
21A
100
AcDbEntity
  8
枠_
  6
CONTINUOUS
 62
     2
100
AcDbLine
 10
1127.276764
 20
145.98905
 30
0.0
 11
1130.724792
 21
178.802942
 31
0.0
  0
LINE
  5
21B
100
AcDbEntity
  8
枠_
  6
CONTINUOUS
 62
     2
100
AcDbLine
 10
1134.997864
 20
145.999998
 30
0.0
 11
1134.997864
 21
178.791994
 31
0.0
  0
LINE
  5
21C
100
AcDbEntity
  8
枠_
  6
CONTINUOUS
 62
     2
100
AcDbLine
 10
1137.516174
 20
145.999998
 30
0.0
 11
1137.516174
 21
178.791994
 31
0.0
  0
LINE
  5
21D
100
AcDbEntity
  8
枠_
  6
CONTINUOUS
 62
     2
100
AcDbLine
 10
1140.034637
 20
145.999998
 30
0.0
 11
1140.034637
 21
178.791994
 31
0.0
  0
LINE
  5
21E
100
AcDbEntity
  8
枠_
  6
CONTINUOUS
 62
     2
100
AcDbLine
 10
1141.209259
 20
176.154245
 30
0.0
 11
1143.800354
 21
172.583841
 31
0.0
  0
LINE
  5
21F
100
AcDbEntity
  8
枠_
  6
CONTINUOUS
 62
     2
100
AcDbLine
 10
1141.209259
 20
172.264246
 30
0.0
 11
1143.800354
 21
168.693842
 31
0.0
  0
LINE
  5
220
100
AcDbEntity
  8
枠_
  6
CONTINUOUS
 62
     2
100
AcDbLine
 10
1147.469177
 20
177.188601
 30
0.0
 11
1149.768829
 21
186.411375
 31
0.0
  0
LINE
  5
221
100
AcDbEntity
  8
枠_
  6
CONTINUOUS
 62
     2
100
AcDbLine
 10
1149.867401
 20
177.188686
 30
0.0
 11
1152.165222
 21
186.411289
 31
0.0
  0
LINE
  5
222
100
AcDbEntity
  8
枠_
  6
CONTINUOUS
 62
     2
100
AcDbLine
 10
1151.963806
 20
177.188601
 30
0.0
 11
1154.263458
 21
186.411375
 31
0.0
  0
LINE
  5
223
100
AcDbEntity
  8
枠_
  6
CONTINUOUS
 62
     2
100
AcDbLine
 10
1160.702362
 20
182.79199
 30
0.0
 11
1160.702362
 21
186.351961
 31
0.0
  0
LINE
  5
224
100
AcDbEntity
  8
枠_
  6
CONTINUOUS
 62
     2
100
AcDbLine
 10
1163.420715
 20
182.79199
 30
0.0
 11
1163.420715
 21
186.351961
 31
0.0
  0
LINE
  5
225
100
AcDbEntity
  8
枠_
  6
CONTINUOUS
 62
     2
100
AcDbLine
 10
1165.939179
 20
182.79199
 30
0.0
 11
1165.939179
 21
186.351961
 31
0.0
  0
LINE
  5
226
100
AcDbEntity
  8
枠_
  6
CONTINUOUS
 62
     2
100
AcDbLine
 10
1154.862213
 20
180.791992
 30
0.0
 11
1177.247772
 21
180.791992
 31
0.0
  0
LINE
  5
227
100
AcDbEntity
  8
枠_
  6
CONTINUOUS
 62
     2
100
AcDbLine
 10
1160.702362
 20
178.791994
 30
0.0
 11
1160.702362
 21
172.712034
 31
0.0
  0
LINE
  5
228
100
AcDbEntity
  8
枠_
  6
CONTINUOUS
 62
     2
100
AcDbLine
 10
1163.420715
 20
178.791994
 30
0.0
 11
1163.420715
 21
172.712034
 31
0.0
  0
LINE
  5
229
100
AcDbEntity
  8
枠_
  6
CONTINUOUS
 62
     2
100
AcDbLine
 10
1165.939179
 20
178.791994
 30
0.0
 11
1165.939179
 21
172.712034
 31
0.0
  0
LINE
  5
22A
100
AcDbEntity
  8
枠_
  6
CONTINUOUS
 62
     2
100
AcDbLine
 10
1147.984009
 20
170.712036
 30
0.0
 11
1178.256683
 21
170.712036
 31
0.0
  0
LINE
  5
22B
100
AcDbEntity
  8
枠_
  6
CONTINUOUS
 62
     2
100
AcDbLine
 10
1152.447968
 20
168.744387
 30
0.0
 11
1148.300781
 21
145.967649
 31
0.0
  0
LINE
  5
22C
100
AcDbEntity
  8
枠_
  6
CONTINUOUS
 62
     2
100
AcDbLine
 10
1154.807282
 20
168.744387
 30
0.0
 11
1150.660248
 21
145.967649
 31
0.0
  0
LINE
  5
22D
100
AcDbEntity
  8
枠_
  6
CONTINUOUS
 62
     2
100
AcDbLine
 10
1156.889191
 20
168.744415
 30
0.0
 11
1152.740021
 21
145.967621
 31
0.0
  0
LINE
  5
22E
100
AcDbEntity
  8
枠_
  6
CONTINUOUS
 62
     2
100
AcDbLine
 10
1160.702362
 20
168.712038
 30
0.0
 11
1160.702362
 21
145.999998
 31
0.0
  0
LINE
  5
22F
100
AcDbEntity
  8
枠_
  6
CONTINUOUS
 62
     2
100
AcDbLine
 10
1163.220673
 20
168.712038
 30
0.0
 11
1163.220673
 21
145.999998
 31
0.0
  0
LINE
  5
230
100
AcDbEntity
  8
枠_
  6
CONTINUOUS
 62
     2
100
AcDbLine
 10
1169.349518
 20
168.744415
 30
0.0
 11
1173.498688
 21
145.967621
 31
0.0
  0
LINE
  5
231
100
AcDbEntity
  8
枠_
  6
CONTINUOUS
 62
     2
100
AcDbLine
 10
1171.510925
 20
168.744415
 30
0.0
 11
1175.660095
 21
145.967621
 31
0.0
  0
LINE
  5
232
100
AcDbEntity
  8
枠_
  6
CONTINUOUS
 62
     2
100
AcDbLine
 10
1174.070282
 20
168.744415
 30
0.0
 11
1178.219452
 21
145.967621
 31
0.0
  0
LINE
  5
233
100
AcDbEntity
  8
枠_
  6
CONTINUOUS
 62
     2
100
AcDbLine
 10
1184.272614
 20
182.400154
 30
0.0
 11
1212.824097
 21
182.400154
 31
0.0
  0
LINE
  5
234
100
AcDbEntity
  8
枠_
  6
CONTINUOUS
 62
     2
100
AcDbLine
 10
1184.272614
 20
179.880165
 30
0.0
 11
1213.741302
 21
179.880165
 31
0.0
  0
LINE
  5
235
100
AcDbEntity
  8
枠_
  6
CONTINUOUS
 62
     2
100
AcDbLine
 10
1228.116608
 20
145.879387
 30
0.0
 11
1213.34198
 21
186.472572
 31
0.0
  0
LINE
  5
236
100
AcDbEntity
  8
枠_
  6
CONTINUOUS
 62
     2
100
AcDbLine
 10
1230.796967
 20
145.879396
 30
0.0
 11
1216.022949
 21
186.472563
 31
0.0
  0
LINE
  5
237
100
AcDbEntity
  8
枠_
  6
CONTINUOUS
 62
     2
100
AcDbLine
 10
1233.477326
 20
145.879396
 30
0.0
 11
1218.703308
 21
186.472563
 31
0.0
  0
LINE
  5
238
100
AcDbEntity
  8
枠_
  6
CONTINUOUS
 62
     2
100
AcDbLine
 10
1236.157684
 20
145.879358
 30
0.0
 11
1221.381378
 21
186.472591
 31
0.0
  0
LINE
  5
239
100
AcDbEntity
  8
枠_
  6
CONTINUOUS
 62
     2
100
AcDbLine
 10
1228.543091
 20
184.400152
 30
0.0
 11
1228.543091
 21
186.351961
 31
0.0
  0
LINE
  5
23A
100
AcDbEntity
  8
枠_
  6
CONTINUOUS
 62
     2
100
AcDbLine
 10
1231.261597
 20
184.400152
 30
0.0
 11
1231.261597
 21
186.351961
 31
0.0
  0
LINE
  5
23B
100
AcDbEntity
  8
枠_
  6
CONTINUOUS
 62
     2
100
AcDbLine
 10
1233.97995
 20
184.400152
 30
0.0
 11
1233.97995
 21
186.351961
 31
0.0
  0
LINE
  5
23C
100
AcDbEntity
  8
枠_
  6
CONTINUOUS
 62
     2
100
AcDbLine
 10
1224.863739
 20
182.400154
 30
0.0
 11
1236.720429
 21
182.400154
 31
0.0
  0
LINE
  5
23D
100
AcDbEntity
  8
枠_
  6
CONTINUOUS
 62
     2
100
AcDbLine
 10
1225.781098
 20
179.880165
 30
0.0
 11
1236.720429
 21
179.880165
 31
0.0
  0
LINE
  5
23E
100
AcDbEntity
  8
枠_
  6
CONTINUOUS
 62
     2
100
AcDbLine
 10
1187.295532
 20
170.364098
 30
0.0
 11
1213.536377
 21
170.364098
 31
0.0
  0
LINE
  5
23F
100
AcDbEntity
  8
枠_
  6
CONTINUOUS
 62
     2
100
AcDbLine
 10
1187.295532
 20
167.843956
 30
0.0
 11
1213.536377
 21
167.843956
 31
0.0
  0
LINE
  5
240
100
AcDbEntity
  8
枠_
  6
CONTINUOUS
 62
     2
100
AcDbLine
 10
1196.790924
 20
165.843958
 30
0.0
 11
1196.790924
 21
155.791153
 31
0.0
  0
LINE
  5
241
100
AcDbEntity
  8
枠_
  6
CONTINUOUS
 62
     2
100
AcDbLine
 10
1199.309235
 20
165.843958
 30
0.0
 11
1199.309235
 21
156.326431
 31
0.0
  0
LINE
  5
242
100
AcDbEntity
  8
枠_
  6
CONTINUOUS
 62
     2
100
AcDbLine
 10
1201.827545
 20
165.843958
 30
0.0
 11
1201.827545
 21
156.861719
 31
0.0
  0
LINE
  5
243
100
AcDbEntity
  8
枠_
  6
CONTINUOUS
 62
     2
100
AcDbLine
 10
1204.346008
 20
165.843958
 30
0.0
 11
1204.346008
 21
157.397026
 31
0.0
  0
LINE
  5
244
100
AcDbEntity
  8
枠_
  6
CONTINUOUS
 62
     2
100
AcDbLine
 10
1186.747284
 20
151.656317
 30
0.0
 11
1214.084473
 21
157.466997
 31
0.0
  0
LINE
  5
245
100
AcDbEntity
  8
枠_
  6
CONTINUOUS
 62
     2
100
AcDbLine
 10
1186.747284
 20
148.880028
 30
0.0
 11
1214.084473
 21
154.690851
 31
0.0
  0
LINE
  5
246
100
AcDbEntity
  8
枠_
  6
CONTINUOUS
 62
     2
100
AcDbLine
 10
1186.747284
 20
146.503729
 30
0.0
 11
1214.084473
 21
152.314409
 31
0.0
  0
LINE
  5
247
100
AcDbEntity
  8
枠_
  6
CONTINUOUS
 62
     2
100
AcDbLine
 10
1242.633057
 20
178.325943
 30
0.0
 11
1268.51532
 21
186.985401
 31
0.0
  0
LINE
  5
248
100
AcDbEntity
  8
枠_
  6
CONTINUOUS
 62
     2
100
AcDbLine
 10
1242.633057
 20
175.668625
 30
0.0
 11
1268.51532
 21
184.328236
 31
0.0
  0
LINE
  5
249
100
AcDbEntity
  8
枠_
  6
CONTINUOUS
 62
     2
100
AcDbLine
 10
1270.411987
 20
186.985392
 30
0.0
 11
1296.294403
 21
178.325304
 31
0.0
  0
LINE
  5
24A
100
AcDbEntity
  8
枠_
  6
CONTINUOUS
 62
     2
100
AcDbLine
 10
1270.411987
 20
184.528231
 30
0.0
 11
1296.294403
 21
175.868143
 31
0.0
  0
LINE
  5
24B
100
AcDbEntity
  8
枠_
  6
CONTINUOUS
 62
     2
100
AcDbLine
 10
1287.62497
 20
175.596108
 30
0.0
 11
1251.304474
 21
175.596108
 31
0.0
  0
LINE
  5
24C
100
AcDbEntity
  8
枠_
  6
CONTINUOUS
 62
     2
100
AcDbLine
 10
1287.62497
 20
172.875961
 30
0.0
 11
1251.304474
 21
172.875961
 31
0.0
  0
LINE
  5
24D
100
AcDbEntity
  8
枠_
  6
CONTINUOUS
 62
     2
100
AcDbLine
 10
1242.736359
 20
165.063919
 30
0.0
 11
1296.191101
 21
165.063919
 31
0.0
  0
LINE
  5
24E
100
AcDbEntity
  8
枠_
  6
CONTINUOUS
 62
     2
100
AcDbLine
 10
1242.736359
 20
162.744087
 30
0.0
 11
1296.191101
 21
162.744087
 31
0.0
  0
LINE
  5
24F
100
AcDbEntity
  8
枠_
  6
CONTINUOUS
 62
     2
100
AcDbLine
 10
1251.013336
 20
160.931534
 30
0.0
 11
1245.911255
 21
149.99246
 31
0.0
  0
LINE
  5
250
100
AcDbEntity
  8
枠_
  6
CONTINUOUS
 62
     2
100
AcDbLine
 10
1254.194336
 20
160.931543
 30
0.0
 11
1249.092102
 21
149.99246
 31
0.0
  0
LINE
  5
251
100
AcDbEntity
  8
枠_
  6
CONTINUOUS
 62
     2
100
AcDbLine
 10
1257.375336
 20
160.931543
 30
0.0
 11
1252.273102
 21
149.99246
 31
0.0
  0
LINE
  5
252
100
AcDbEntity
  8
枠_
  6
CONTINUOUS
 62
     2
100
AcDbLine
 10
1281.554108
 20
160.931667
 30
0.0
 11
1286.658325
 21
149.992336
 31
0.0
  0
LINE
  5
253
100
AcDbEntity
  8
枠_
  6
CONTINUOUS
 62
     2
100
AcDbLine
 10
1284.737091
 20
160.931419
 30
0.0
 11
1289.837036
 21
149.992584
 31
0.0
  0
LINE
  5
254
100
AcDbEntity
  8
枠_
  6
CONTINUOUS
 62
     2
100
AcDbLine
 10
1287.919922
 20
160.931315
 30
0.0
 11
1293.018189
 21
149.992689
 31
0.0
  0
LINE
  5
255
100
AcDbEntity
  8
枠_
  6
CONTINUOUS
 62
     2
100
AcDbLine
 10
1244.685364
 20
148.179916
 30
0.0
 11
1294.242096
 21
148.179916
 31
0.0
  0
LINE
  5
256
100
AcDbEntity
  8
枠_
  6
CONTINUOUS
 62
     2
100
AcDbLine
 10
1243.510285
 20
145.659927
 30
0.0
 11
1295.417175
 21
145.659927
 31
0.0
  0
LINE
  5
257
100
AcDbEntity
  8
枠_
  6
CONTINUOUS
 62
     2
100
AcDbLine
 10
1311.397858
 20
184.400152
 30
0.0
 11
1311.397858
 21
186.351961
 31
0.0
  0
LINE
  5
258
100
AcDbEntity
  8
枠_
  6
CONTINUOUS
 62
     2
100
AcDbLine
 10
1314.316254
 20
184.400152
 30
0.0
 11
1314.316254
 21
186.351961
 31
0.0
  0
LINE
  5
259
100
AcDbEntity
  8
枠_
  6
CONTINUOUS
 62
     2
100
AcDbLine
 10
1317.234802
 20
184.400152
 30
0.0
 11
1317.234802
 21
186.351961
 31
0.0
  0
LINE
  5
25A
100
AcDbEntity
  8
枠_
  6
CONTINUOUS
 62
     2
100
AcDbLine
 10
1302.206879
 20
182.400154
 30
0.0
 11
1325.087891
 21
182.400154
 31
0.0
  0
LINE
  5
25B
100
AcDbEntity
  8
枠_
  6
CONTINUOUS
 62
     2
100
AcDbLine
 10
1302.206879
 20
179.880165
 30
0.0
 11
1323.323822
 21
179.880165
 31
0.0
  0
LINE
  5
25C
100
AcDbEntity
  8
枠_
  6
CONTINUOUS
 62
     2
100
AcDbLine
 10
1315.379181
 20
178.241676
 30
0.0
 11
1301.35376
 21
158.204722
 31
0.0
  0
LINE
  5
25D
100
AcDbEntity
  8
枠_
  6
CONTINUOUS
 62
     2
100
AcDbLine
 10
1318.656616
 20
178.2418
 30
0.0
 11
1301.353912
 21
153.528513
 31
0.0
  0
LINE
  5
25E
100
AcDbEntity
  8
枠_
  6
CONTINUOUS
 62
     2
100
AcDbLine
 10
1321.737976
 20
178.241772
 30
0.0
 11
1301.353912
 21
149.125732
 31
0.0
  0
LINE
  5
25F
100
AcDbEntity
  8
枠_
  6
CONTINUOUS
 62
     2
100
AcDbLine
 10
1316.929932
 20
167.88691
 30
0.0
 11
1325.786743
 21
161.684641
 31
0.0
  0
LINE
  5
260
100
AcDbEntity
  8
枠_
  6
CONTINUOUS
 62
     2
100
AcDbLine
 10
1315.484467
 20
165.821995
 30
0.0
 11
1325.786591
 21
158.607992
 31
0.0
  0
LINE
  5
261
100
AcDbEntity
  8
枠_
  6
CONTINUOUS
 62
     2
100
AcDbLine
 10
1313.945007
 20
163.623127
 30
0.0
 11
1325.786591
 21
155.331501
 31
0.0
  0
LINE
  5
262
100
AcDbEntity
  8
枠_
  6
CONTINUOUS
 62
     2
100
AcDbLine
 10
1311.397858
 20
161.472229
 30
0.0
 11
1311.397858
 21
145.999998
 31
0.0
  0
LINE
  5
263
100
AcDbEntity
  8
枠_
  6
CONTINUOUS
 62
     2
100
AcDbLine
 10
1314.316254
 20
161.363157
 30
0.0
 11
1314.316254
 21
145.999998
 31
0.0
  0
LINE
  5
264
100
AcDbEntity
  8
枠_
  6
CONTINUOUS
 62
     2
100
AcDbLine
 10
1317.234802
 20
159.319567
 30
0.0
 11
1317.234802
 21
145.999998
 31
0.0
  0
LINE
  5
265
100
AcDbEntity
  8
枠_
  6
CONTINUOUS
 62
     2
100
AcDbLine
 10
1338.613739
 20
150.179915
 30
0.0
 11
1338.613739
 21
186.351961
 31
0.0
  0
LINE
  5
266
100
AcDbEntity
  8
枠_
  6
CONTINUOUS
 62
     2
100
AcDbLine
 10
1341.532135
 20
150.179915
 30
0.0
 11
1341.532135
 21
186.351961
 31
0.0
  0
LINE
  5
267
100
AcDbEntity
  8
枠_
  6
CONTINUOUS
 62
     2
100
AcDbLine
 10
1344.450684
 20
150.179915
 30
0.0
 11
1344.450684
 21
186.351961
 31
0.0
  0
LINE
  5
268
100
AcDbEntity
  8
枠_
  6
CONTINUOUS
 62
     2
100
AcDbLine
 10
1329.424896
 20
175.344032
 30
0.0
 11
1336.61377
 21
175.344032
 31
0.0
  0
LINE
  5
269
100
AcDbEntity
  8
枠_
  6
CONTINUOUS
 62
     2
100
AcDbLine
 10
1329.424896
 20
172.824196
 30
0.0
 11
1336.61377
 21
172.824196
 31
0.0
  0
LINE
  5
26A
100
AcDbEntity
  8
枠_
  6
CONTINUOUS
 62
     2
100
AcDbLine
 10
1346.450653
 20
175.344032
 30
0.0
 11
1353.647766
 21
175.344032
 31
0.0
  0
LINE
  5
26B
100
AcDbEntity
  8
枠_
  6
CONTINUOUS
 62
     2
100
AcDbLine
 10
1346.450653
 20
172.624191
 30
0.0
 11
1353.647766
 21
172.624191
 31
0.0
  0
LINE
  5
26C
100
AcDbEntity
  8
枠_
  6
CONTINUOUS
 62
     2
100
AcDbLine
 10
1325.39093
 20
148.179916
 30
0.0
 11
1354.656677
 21
148.179916
 31
0.0
  0
LINE
  5
26D
100
AcDbEntity
  8
枠_
  6
CONTINUOUS
 62
     2
100
AcDbLine
 10
1325.39093
 20
145.659927
 30
0.0
 11
1354.656677
 21
145.659927
 31
0.0
  0
LINE
  5
26E
100
AcDbEntity
  8
枠_
  6
CONTINUOUS
 62
     2
100
AcDbLine
 10
1097.475586
 20
163.353638
 30
0.0
 11
1118.784027
 21
163.353638
 31
0.0
  0
TEXT
  5
26F
100
AcDbEntity
  8
枠_
  6
CONTINUOUS
 62
     2
100
AcDbText
 10
1481.5
 20
241.75
 30
0.0
 40
65.0
  1
Ｕ３２３Ｃ
 41
0.736615
  7
EXCADSTD
 72
     5
 11
1766.5
 21
241.75
 31
0.0
100
AcDbText
  0
TEXT
  5
270
100
AcDbEntity
  8
枠_
  6
CONTINUOUS
 62
     2
100
AcDbText
 10
801.999983
 20
238.5
 30
0.0
 40
65.0
  1
中形ストール小便器（トラップ着脱式）
 41
0.433641
  7
EXCADSTD
 72
     5
 11
1406.000017
 21
238.5
 31
0.0
100
AcDbText
  0
TEXT
  5
271
100
AcDbEntity
  8
枠_
  6
CONTINUOUS
 62
     6
100
AcDbText
 10
182.026074
 20
126.950073
 30
0.0
 40
25.0
  1
１２
 41
0.72408
  7
EXCADSTD
 72
     5
 11
221.531534
 21
126.950073
 31
0.0
100
AcDbText
  0
TEXT
  5
272
100
AcDbEntity
  8
枠_
  6
CONTINUOUS
 62
     6
100
AcDbText
 10
234.026074
 20
126.950073
 30
0.0
 40
25.0
  1
１１
 41
0.72408
  7
EXCADSTD
 72
     5
 11
273.531534
 21
126.950073
 31
0.0
100
AcDbText
  0
TEXT
  5
273
100
AcDbEntity
  8
枠_
  6
CONTINUOUS
 62
     6
100
AcDbText
 10
286.026074
 20
126.950073
 30
0.0
 40
25.0
  1
１３
 41
0.72408
  7
EXCADSTD
 72
     5
 11
325.531534
 21
126.950073
 31
0.0
100
AcDbText
  0
TEXT
  5
274
100
AcDbEntity
  8
枠_
  6
CONTINUOUS
 62
     7
100
AcDbText
 10
1453.25
 20
130.75
 30
0.0
 40
70.0
  1
Ｕ０３２３０１１
 41
0.795
  7
EXCADSTD
 72
     5
 11
1983.25
 21
130.75
 31
0.0
100
AcDbText
  0
LINE
  5
275
100
AcDbEntity
  8
枠_
  6
CONTINUOUS
 62
     7
100
AcDbLine
 10
1783.810394
 20
606.0
 30
0.0
 11
1783.810394
 21
2101.0
 31
0.0
  0
LINE
  5
276
100
AcDbEntity
  8
枠_
  6
CONTINUOUS
 62
     7
100
AcDbLine
 10
305.0
 20
606.0
 30
0.0
 11
1181.0
 21
606.0
 31
0.0
  0
TEXT
  5
277
100
AcDbEntity
  8
枠_
  6
CONTINUOUS
 62
     2
100
AcDbText
 10
1778.881714
 20
1975.0
 30
0.0
 40
40.0
  1
Ｗ．Ｌ
 50
90.0
 41
0.833
  7
EXCADSTD
 72
     5
 11
1778.881714
 21
2094.0
 31
0.0
100
AcDbText
  0
LINE
  5
278
100
AcDbEntity
  8
枠_
  6
CONTINUOUS
 62
     7
100
AcDbLine
 10
1533.410675
 20
606.0
 30
0.0
 11
1298.0
 21
606.0
 31
0.0
  0
LINE
  5
279
100
AcDbEntity
  8
枠_
  6
CONTINUOUS
 62
     7
100
AcDbLine
 10
1783.810394
 20
606.0
 30
0.0
 11
1594.210423
 21
606.0
 31
0.0
  0
TEXT
  5
27A
100
AcDbEntity
  8
枠_
  6
CONTINUOUS
 62
     2
100
AcDbText
 10
1051.0
 20
610.000153
 30
0.0
 40
40.0
  1
Ｆ．Ｌ
 41
0.833
  7
EXCADSTD
 72
     5
 11
1170.0
 21
610.000153
 31
0.0
100
AcDbText
  0
LINE
  5
27B
100
AcDbEntity
  8
枠_
  6
CONTINUOUS
 62
     2
100
AcDbLine
 10
1165.939179
 20
168.712038
 30
0.0
 11
1165.939179
 21
145.999998
 31
0.0
  0
LINE
  5
27C
100
AcDbEntity
  8
枠_
  6
CONTINUOUS
 62
     3
100
AcDbLine
 10
839.771729
 20
170.207886
 30
0.0
 11
829.472656
 21
170.207886
 31
0.0
  0
LINE
  5
27D
100
AcDbEntity
  8
枠_
  6
CONTINUOUS
 62
     3
100
AcDbLine
 10
843.922424
 20
144.0
 30
0.0
 11
839.771729
 21
170.207886
 31
0.0
  0
TEXT
  5
27E
100
AcDbEntity
  8
枠_
  6
CONTINUOUS
 62
     6
100
AcDbText
 10
205.5
 20
200.0
 30
0.0
 40
50.0
  1
宮田
 41
0.8568
  7
EXCADSTD
 72
     5
 11
298.9932
 21
200.0
 31
0.0
100
AcDbText
  0
TEXT
  5
27F
100
AcDbEntity
  8
枠_
  6
CONTINUOUS
 62
     6
100
AcDbText
 10
491.5
 20
200.0
 30
0.0
 40
50.0
  1
地名坊
 41
0.7504
  7
EXCADSTD
 72
     5
 11
625.5
 21
200.0
 31
0.0
100
AcDbText
  0
TEXT
  5
280
100
AcDbEntity
  8
枠_
  6
CONTINUOUS
 62
     6
100
AcDbText
 10
633.5
 20
200.0
 30
0.0
 40
50.0
  1
又場
 41
0.8568
  7
EXCADSTD
 72
     5
 11
726.9932
 21
200.0
 31
0.0
100
AcDbText
  0
TEXT
  5
281
100
AcDbEntity
  8
スト－ル
  6
CONTINUOUS
 62
     2
100
AcDbText
 10
565.499812
 20
529.5
 30
0.0
 40
40.0
  1
^J１７０
 41
0.6545
  7
EXCADSTD
 72
     5
 11
684.499811
 21
529.5
 31
0.0
100
AcDbText
  0
TEXT
  5
282
100
AcDbEntity
  8
スト－ル
  6
CONTINUOUS
 62
     2
100
AcDbText
 10
680.499811
 20
529.5
 30
0.0
 40
40.0
  1
^J
 41
0.0
  7
EXCADSTD
 72
     5
 11
680.499811
 21
529.5
 31
0.0
100
AcDbText
  0
LINE
  5
283
100
AcDbEntity
  8
スト－ル
  6
CONTINUOUS
 62
     3
100
AcDbLine
 10
539.999811
 20
526.0
 30
0.0
 11
709.999811
 21
526.0
 31
0.0
  0
LINE
  5
284
100
AcDbEntity
  8
スト－ル
  6
CONTINUOUS
 62
     3
100
AcDbLine
 10
574.999811
 20
531.833333
 30
0.0
 11
539.999811
 21
526.0
 31
0.0
  0
LINE
  5
285
100
AcDbEntity
  8
スト－ル
  6
CONTINUOUS
 62
     3
100
AcDbLine
 10
539.999811
 20
526.0
 30
0.0
 11
574.999811
 21
520.166667
 31
0.0
  0
LINE
  5
286
100
AcDbEntity
  8
スト－ル
  6
CONTINUOUS
 62
     3
100
AcDbLine
 10
674.999811
 20
520.166667
 30
0.0
 11
709.999811
 21
526.0
 31
0.0
  0
LINE
  5
287
100
AcDbEntity
  8
スト－ル
  6
CONTINUOUS
 62
     3
100
AcDbLine
 10
709.999811
 20
526.0
 30
0.0
 11
674.999811
 21
531.833333
 31
0.0
  0
LEADER
  5
288
100
AcDbEntity
  8
スト－ル
  6
CONTINUOUS
 62
     6
100
AcDbLeader
  3
STANDARD
 73
     3
 74
     1
 75
     0
 40
0.0
 76
     2
 10
1693.972137
 20
1548.786865
 30
0.0
 10
1604.086426
 20
1600.682465
 30
0.0
 77
     6
1001
ACAD
1000
DSTYLE
1002
{
1070
    41
1040
35.0
1070
     5
1000
_EX_NORM
1070
     6
1000
_EX_NORM
1070
     7
1000
_EX_NORM
1070
   341
1005
2A
1002
}
  0
TEXT
  5
289
100
AcDbEntity
  8
スト－ル
  6
CONTINUOUS
 62
     2
100
AcDbText
 10
1336.084815
 20
686.499256
 30
0.0
 40
40.0
  1
^J２８０
 50
90.0
 41
0.6545
  7
EXCADSTD
 72
     5
 11
1336.084815
 21
805.499255
 31
0.0
100
AcDbText
  0
TEXT
  5
28A
100
AcDbEntity
  8
スト－ル
  6
CONTINUOUS
 62
     2
100
AcDbText
 10
1336.084815
 20
801.499255
 30
0.0
 40
40.0
  1
^J
 50
90.0
 41
0.0
  7
EXCADSTD
 72
     5
 11
1336.084815
 21
801.499255
 31
0.0
100
AcDbText
  0
LINE
  5
28B
100
AcDbEntity
  8
スト－ル
  6
CONTINUOUS
 62
     3
100
AcDbLine
 10
1339.584815
 20
605.998511
 30
0.0
 11
1339.584815
 21
886.0
 31
0.0
  0
LINE
  5
28C
100
AcDbEntity
  8
スト－ル
  6
CONTINUOUS
 62
     3
100
AcDbLine
 10
1333.751482
 20
640.998511
 30
0.0
 11
1339.584815
 21
605.998511
 31
0.0
  0
LINE
  5
28D
100
AcDbEntity
  8
スト－ル
  6
CONTINUOUS
 62
     3
100
AcDbLine
 10
1339.584815
 20
605.998511
 30
0.0
 11
1345.418149
 21
640.998511
 31
0.0
  0
LINE
  5
28E
100
AcDbEntity
  8
スト－ル
  6
CONTINUOUS
 62
     3
100
AcDbLine
 10
1345.418149
 20
851.0
 30
0.0
 11
1339.584815
 21
886.0
 31
0.0
  0
LINE
  5
28F
100
AcDbEntity
  8
スト－ル
  6
CONTINUOUS
 62
     3
100
AcDbLine
 10
1339.584815
 20
886.0
 30
0.0
 11
1333.751482
 21
851.0
 31
0.0
  0
LEADER
  5
290
100
AcDbEntity
  8
スト－ル
  6
CONTINUOUS
 62
     6
100
AcDbLeader
  3
STANDARD
 73
     3
 74
     1
 75
     0
 40
0.0
 76
     2
 10
1535.910545
 20
592.600153
 30
0.0
 10
1494.277092
 20
520.488794
 30
0.0
 77
     6
1001
ACAD
1000
DSTYLE
1002
{
1070
    41
1040
35.0
1070
     5
1000
_EX_NORM
1070
     6
1000
_EX_NORM
1070
     7
1000
_EX_NORM
1070
   341
1005
2A
1002
}
  0
LEADER
  5
291
100
AcDbEntity
  8
スト－ル
  6
CONTINUOUS
 62
     6
100
AcDbLeader
  3
STANDARD
 73
     3
 74
     1
 75
     0
 40
0.0
 76
     2
 10
1533.410675
 20
522.600153
 30
0.0
 10
1491.804251
 20
450.535666
 30
0.0
 77
     6
1001
ACAD
1000
DSTYLE
1002
{
1070
    41
1040
35.0
1070
     5
1000
_EX_NORM
1070
     6
1000
_EX_NORM
1070
     7
1000
_EX_NORM
1070
   341
1005
2A
1002
}
  0
LINE
  5
292
100
AcDbEntity
  8
スト－ル
  6
CONTINUOUS
 62
     3
100
AcDbLine
 10
821.99997
 20
2664.0
 30
0.0
 11
925.0
 21
2664.0
 31
0.0
  0
LINE
  5
293
100
AcDbEntity
  8
スト－ル
  6
CONTINUOUS
 62
     3
100
AcDbLine
 10
662.189606
 20
2284.0
 30
0.0
 11
925.0
 21
2284.0
 31
0.0
  0
LINE
  5
294
100
AcDbEntity
  8
スト－ル
  6
CONTINUOUS
 62
     3
100
AcDbLine
 10
815.0
 20
2190.178131
 30
0.0
 11
815.0
 21
2495.0
 31
0.0
  0
LINE
  5
295
100
AcDbEntity
  8
スト－ル
  6
CONTINUOUS
 62
     3
100
AcDbLine
 10
435.0
 20
2190.178131
 30
0.0
 11
435.0
 21
2495.0
 31
0.0
  0
POLYLINE
  5
296
100
AcDbEntity
  8
スト－ル
  6
CONTINUOUS
 62
     3
100
AcDb2dPolyline
 66
     1
 10
0.0
 20
0.0
 30
0.0
 70
   128
  0
VERTEX
  5
297
100
AcDbEntity
  8
スト－ル
  6
CONTINUOUS
 62
     3
100
AcDbVertex
100
AcDb2dVertex
 10
914.058685
 20
2630.192627
 30
0.0
  0
VERTEX
  5
298
100
AcDbEntity
  8
スト－ル
  6
CONTINUOUS
 62
     3
100
AcDbVertex
100
AcDb2dVertex
 10
905.0
 20
2664.0
 30
0.0
  0
VERTEX
  5
299
100
AcDbEntity
  8
スト－ル
  6
CONTINUOUS
 62
     3
100
AcDbVertex
100
AcDb2dVertex
 10
895.941315
 20
2630.192627
 30
0.0
  0
SEQEND
  5
29A
100
AcDbEntity
  8
スト－ル
  6
CONTINUOUS
 62
     3
  0
POLYLINE
  5
29B
100
AcDbEntity
  8
スト－ル
  6
CONTINUOUS
 62
     3
100
AcDb2dPolyline
 66
     1
 10
0.0
 20
0.0
 30
0.0
 70
   128
  0
VERTEX
  5
29C
100
AcDbEntity
  8
スト－ル
  6
CONTINUOUS
 62
     3
100
AcDbVertex
100
AcDb2dVertex
 10
895.941315
 20
2317.807373
 30
0.0
  0
VERTEX
  5
29D
100
AcDbEntity
  8
スト－ル
  6
CONTINUOUS
 62
     3
100
AcDbVertex
100
AcDb2dVertex
 10
905.0
 20
2284.0
 30
0.0
  0
VERTEX
  5
29E
100
AcDbEntity
  8
スト－ル
  6
CONTINUOUS
 62
     3
100
AcDbVertex
100
AcDb2dVertex
 10
914.058685
 20
2317.807373
 30
0.0
  0
SEQEND
  5
29F
100
AcDbEntity
  8
スト－ル
  6
CONTINUOUS
 62
     3
  0
LINE
  5
2A0
100
AcDbEntity
  8
スト－ル
  6
CONTINUOUS
 62
     3
100
AcDbLine
 10
905.0
 20
2664.0
 30
0.0
 11
905.0
 21
2284.0
 31
0.0
  0
POLYLINE
  5
2A1
100
AcDbEntity
  8
スト－ル
  6
CONTINUOUS
 62
     3
100
AcDb2dPolyline
 66
     1
 10
0.0
 20
0.0
 30
0.0
 70
   128
  0
VERTEX
  5
2A2
100
AcDbEntity
  8
スト－ル
  6
CONTINUOUS
 62
     3
100
AcDbVertex
100
AcDb2dVertex
 10
468.807373
 20
2219.236816
 30
0.0
  0
VERTEX
  5
2A3
100
AcDbEntity
  8
スト－ル
  6
CONTINUOUS
 62
     3
100
AcDbVertex
100
AcDb2dVertex
 10
435.0
 20
2210.178131
 30
0.0
  0
VERTEX
  5
2A4
100
AcDbEntity
  8
スト－ル
  6
CONTINUOUS
 62
     3
100
AcDbVertex
100
AcDb2dVertex
 10
468.807373
 20
2201.119446
 30
0.0
  0
SEQEND
  5
2A5
100
AcDbEntity
  8
スト－ル
  6
CONTINUOUS
 62
     3
  0
POLYLINE
  5
2A6
100
AcDbEntity
  8
スト－ル
  6
CONTINUOUS
 62
     3
100
AcDb2dPolyline
 66
     1
 10
0.0
 20
0.0
 30
0.0
 70
   128
  0
VERTEX
  5
2A7
100
AcDbEntity
  8
スト－ル
  6
CONTINUOUS
 62
     3
100
AcDbVertex
100
AcDb2dVertex
 10
781.192627
 20
2201.119446
 30
0.0
  0
VERTEX
  5
2A8
100
AcDbEntity
  8
スト－ル
  6
CONTINUOUS
 62
     3
100
AcDbVertex
100
AcDb2dVertex
 10
815.0
 20
2210.178131
 30
0.0
  0
VERTEX
  5
2A9
100
AcDbEntity
  8
スト－ル
  6
CONTINUOUS
 62
     3
100
AcDbVertex
100
AcDb2dVertex
 10
781.192627
 20
2219.236816
 30
0.0
  0
SEQEND
  5
2AA
100
AcDbEntity
  8
スト－ル
  6
CONTINUOUS
 62
     3
  0
LINE
  5
2AB
100
AcDbEntity
  8
スト－ル
  6
CONTINUOUS
 62
     3
100
AcDbLine
 10
435.0
 20
2210.178131
 30
0.0
 11
815.0
 21
2210.178131
 31
0.0
  0
TEXT
  5
2AC
100
AcDbEntity
  8
スト－ル
  6
CONTINUOUS
 62
     2
100
AcDbText
 10
901.499939
 20
2415.999969
 30
0.0
 40
40.0
  1
３８０
 50
90.0
 41
0.833
  7
EXCADSTD
 72
     5
 11
901.499939
 21
2534.999969
 31
0.0
100
AcDbText
  0
TEXT
  5
2AD
100
AcDbEntity
  8
スト－ル
  6
CONTINUOUS
 62
     2
100
AcDbText
 10
566.99997
 20
2213.67804
 30
0.0
 40
40.0
  1
３８０
 41
0.833
  7
EXCADSTD
 72
     5
 11
685.999969
 21
2213.67804
 31
0.0
100
AcDbText
  0
ARC
  5
2AE
100
AcDbEntity
  8
スト－ル
  6
CONTINUOUS
 62
     7
100
AcDbCircle
 10
637.024387
 20
2529.480713
 30
0.0
 40
200.0
100
AcDbArc
 50
181.526123
 51
215.696289
  0
LINE
  5
2AF
100
AcDbEntity
  8
スト－ル
  6
CONTINUOUS
 62
     7
100
AcDbLine
 10
815.000949
 20
2664.0
 30
0.0
 11
435.000949
 21
2664.0
 31
0.0
  0
ARC
  5
2B0
100
AcDbEntity
  8
スト－ル
  6
CONTINUOUS
 62
     7
100
AcDbCircle
 10
6434.96677
 20
2683.95459
 30
0.0
 40
6000.0
100
AcDbArc
 50
180.190552
 51
181.526123
  0
ARC
  5
2B1
100
AcDbEntity
  8
スト－ル
  6
CONTINUOUS
 62
     7
100
AcDbCircle
 10
2098.842258
 20
3579.761047
 30
0.0
 40
2000.0
100
AcDbArc
 50
215.696289
 51
219.369995
  0
ARC
  5
2B2
100
AcDbEntity
  8
スト－ル
  6
CONTINUOUS
 62
     7
100
AcDbCircle
 10
1402.592258
 20
2910.17926
 30
0.0
 40
1000.0
100
AcDbArc
 50
206.440063
 51
214.87738
  0
ARC
  5
2B3
100
AcDbEntity
  8
スト－ル
  6
CONTINUOUS
 62
     7
100
AcDbCircle
 10
-152.591336
 20
2910.179016
 30
0.0
 40
1000.0
100
AcDbArc
 50
325.12262
 51
333.559937
  0
ARC
  5
2B4
100
AcDbEntity
  8
スト－ル
  6
CONTINUOUS
 62
     7
100
AcDbCircle
 10
-848.841824
 20
3579.760803
 30
0.0
 40
2000.0
100
AcDbArc
 50
320.630005
 51
324.303711
  0
LINE
  5
2B5
100
AcDbEntity
  8
スト－ル
  6
EXLTYPE3
 62
     1
100
AcDbLine
 10
625.000461
 20
2272.627075
 30
0.0
 11
624.99996
 21
2697.999011
 31
0.0
  0
ARC
  5
2B6
100
AcDbEntity
  8
スト－ル
  6
CONTINUOUS
 62
     7
100
AcDbCircle
 10
606.826145
 20
2355.511475
 30
0.0
 40
30.0
100
AcDbArc
 50
214.87738
 51
260.489868
  0
ARC
  5
2B7
100
AcDbEntity
  8
スト－ル
  6
CONTINUOUS
 62
     7
100
AcDbCircle
 10
625.000461
 20
2464.0
 30
0.0
 40
180.0
100
AcDbArc
 50
260.489563
 51
279.510193
  0
ARC
  5
2B8
100
AcDbEntity
  8
スト－ル
  6
CONTINUOUS
 62
     7
100
AcDbCircle
 10
606.825656
 20
2355.511963
 30
0.0
 40
70.0
100
AcDbArc
 50
219.369995
 51
260.489563
  0
ARC
  5
2B9
100
AcDbEntity
  8
スト－ル
  6
CONTINUOUS
 62
     7
100
AcDbCircle
 10
643.175266
 20
2355.511597
 30
0.0
 40
70.0
100
AcDbArc
 50
279.510132
 51
320.630005
  0
ARC
  5
2BA
100
AcDbEntity
  8
スト－ル
  6
CONTINUOUS
 62
     7
100
AcDbCircle
 10
625.000461
 20
2464.0
 30
0.0
 40
140.0
100
AcDbArc
 50
260.489807
 51
279.510254
  0
ARC
  5
2BB
100
AcDbEntity
  8
スト－ル
  6
CONTINUOUS
 62
     7
100
AcDbCircle
 10
643.175266
 20
2355.511475
 30
0.0
 40
30.0
100
AcDbArc
 50
279.510132
 51
325.12262
  0
ARC
  5
2BC
100
AcDbEntity
  8
スト－ル
  6
CONTINUOUS
 62
     7
100
AcDbCircle
 10
612.976535
 20
2529.480713
 30
0.0
 40
145.0
100
AcDbArc
 50
333.559937
 51
345.704285
  0
ARC
  5
2BD
100
AcDbEntity
  8
スト－ル
  6
CONTINUOUS
 62
     7
100
AcDbCircle
 10
723.894992
 20
2481.938721
 30
0.0
 40
30.0
100
AcDbArc
 50
41.181335
 51
87.60849
  0
ARC
  5
2BE
100
AcDbEntity
  8
スト－ル
  6
CONTINUOUS
 62
     7
100
AcDbCircle
 10
6449.255832
 20
2758.469604
 30
0.0
 40
6000.0
100
AcDbArc
 50
180.902161
 51
182.722046
  0
ARC
  5
2BF
100
AcDbEntity
  8
スト－ル
  6
CONTINUOUS
 62
     7
100
AcDbCircle
 10
625.000461
 20
114.003174
 30
0.0
 40
2400.0
100
AcDbArc
 50
87.60849
 51
92.39151
  0
ARC
  5
2C0
100
AcDbEntity
  8
スト－ル
  6
CONTINUOUS
 62
     7
100
AcDbCircle
 10
526.10593
 20
2481.938721
 30
0.0
 40
30.0
100
AcDbArc
 50
92.39151
 51
138.818481
  0
ARC
  5
2C1
100
AcDbEntity
  8
スト－ル
  6
CONTINUOUS
 62
     7
100
AcDbCircle
 10
637.024387
 20
2529.480713
 30
0.0
 40
145.0
100
AcDbArc
 50
194.295776
 51
206.440063
  0
LINE
  5
2C2
100
AcDbEntity
  8
スト－ル
  6
CONTINUOUS
 62
     7
100
AcDbLine
 10
503.527316
 20
2501.692017
 30
0.0
 11
473.540012
 21
2467.415527
 31
0.0
  0
ARC
  5
2C3
100
AcDbEntity
  8
スト－ル
  6
CONTINUOUS
 62
     7
100
AcDbCircle
 10
466.013645
 20
2474.0
 30
0.0
 40
10.0
100
AcDbArc
 50
182.722046
 51
318.818848
  0
ARC
  5
2C4
100
AcDbEntity
  8
スト－ル
  6
CONTINUOUS
 62
     7
100
AcDbCircle
 10
-5199.25491
 20
2758.469604
 30
0.0
 40
6000.0
100
AcDbArc
 50
357.277954
 51
359.097839
  0
ARC
  5
2C5
100
AcDbEntity
  8
スト－ル
  6
CONTINUOUS
 62
     7
100
AcDbCircle
 10
-5184.966336
 20
2683.953613
 30
0.0
 40
6000.0
100
AcDbArc
 50
358.473877
 51
359.809448
  0
ARC
  5
2C6
100
AcDbEntity
  8
スト－ル
  6
CONTINUOUS
 62
     7
100
AcDbCircle
 10
612.976535
 20
2529.480713
 30
0.0
 40
200.0
100
AcDbArc
 50
324.303711
 51
358.473877
  0
LINE
  5
2C7
100
AcDbEntity
  8
スト－ル
  6
CONTINUOUS
 62
     7
100
AcDbLine
 10
746.473606
 20
2501.692017
 30
0.0
 11
776.46091
 21
2467.415649
 31
0.0
  0
ARC
  5
2C8
100
AcDbEntity
  8
スト－ル
  6
CONTINUOUS
 62
     7
100
AcDbCircle
 10
783.987277
 20
2474.0
 30
0.0
 40
10.0
100
AcDbArc
 50
221.181458
 51
357.277954
  0
ARC
  5
2C9
100
AcDbEntity
  8
スト－ル
  6
CONTINUOUS
 62
     7
100
AcDbCircle
 10
656.510022
 20
2460.821722
 30
0.0
 40
90.0
100
AcDbArc
 50
205.77678
 51
230.935266
  0
ARC
  5
2CA
100
AcDbEntity
  8
スト－ル
  6
CONTINUOUS
 62
     7
100
AcDbCircle
 10
638.50012
 20
2452.124398
 30
0.0
 40
70.0
100
AcDbArc
 50
180.0
 51
205.77678
  0
ARC
  5
2CB
100
AcDbEntity
  8
スト－ル
  6
CONTINUOUS
 62
     7
100
AcDbCircle
 10
593.490218
 20
2460.821722
 30
0.0
 40
90.0
100
AcDbArc
 50
309.064734
 51
334.22322
  0
ARC
  5
2CC
100
AcDbEntity
  8
スト－ル
  6
CONTINUOUS
 62
     7
100
AcDbCircle
 10
611.50012
 20
2452.124398
 30
0.0
 40
70.0
100
AcDbArc
 50
334.22322
 51
0.0
  0
ARC
  5
2CD
100
AcDbEntity
  8
スト－ル
  6
CONTINUOUS
 62
     7
100
AcDbCircle
 10
625.00012
 20
2422.0
 30
0.0
 40
40.0
100
AcDbArc
 50
230.935266
 51
309.064734
  0
LINE
  5
2CE
100
AcDbEntity
  8
スト－ル
  6
CONTINUOUS
 62
     7
100
AcDbLine
 10
568.50012
 20
2452.124398
 30
0.0
 11
568.50012
 21
2513.338022
 31
0.0
  0
LINE
  5
2CF
100
AcDbEntity
  8
スト－ル
  6
CONTINUOUS
 62
     7
100
AcDbLine
 10
681.50012
 20
2452.124398
 30
0.0
 11
681.50012
 21
2513.338038
 31
0.0
  0
LINE
  5
2D0
100
AcDbEntity
  8
スト－ル
  6
CONTINUOUS
 62
     2
100
AcDbLine
 10
555.288553
 20
2512.990479
 30
0.0
 11
555.288553
 21
2444.0
 31
0.0
  0
ARC
  5
2D1
100
AcDbEntity
  8
スト－ル
  6
CONTINUOUS
 62
     2
100
AcDbCircle
 10
605.288553
 20
2444.0
 30
0.0
 40
50.0
100
AcDbArc
 50
179.999997
 51
214.638546
  0
ARC
  5
2D2
100
AcDbEntity
  8
スト－ル
  6
CONTINUOUS
 62
     2
100
AcDbCircle
 10
687.563944
 20
2500.839844
 30
0.0
 40
150.0
100
AcDbArc
 50
214.638485
 51
231.271236
  0
ARC
  5
2D3
100
AcDbEntity
  8
スト－ル
  6
CONTINUOUS
 62
     2
100
AcDbCircle
 10
625.000467
 20
2422.828125
 30
0.0
 40
50.0
100
AcDbArc
 50
231.271236
 51
308.728755
  0
ARC
  5
2D4
100
AcDbEntity
  8
スト－ル
  6
CONTINUOUS
 62
     2
100
AcDbCircle
 10
562.43699
 20
2500.839844
 30
0.0
 40
150.0
100
AcDbArc
 50
308.728755
 51
325.361506
  0
ARC
  5
2D5
100
AcDbEntity
  8
スト－ル
  6
CONTINUOUS
 62
     2
100
AcDbCircle
 10
644.712381
 20
2444.0
 30
0.0
 40
50.0
100
AcDbArc
 50
325.361445
 51
0.0
  0
LINE
  5
2D6
100
AcDbEntity
  8
スト－ル
  6
CONTINUOUS
 62
     2
100
AcDbLine
 10
694.712381
 20
2512.990479
 30
0.0
 11
694.712381
 21
2444.0
 31
0.0
  0
LINE
  5
2D7
100
AcDbEntity
  8
スト－ル
  6
CONTINUOUS
 62
     2
100
AcDbLine
 10
580.50012
 20
2452.124398
 30
0.0
 11
580.50012
 21
2513.59058
 31
0.0
  0
ARC
  5
2D8
100
AcDbEntity
  8
スト－ル
  6
CONTINUOUS
 62
     2
100
AcDbCircle
 10
638.50012
 20
2452.124398
 30
0.0
 40
58.0
100
AcDbArc
 50
180.0
 51
205.77678
  0
ARC
  5
2D9
100
AcDbEntity
  8
スト－ル
  6
CONTINUOUS
 62
     2
100
AcDbCircle
 10
656.510022
 20
2460.821722
 30
0.0
 40
78.0
100
AcDbArc
 50
205.77678
 51
218.749709
  0
ARC
  5
2DA
100
AcDbEntity
  8
スト－ル
  6
CONTINUOUS
 62
     2
100
AcDbCircle
 10
593.490218
 20
2460.821722
 30
0.0
 40
78.0
100
AcDbArc
 50
321.250291
 51
334.22322
  0
ARC
  5
2DB
100
AcDbEntity
  8
スト－ル
  6
CONTINUOUS
 62
     2
100
AcDbCircle
 10
611.50012
 20
2452.124398
 30
0.0
 40
58.0
100
AcDbArc
 50
334.22322
 51
0.0
  0
LINE
  5
2DC
100
AcDbEntity
  8
スト－ル
  6
CONTINUOUS
 62
     2
100
AcDbLine
 10
669.50012
 20
2513.590593
 30
0.0
 11
669.50012
 21
2452.124398
 31
0.0
  0
ARC
  5
2DD
100
AcDbEntity
  8
スト－ル
  6
CONTINUOUS
 62
     2
100
AcDbCircle
 10
627.956957
 20
2489.0
 30
0.0
 40
3.0
100
AcDbArc
 50
359.181545
 51
90.0
  0
LINE
  5
2DE
100
AcDbEntity
  8
スト－ル
  6
CONTINUOUS
 62
     2
100
AcDbLine
 10
627.956957
 20
2492.0
 30
0.0
 11
622.043283
 21
2492.0
 31
0.0
  0
ARC
  5
2DF
100
AcDbEntity
  8
スト－ル
  6
CONTINUOUS
 62
     2
100
AcDbCircle
 10
622.043283
 20
2489.0
 30
0.0
 40
3.0
100
AcDbArc
 50
90.0
 51
180.818455
  0
LINE
  5
2E0
100
AcDbEntity
  8
スト－ル
  6
CONTINUOUS
 62
     2
100
AcDbLine
 10
620.142977
 20
2412.0
 30
0.0
 11
619.043589
 21
2488.957147
 31
0.0
  0
LINE
  5
2E1
100
AcDbEntity
  8
スト－ル
  6
CONTINUOUS
 62
     2
100
AcDbLine
 10
629.857263
 20
2412.0
 30
0.0
 11
630.956651
 21
2488.957147
 31
0.0
  0
ARC
  5
2E2
100
AcDbEntity
  8
スト－ル
  6
CONTINUOUS
 62
     2
100
AcDbCircle
 10
625.00012
 20
2512.0
 30
0.0
 40
5.5
100
AcDbArc
 50
158.702003
 51
21.298013
  0
ARC
  5
2E3
100
AcDbEntity
  8
スト－ル
  6
CONTINUOUS
 62
     6
100
AcDbCircle
 10
629.999695
 20
1547.014709
 30
0.0
 40
10.000286
100
AcDbArc
 50
31.787048
 51
36.869019
  0
LINE
  5
2E4
100
AcDbEntity
  8
スト－ル
  6
CONTINUOUS
 62
     6
100
AcDbLine
 10
611.999969
 20
1553.01477
 30
0.0
 11
638.000031
 21
1553.01477
 31
0.0
  0
ARC
  5
2E5
100
AcDbEntity
  8
スト－ル
  6
CONTINUOUS
 62
     6
100
AcDbCircle
 10
620.000305
 20
1547.014709
 30
0.0
 40
10.000305
100
AcDbArc
 50
143.130981
 51
148.212967
  0
LINE
  5
2E6
100
AcDbEntity
  8
スト－ル
  6
CONTINUOUS
 62
     6
100
AcDbLine
 10
611.499939
 20
1541.746918
 30
0.0
 11
611.499939
 21
1552.282501
 31
0.0
  0
ARC
  5
2E7
100
AcDbEntity
  8
スト－ル
  6
CONTINUOUS
 62
     6
100
AcDbCircle
 10
620.000305
 20
1547.014709
 30
0.0
 40
10.000286
100
AcDbArc
 50
211.787033
 51
216.869019
  0
LINE
  5
2E8
100
AcDbEntity
  8
スト－ル
  6
CONTINUOUS
 62
     6
100
AcDbLine
 10
611.999969
 20
1541.014648
 30
0.0
 11
638.000031
 21
1541.014648
 31
0.0
  0
ARC
  5
2E9
100
AcDbEntity
  8
スト－ル
  6
CONTINUOUS
 62
     6
100
AcDbCircle
 10
629.999695
 20
1547.014709
 30
0.0
 40
10.000305
100
AcDbArc
 50
323.130981
 51
328.212952
  0
LINE
  5
2EA
100
AcDbEntity
  8
スト－ル
  6
CONTINUOUS
 62
     6
100
AcDbLine
 10
638.500061
 20
1541.746918
 30
0.0
 11
638.500061
 21
1552.282501
 31
0.0
  0
POLYLINE
  5
2EB
100
AcDbEntity
  8
スト－ル
  6
CONTINUOUS
 62
     6
100
AcDb2dPolyline
 66
     1
 10
0.0
 20
0.0
 30
0.0
 70
   128
  0
VERTEX
  5
2EC
100
AcDbEntity
  8
スト－ル
  6
CONTINUOUS
 62
     6
100
AcDbVertex
100
AcDb2dVertex
 10
637.412109
 20
1547.015015
 30
0.0
  0
VERTEX
  5
2ED
100
AcDbEntity
  8
スト－ル
  6
CONTINUOUS
 62
     6
100
AcDbVertex
100
AcDb2dVertex
 10
637.390442
 20
1547.474152
 30
0.0
  0
VERTEX
  5
2EE
100
AcDbEntity
  8
スト－ル
  6
CONTINUOUS
 62
     6
100
AcDbVertex
100
AcDb2dVertex
 10
637.32605
 20
1547.930084
 30
0.0
  0
VERTEX
  5
2EF
100
AcDbEntity
  8
スト－ル
  6
CONTINUOUS
 62
     6
100
AcDbVertex
100
AcDb2dVertex
 10
637.219086
 20
1548.378387
 30
0.0
  0
VERTEX
  5
2F0
100
AcDbEntity
  8
スト－ル
  6
CONTINUOUS
 62
     6
100
AcDbVertex
100
AcDb2dVertex
 10
637.070465
 20
1548.81662
 30
0.0
  0
VERTEX
  5
2F1
100
AcDbEntity
  8
スト－ル
  6
CONTINUOUS
 62
     6
100
AcDbVertex
100
AcDb2dVertex
 10
636.881561
 20
1549.241425
 30
0.0
  0
VERTEX
  5
2F2
100
AcDbEntity
  8
スト－ル
  6
CONTINUOUS
 62
     6
100
AcDbVertex
100
AcDb2dVertex
 10
636.653595
 20
1549.648834
 30
0.0
  0
VERTEX
  5
2F3
100
AcDbEntity
  8
スト－ル
  6
CONTINUOUS
 62
     6
100
AcDbVertex
100
AcDb2dVertex
 10
636.388092
 20
1550.036407
 30
0.0
  0
VERTEX
  5
2F4
100
AcDbEntity
  8
スト－ル
  6
CONTINUOUS
 62
     6
100
AcDbVertex
100
AcDb2dVertex
 10
636.087494
 20
1550.401245
 30
0.0
  0
VERTEX
  5
2F5
100
AcDbEntity
  8
スト－ル
  6
CONTINUOUS
 62
     6
100
AcDbVertex
100
AcDb2dVertex
 10
635.753784
 20
1550.739838
 30
0.0
  0
VERTEX
  5
2F6
100
AcDbEntity
  8
スト－ル
  6
CONTINUOUS
 62
     6
100
AcDbVertex
100
AcDb2dVertex
 10
635.389557
 20
1551.050354
 30
0.0
  0
VERTEX
  5
2F7
100
AcDbEntity
  8
スト－ル
  6
CONTINUOUS
 62
     6
100
AcDbVertex
100
AcDb2dVertex
 10
634.997711
 20
1551.330048
 30
0.0
  0
VERTEX
  5
2F8
100
AcDbEntity
  8
スト－ル
  6
CONTINUOUS
 62
     6
100
AcDbVertex
100
AcDb2dVertex
 10
634.581146
 20
1551.576935
 30
0.0
  0
VERTEX
  5
2F9
100
AcDbEntity
  8
スト－ル
  6
CONTINUOUS
 62
     6
100
AcDbVertex
100
AcDb2dVertex
 10
634.143066
 20
1551.789185
 30
0.0
  0
VERTEX
  5
2FA
100
AcDbEntity
  8
スト－ル
  6
CONTINUOUS
 62
     6
100
AcDbVertex
100
AcDb2dVertex
 10
633.686676
 20
1551.965118
 30
0.0
  0
VERTEX
  5
2FB
100
AcDbEntity
  8
スト－ル
  6
CONTINUOUS
 62
     6
100
AcDbVertex
100
AcDb2dVertex
 10
633.215637
 20
1552.103058
 30
0.0
  0
VERTEX
  5
2FC
100
AcDbEntity
  8
スト－ル
  6
CONTINUOUS
 62
     6
100
AcDbVertex
100
AcDb2dVertex
 10
632.733459
 20
1552.202545
 30
0.0
  0
VERTEX
  5
2FD
100
AcDbEntity
  8
スト－ル
  6
CONTINUOUS
 62
     6
100
AcDbVertex
100
AcDb2dVertex
 10
632.243652
 20
1552.262512
 30
0.0
  0
VERTEX
  5
2FE
100
AcDbEntity
  8
スト－ル
  6
CONTINUOUS
 62
     6
100
AcDbVertex
100
AcDb2dVertex
 10
631.750183
 20
1552.282654
 30
0.0
  0
VERTEX
  5
2FF
100
AcDbEntity
  8
スト－ル
  6
CONTINUOUS
 62
     6
100
AcDbVertex
100
AcDb2dVertex
 10
631.256714
 20
1552.262665
 30
0.0
  0
VERTEX
  5
300
100
AcDbEntity
  8
スト－ル
  6
CONTINUOUS
 62
     6
100
AcDbVertex
100
AcDb2dVertex
 10
630.766907
 20
1552.202698
 30
0.0
  0
VERTEX
  5
301
100
AcDbEntity
  8
スト－ル
  6
CONTINUOUS
 62
     6
100
AcDbVertex
100
AcDb2dVertex
 10
630.284729
 20
1552.103058
 30
0.0
  0
VERTEX
  5
302
100
AcDbEntity
  8
スト－ル
  6
CONTINUOUS
 62
     6
100
AcDbVertex
100
AcDb2dVertex
 10
629.81369
 20
1551.964813
 30
0.0
  0
VERTEX
  5
303
100
AcDbEntity
  8
スト－ル
  6
CONTINUOUS
 62
     6
100
AcDbVertex
100
AcDb2dVertex
 10
629.3573
 20
1551.788879
 30
0.0
  0
VERTEX
  5
304
100
AcDbEntity
  8
スト－ル
  6
CONTINUOUS
 62
     6
100
AcDbVertex
100
AcDb2dVertex
 10
628.919067
 20
1551.576935
 30
0.0
  0
VERTEX
  5
305
100
AcDbEntity
  8
スト－ル
  6
CONTINUOUS
 62
     6
100
AcDbVertex
100
AcDb2dVertex
 10
628.502502
 20
1551.330048
 30
0.0
  0
VERTEX
  5
306
100
AcDbEntity
  8
スト－ル
  6
CONTINUOUS
 62
     6
100
AcDbVertex
100
AcDb2dVertex
 10
628.110657
 20
1551.050354
 30
0.0
  0
VERTEX
  5
307
100
AcDbEntity
  8
スト－ル
  6
CONTINUOUS
 62
     6
100
AcDbVertex
100
AcDb2dVertex
 10
627.746429
 20
1550.739838
 30
0.0
  0
VERTEX
  5
308
100
AcDbEntity
  8
スト－ル
  6
CONTINUOUS
 62
     6
100
AcDbVertex
100
AcDb2dVertex
 10
627.41272
 20
1550.401093
 30
0.0
  0
VERTEX
  5
309
100
AcDbEntity
  8
スト－ル
  6
CONTINUOUS
 62
     6
100
AcDbVertex
100
AcDb2dVertex
 10
627.112122
 20
1550.03656
 30
0.0
  0
VERTEX
  5
30A
100
AcDbEntity
  8
スト－ル
  6
CONTINUOUS
 62
     6
100
AcDbVertex
100
AcDb2dVertex
 10
626.846771
 20
1549.648834
 30
0.0
  0
VERTEX
  5
30B
100
AcDbEntity
  8
スト－ル
  6
CONTINUOUS
 62
     6
100
AcDbVertex
100
AcDb2dVertex
 10
626.618805
 20
1549.241272
 30
0.0
  0
VERTEX
  5
30C
100
AcDbEntity
  8
スト－ル
  6
CONTINUOUS
 62
     6
100
AcDbVertex
100
AcDb2dVertex
 10
626.429748
 20
1548.816772
 30
0.0
  0
VERTEX
  5
30D
100
AcDbEntity
  8
スト－ル
  6
CONTINUOUS
 62
     6
100
AcDbVertex
100
AcDb2dVertex
 10
626.281128
 20
1548.378387
 30
0.0
  0
VERTEX
  5
30E
100
AcDbEntity
  8
スト－ル
  6
CONTINUOUS
 62
     6
100
AcDbVertex
100
AcDb2dVertex
 10
626.174316
 20
1547.929779
 30
0.0
  0
VERTEX
  5
30F
100
AcDbEntity
  8
スト－ル
  6
CONTINUOUS
 62
     6
100
AcDbVertex
100
AcDb2dVertex
 10
626.109772
 20
1547.474152
 30
0.0
  0
VERTEX
  5
310
100
AcDbEntity
  8
スト－ル
  6
CONTINUOUS
 62
     6
100
AcDbVertex
100
AcDb2dVertex
 10
626.088257
 20
1547.015015
 30
0.0
  0
VERTEX
  5
311
100
AcDbEntity
  8
スト－ル
  6
CONTINUOUS
 62
     6
100
AcDbVertex
100
AcDb2dVertex
 10
626.109924
 20
1546.55603
 30
0.0
  0
VERTEX
  5
312
100
AcDbEntity
  8
スト－ル
  6
CONTINUOUS
 62
     6
100
AcDbVertex
100
AcDb2dVertex
 10
626.174316
 20
1546.100555
 30
0.0
  0
VERTEX
  5
313
100
AcDbEntity
  8
スト－ル
  6
CONTINUOUS
 62
     6
100
AcDbVertex
100
AcDb2dVertex
 10
626.281128
 20
1545.651337
 30
0.0
  0
VERTEX
  5
314
100
AcDbEntity
  8
スト－ル
  6
CONTINUOUS
 62
     6
100
AcDbVertex
100
AcDb2dVertex
 10
626.429748
 20
1545.213104
 30
0.0
  0
VERTEX
  5
315
100
AcDbEntity
  8
スト－ル
  6
CONTINUOUS
 62
     6
100
AcDbVertex
100
AcDb2dVertex
 10
626.618652
 20
1544.7883
 30
0.0
  0
VERTEX
  5
316
100
AcDbEntity
  8
スト－ル
  6
CONTINUOUS
 62
     6
100
AcDbVertex
100
AcDb2dVertex
 10
626.846771
 20
1544.380737
 30
0.0
  0
VERTEX
  5
317
100
AcDbEntity
  8
スト－ル
  6
CONTINUOUS
 62
     6
100
AcDbVertex
100
AcDb2dVertex
 10
627.112274
 20
1543.993164
 30
0.0
  0
VERTEX
  5
318
100
AcDbEntity
  8
スト－ル
  6
CONTINUOUS
 62
     6
100
AcDbVertex
100
AcDb2dVertex
 10
627.412872
 20
1543.628326
 30
0.0
  0
VERTEX
  5
319
100
AcDbEntity
  8
スト－ル
  6
CONTINUOUS
 62
     6
100
AcDbVertex
100
AcDb2dVertex
 10
627.746429
 20
1543.289887
 30
0.0
  0
VERTEX
  5
31A
100
AcDbEntity
  8
スト－ル
  6
CONTINUOUS
 62
     6
100
AcDbVertex
100
AcDb2dVertex
 10
628.110657
 20
1542.97937
 30
0.0
  0
VERTEX
  5
31B
100
AcDbEntity
  8
スト－ル
  6
CONTINUOUS
 62
     6
100
AcDbVertex
100
AcDb2dVertex
 10
628.502502
 20
1542.699677
 30
0.0
  0
VERTEX
  5
31C
100
AcDbEntity
  8
スト－ル
  6
CONTINUOUS
 62
     6
100
AcDbVertex
100
AcDb2dVertex
 10
628.919067
 20
1542.452789
 30
0.0
  0
VERTEX
  5
31D
100
AcDbEntity
  8
スト－ル
  6
CONTINUOUS
 62
     6
100
AcDbVertex
100
AcDb2dVertex
 10
629.357147
 20
1542.24054
 30
0.0
  0
VERTEX
  5
31E
100
AcDbEntity
  8
スト－ル
  6
CONTINUOUS
 62
     6
100
AcDbVertex
100
AcDb2dVertex
 10
629.813538
 20
1542.064606
 30
0.0
  0
VERTEX
  5
31F
100
AcDbEntity
  8
スト－ル
  6
CONTINUOUS
 62
     6
100
AcDbVertex
100
AcDb2dVertex
 10
630.284729
 20
1541.926514
 30
0.0
  0
VERTEX
  5
320
100
AcDbEntity
  8
スト－ル
  6
CONTINUOUS
 62
     6
100
AcDbVertex
100
AcDb2dVertex
 10
630.767059
 20
1541.827026
 30
0.0
  0
VERTEX
  5
321
100
AcDbEntity
  8
スト－ル
  6
CONTINUOUS
 62
     6
100
AcDbVertex
100
AcDb2dVertex
 10
631.256714
 20
1541.767059
 30
0.0
  0
VERTEX
  5
322
100
AcDbEntity
  8
スト－ル
  6
CONTINUOUS
 62
     6
100
AcDbVertex
100
AcDb2dVertex
 10
631.750183
 20
1541.746765
 30
0.0
  0
VERTEX
  5
323
100
AcDbEntity
  8
スト－ル
  6
CONTINUOUS
 62
     6
100
AcDbVertex
100
AcDb2dVertex
 10
632.243652
 20
1541.766754
 30
0.0
  0
VERTEX
  5
324
100
AcDbEntity
  8
スト－ル
  6
CONTINUOUS
 62
     6
100
AcDbVertex
100
AcDb2dVertex
 10
632.733459
 20
1541.826721
 30
0.0
  0
VERTEX
  5
325
100
AcDbEntity
  8
スト－ル
  6
CONTINUOUS
 62
     6
100
AcDbVertex
100
AcDb2dVertex
 10
633.215637
 20
1541.926514
 30
0.0
  0
VERTEX
  5
326
100
AcDbEntity
  8
スト－ル
  6
CONTINUOUS
 62
     6
100
AcDbVertex
100
AcDb2dVertex
 10
633.686676
 20
1542.064758
 30
0.0
  0
VERTEX
  5
327
100
AcDbEntity
  8
スト－ル
  6
CONTINUOUS
 62
     6
100
AcDbVertex
100
AcDb2dVertex
 10
634.143066
 20
1542.240692
 30
0.0
  0
SEQEND
  5
328
100
AcDbEntity
  8
スト－ル
  6
CONTINUOUS
 62
     6
  0
POLYLINE
  5
329
100
AcDbEntity
  8
スト－ル
  6
CONTINUOUS
 62
     6
100
AcDb2dPolyline
 66
     1
 10
0.0
 20
0.0
 30
0.0
 70
   128
  0
VERTEX
  5
32A
100
AcDbEntity
  8
スト－ル
  6
CONTINUOUS
 62
     6
100
AcDbVertex
100
AcDb2dVertex
 10
634.143066
 20
1542.240692
 30
0.0
  0
VERTEX
  5
32B
100
AcDbEntity
  8
スト－ル
  6
CONTINUOUS
 62
     6
100
AcDbVertex
100
AcDb2dVertex
 10
634.581146
 20
1542.452789
 30
0.0
  0
VERTEX
  5
32C
100
AcDbEntity
  8
スト－ル
  6
CONTINUOUS
 62
     6
100
AcDbVertex
100
AcDb2dVertex
 10
634.997711
 20
1542.699677
 30
0.0
  0
VERTEX
  5
32D
100
AcDbEntity
  8
スト－ル
  6
CONTINUOUS
 62
     6
100
AcDbVertex
100
AcDb2dVertex
 10
635.389557
 20
1542.97937
 30
0.0
  0
VERTEX
  5
32E
100
AcDbEntity
  8
スト－ル
  6
CONTINUOUS
 62
     6
100
AcDbVertex
100
AcDb2dVertex
 10
635.753784
 20
1543.289887
 30
0.0
  0
VERTEX
  5
32F
100
AcDbEntity
  8
スト－ル
  6
CONTINUOUS
 62
     6
100
AcDbVertex
100
AcDb2dVertex
 10
636.087494
 20
1543.628632
 30
0.0
  0
VERTEX
  5
330
100
AcDbEntity
  8
スト－ル
  6
CONTINUOUS
 62
     6
100
AcDbVertex
100
AcDb2dVertex
 10
636.388092
 20
1543.993164
 30
0.0
  0
VERTEX
  5
331
100
AcDbEntity
  8
スト－ル
  6
CONTINUOUS
 62
     6
100
AcDbVertex
100
AcDb2dVertex
 10
636.653595
 20
1544.380737
 30
0.0
  0
VERTEX
  5
332
100
AcDbEntity
  8
スト－ル
  6
CONTINUOUS
 62
     6
100
AcDbVertex
100
AcDb2dVertex
 10
636.881561
 20
1544.7883
 30
0.0
  0
VERTEX
  5
333
100
AcDbEntity
  8
スト－ル
  6
CONTINUOUS
 62
     6
100
AcDbVertex
100
AcDb2dVertex
 10
637.070618
 20
1545.212799
 30
0.0
  0
VERTEX
  5
334
100
AcDbEntity
  8
スト－ル
  6
CONTINUOUS
 62
     6
100
AcDbVertex
100
AcDb2dVertex
 10
637.219086
 20
1545.651337
 30
0.0
  0
SEQEND
  5
335
100
AcDbEntity
  8
スト－ル
  6
CONTINUOUS
 62
     6
  0
POLYLINE
  5
336
100
AcDbEntity
  8
スト－ル
  6
CONTINUOUS
 62
     6
100
AcDb2dPolyline
 66
     1
 10
0.0
 20
0.0
 30
0.0
 70
   128
  0
VERTEX
  5
337
100
AcDbEntity
  8
スト－ル
  6
CONTINUOUS
 62
     6
100
AcDbVertex
100
AcDb2dVertex
 10
637.219086
 20
1545.651337
 30
0.0
  0
VERTEX
  5
338
100
AcDbEntity
  8
スト－ル
  6
CONTINUOUS
 62
     6
100
AcDbVertex
100
AcDb2dVertex
 10
637.325897
 20
1546.099945
 30
0.0
  0
VERTEX
  5
339
100
AcDbEntity
  8
スト－ル
  6
CONTINUOUS
 62
     6
100
AcDbVertex
100
AcDb2dVertex
 10
637.390442
 20
1546.555572
 30
0.0
  0
VERTEX
  5
33A
100
AcDbEntity
  8
スト－ル
  6
CONTINUOUS
 62
     6
100
AcDbVertex
100
AcDb2dVertex
 10
637.411957
 20
1547.014404
 30
0.0
  0
SEQEND
  5
33B
100
AcDbEntity
  8
スト－ル
  6
CONTINUOUS
 62
     6
  0
POLYLINE
  5
33C
100
AcDbEntity
  8
スト－ル
  6
CONTINUOUS
 62
     6
100
AcDb2dPolyline
 66
     1
 10
0.0
 20
0.0
 30
0.0
 70
   128
  0
VERTEX
  5
33D
100
AcDbEntity
  8
スト－ル
  6
CONTINUOUS
 62
     6
100
AcDbVertex
100
AcDb2dVertex
 10
623.912354
 20
1547.015015
 30
0.0
  0
VERTEX
  5
33E
100
AcDbEntity
  8
スト－ル
  6
CONTINUOUS
 62
     6
100
AcDbVertex
100
AcDb2dVertex
 10
623.890686
 20
1547.474152
 30
0.0
  0
VERTEX
  5
33F
100
AcDbEntity
  8
スト－ル
  6
CONTINUOUS
 62
     6
100
AcDbVertex
100
AcDb2dVertex
 10
623.826294
 20
1547.930084
 30
0.0
  0
VERTEX
  5
340
100
AcDbEntity
  8
スト－ル
  6
CONTINUOUS
 62
     6
100
AcDbVertex
100
AcDb2dVertex
 10
623.719482
 20
1548.378387
 30
0.0
  0
VERTEX
  5
341
100
AcDbEntity
  8
スト－ル
  6
CONTINUOUS
 62
     6
100
AcDbVertex
100
AcDb2dVertex
 10
623.570862
 20
1548.81662
 30
0.0
  0
VERTEX
  5
342
100
AcDbEntity
  8
スト－ル
  6
CONTINUOUS
 62
     6
100
AcDbVertex
100
AcDb2dVertex
 10
623.381958
 20
1549.241425
 30
0.0
  0
VERTEX
  5
343
100
AcDbEntity
  8
スト－ル
  6
CONTINUOUS
 62
     6
100
AcDbVertex
100
AcDb2dVertex
 10
623.153839
 20
1549.648834
 30
0.0
  0
VERTEX
  5
344
100
AcDbEntity
  8
スト－ル
  6
CONTINUOUS
 62
     6
100
AcDbVertex
100
AcDb2dVertex
 10
622.888336
 20
1550.036407
 30
0.0
  0
VERTEX
  5
345
100
AcDbEntity
  8
スト－ル
  6
CONTINUOUS
 62
     6
100
AcDbVertex
100
AcDb2dVertex
 10
622.587585
 20
1550.401245
 30
0.0
  0
VERTEX
  5
346
100
AcDbEntity
  8
スト－ル
  6
CONTINUOUS
 62
     6
100
AcDbVertex
100
AcDb2dVertex
 10
622.253876
 20
1550.739838
 30
0.0
  0
VERTEX
  5
347
100
AcDbEntity
  8
スト－ル
  6
CONTINUOUS
 62
     6
100
AcDbVertex
100
AcDb2dVertex
 10
621.889648
 20
1551.050354
 30
0.0
  0
VERTEX
  5
348
100
AcDbEntity
  8
スト－ル
  6
CONTINUOUS
 62
     6
100
AcDbVertex
100
AcDb2dVertex
 10
621.497803
 20
1551.330048
 30
0.0
  0
VERTEX
  5
349
100
AcDbEntity
  8
スト－ル
  6
CONTINUOUS
 62
     6
100
AcDbVertex
100
AcDb2dVertex
 10
621.081238
 20
1551.576935
 30
0.0
  0
VERTEX
  5
34A
100
AcDbEntity
  8
スト－ル
  6
CONTINUOUS
 62
     6
100
AcDbVertex
100
AcDb2dVertex
 10
620.643005
 20
1551.789185
 30
0.0
  0
VERTEX
  5
34B
100
AcDbEntity
  8
スト－ル
  6
CONTINUOUS
 62
     6
100
AcDbVertex
100
AcDb2dVertex
 10
620.186615
 20
1551.965118
 30
0.0
  0
VERTEX
  5
34C
100
AcDbEntity
  8
スト－ル
  6
CONTINUOUS
 62
     6
100
AcDbVertex
100
AcDb2dVertex
 10
619.715576
 20
1552.103058
 30
0.0
  0
VERTEX
  5
34D
100
AcDbEntity
  8
スト－ル
  6
CONTINUOUS
 62
     6
100
AcDbVertex
100
AcDb2dVertex
 10
619.233246
 20
1552.202545
 30
0.0
  0
VERTEX
  5
34E
100
AcDbEntity
  8
スト－ル
  6
CONTINUOUS
 62
     6
100
AcDbVertex
100
AcDb2dVertex
 10
618.743591
 20
1552.262512
 30
0.0
  0
VERTEX
  5
34F
100
AcDbEntity
  8
スト－ル
  6
CONTINUOUS
 62
     6
100
AcDbVertex
100
AcDb2dVertex
 10
618.249969
 20
1552.282654
 30
0.0
  0
VERTEX
  5
350
100
AcDbEntity
  8
スト－ル
  6
CONTINUOUS
 62
     6
100
AcDbVertex
100
AcDb2dVertex
 10
617.7565
 20
1552.262665
 30
0.0
  0
VERTEX
  5
351
100
AcDbEntity
  8
スト－ル
  6
CONTINUOUS
 62
     6
100
AcDbVertex
100
AcDb2dVertex
 10
617.266693
 20
1552.202698
 30
0.0
  0
VERTEX
  5
352
100
AcDbEntity
  8
スト－ル
  6
CONTINUOUS
 62
     6
100
AcDbVertex
100
AcDb2dVertex
 10
616.784515
 20
1552.103058
 30
0.0
  0
VERTEX
  5
353
100
AcDbEntity
  8
スト－ル
  6
CONTINUOUS
 62
     6
100
AcDbVertex
100
AcDb2dVertex
 10
616.313477
 20
1551.964813
 30
0.0
  0
VERTEX
  5
354
100
AcDbEntity
  8
スト－ル
  6
CONTINUOUS
 62
     6
100
AcDbVertex
100
AcDb2dVertex
 10
615.857086
 20
1551.788879
 30
0.0
  0
VERTEX
  5
355
100
AcDbEntity
  8
スト－ル
  6
CONTINUOUS
 62
     6
100
AcDbVertex
100
AcDb2dVertex
 10
615.418701
 20
1551.576935
 30
0.0
  0
VERTEX
  5
356
100
AcDbEntity
  8
スト－ル
  6
CONTINUOUS
 62
     6
100
AcDbVertex
100
AcDb2dVertex
 10
615.002136
 20
1551.330048
 30
0.0
  0
VERTEX
  5
357
100
AcDbEntity
  8
スト－ル
  6
CONTINUOUS
 62
     6
100
AcDbVertex
100
AcDb2dVertex
 10
614.610291
 20
1551.050354
 30
0.0
  0
VERTEX
  5
358
100
AcDbEntity
  8
スト－ル
  6
CONTINUOUS
 62
     6
100
AcDbVertex
100
AcDb2dVertex
 10
614.246063
 20
1550.739838
 30
0.0
  0
VERTEX
  5
359
100
AcDbEntity
  8
スト－ル
  6
CONTINUOUS
 62
     6
100
AcDbVertex
100
AcDb2dVertex
 10
613.912354
 20
1550.401093
 30
0.0
  0
VERTEX
  5
35A
100
AcDbEntity
  8
スト－ル
  6
CONTINUOUS
 62
     6
100
AcDbVertex
100
AcDb2dVertex
 10
613.611603
 20
1550.03656
 30
0.0
  0
VERTEX
  5
35B
100
AcDbEntity
  8
スト－ル
  6
CONTINUOUS
 62
     6
100
AcDbVertex
100
AcDb2dVertex
 10
613.346252
 20
1549.648834
 30
0.0
  0
VERTEX
  5
35C
100
AcDbEntity
  8
スト－ル
  6
CONTINUOUS
 62
     6
100
AcDbVertex
100
AcDb2dVertex
 10
613.118286
 20
1549.241272
 30
0.0
  0
VERTEX
  5
35D
100
AcDbEntity
  8
スト－ル
  6
CONTINUOUS
 62
     6
100
AcDbVertex
100
AcDb2dVertex
 10
612.92923
 20
1548.816772
 30
0.0
  0
VERTEX
  5
35E
100
AcDbEntity
  8
スト－ル
  6
CONTINUOUS
 62
     6
100
AcDbVertex
100
AcDb2dVertex
 10
612.780609
 20
1548.378387
 30
0.0
  0
VERTEX
  5
35F
100
AcDbEntity
  8
スト－ル
  6
CONTINUOUS
 62
     6
100
AcDbVertex
100
AcDb2dVertex
 10
612.673798
 20
1547.929779
 30
0.0
  0
VERTEX
  5
360
100
AcDbEntity
  8
スト－ル
  6
CONTINUOUS
 62
     6
100
AcDbVertex
100
AcDb2dVertex
 10
612.609253
 20
1547.474152
 30
0.0
  0
VERTEX
  5
361
100
AcDbEntity
  8
スト－ル
  6
CONTINUOUS
 62
     6
100
AcDbVertex
100
AcDb2dVertex
 10
612.587738
 20
1547.015015
 30
0.0
  0
VERTEX
  5
362
100
AcDbEntity
  8
スト－ル
  6
CONTINUOUS
 62
     6
100
AcDbVertex
100
AcDb2dVertex
 10
612.609406
 20
1546.55603
 30
0.0
  0
VERTEX
  5
363
100
AcDbEntity
  8
スト－ル
  6
CONTINUOUS
 62
     6
100
AcDbVertex
100
AcDb2dVertex
 10
612.673798
 20
1546.100555
 30
0.0
  0
VERTEX
  5
364
100
AcDbEntity
  8
スト－ル
  6
CONTINUOUS
 62
     6
100
AcDbVertex
100
AcDb2dVertex
 10
612.780609
 20
1545.651337
 30
0.0
  0
VERTEX
  5
365
100
AcDbEntity
  8
スト－ル
  6
CONTINUOUS
 62
     6
100
AcDbVertex
100
AcDb2dVertex
 10
612.92923
 20
1545.213104
 30
0.0
  0
VERTEX
  5
366
100
AcDbEntity
  8
スト－ル
  6
CONTINUOUS
 62
     6
100
AcDbVertex
100
AcDb2dVertex
 10
613.118133
 20
1544.7883
 30
0.0
  0
VERTEX
  5
367
100
AcDbEntity
  8
スト－ル
  6
CONTINUOUS
 62
     6
100
AcDbVertex
100
AcDb2dVertex
 10
613.346252
 20
1544.380737
 30
0.0
  0
VERTEX
  5
368
100
AcDbEntity
  8
スト－ル
  6
CONTINUOUS
 62
     6
100
AcDbVertex
100
AcDb2dVertex
 10
613.611755
 20
1543.993164
 30
0.0
  0
VERTEX
  5
369
100
AcDbEntity
  8
スト－ル
  6
CONTINUOUS
 62
     6
100
AcDbVertex
100
AcDb2dVertex
 10
613.912506
 20
1543.628326
 30
0.0
  0
VERTEX
  5
36A
100
AcDbEntity
  8
スト－ル
  6
CONTINUOUS
 62
     6
100
AcDbVertex
100
AcDb2dVertex
 10
614.246063
 20
1543.289887
 30
0.0
  0
VERTEX
  5
36B
100
AcDbEntity
  8
スト－ル
  6
CONTINUOUS
 62
     6
100
AcDbVertex
100
AcDb2dVertex
 10
614.610291
 20
1542.97937
 30
0.0
  0
VERTEX
  5
36C
100
AcDbEntity
  8
スト－ル
  6
CONTINUOUS
 62
     6
100
AcDbVertex
100
AcDb2dVertex
 10
615.002136
 20
1542.699677
 30
0.0
  0
VERTEX
  5
36D
100
AcDbEntity
  8
スト－ル
  6
CONTINUOUS
 62
     6
100
AcDbVertex
100
AcDb2dVertex
 10
615.418701
 20
1542.452789
 30
0.0
  0
VERTEX
  5
36E
100
AcDbEntity
  8
スト－ル
  6
CONTINUOUS
 62
     6
100
AcDbVertex
100
AcDb2dVertex
 10
615.856934
 20
1542.24054
 30
0.0
  0
VERTEX
  5
36F
100
AcDbEntity
  8
スト－ル
  6
CONTINUOUS
 62
     6
100
AcDbVertex
100
AcDb2dVertex
 10
616.313324
 20
1542.064606
 30
0.0
  0
VERTEX
  5
370
100
AcDbEntity
  8
スト－ル
  6
CONTINUOUS
 62
     6
100
AcDbVertex
100
AcDb2dVertex
 10
616.784515
 20
1541.926514
 30
0.0
  0
VERTEX
  5
371
100
AcDbEntity
  8
スト－ル
  6
CONTINUOUS
 62
     6
100
AcDbVertex
100
AcDb2dVertex
 10
617.266846
 20
1541.827026
 30
0.0
  0
VERTEX
  5
372
100
AcDbEntity
  8
スト－ル
  6
CONTINUOUS
 62
     6
100
AcDbVertex
100
AcDb2dVertex
 10
617.7565
 20
1541.767059
 30
0.0
  0
VERTEX
  5
373
100
AcDbEntity
  8
スト－ル
  6
CONTINUOUS
 62
     6
100
AcDbVertex
100
AcDb2dVertex
 10
618.249969
 20
1541.746765
 30
0.0
  0
VERTEX
  5
374
100
AcDbEntity
  8
スト－ル
  6
CONTINUOUS
 62
     6
100
AcDbVertex
100
AcDb2dVertex
 10
618.743439
 20
1541.766754
 30
0.0
  0
VERTEX
  5
375
100
AcDbEntity
  8
スト－ル
  6
CONTINUOUS
 62
     6
100
AcDbVertex
100
AcDb2dVertex
 10
619.233246
 20
1541.826721
 30
0.0
  0
VERTEX
  5
376
100
AcDbEntity
  8
スト－ル
  6
CONTINUOUS
 62
     6
100
AcDbVertex
100
AcDb2dVertex
 10
619.715576
 20
1541.926514
 30
0.0
  0
VERTEX
  5
377
100
AcDbEntity
  8
スト－ル
  6
CONTINUOUS
 62
     6
100
AcDbVertex
100
AcDb2dVertex
 10
620.186615
 20
1542.064758
 30
0.0
  0
VERTEX
  5
378
100
AcDbEntity
  8
スト－ル
  6
CONTINUOUS
 62
     6
100
AcDbVertex
100
AcDb2dVertex
 10
620.643005
 20
1542.240692
 30
0.0
  0
SEQEND
  5
379
100
AcDbEntity
  8
スト－ル
  6
CONTINUOUS
 62
     6
  0
POLYLINE
  5
37A
100
AcDbEntity
  8
スト－ル
  6
CONTINUOUS
 62
     6
100
AcDb2dPolyline
 66
     1
 10
0.0
 20
0.0
 30
0.0
 70
   128
  0
VERTEX
  5
37B
100
AcDbEntity
  8
スト－ル
  6
CONTINUOUS
 62
     6
100
AcDbVertex
100
AcDb2dVertex
 10
620.643005
 20
1542.240692
 30
0.0
  0
VERTEX
  5
37C
100
AcDbEntity
  8
スト－ル
  6
CONTINUOUS
 62
     6
100
AcDbVertex
100
AcDb2dVertex
 10
621.081238
 20
1542.452789
 30
0.0
  0
VERTEX
  5
37D
100
AcDbEntity
  8
スト－ル
  6
CONTINUOUS
 62
     6
100
AcDbVertex
100
AcDb2dVertex
 10
621.497803
 20
1542.699677
 30
0.0
  0
VERTEX
  5
37E
100
AcDbEntity
  8
スト－ル
  6
CONTINUOUS
 62
     6
100
AcDbVertex
100
AcDb2dVertex
 10
621.889648
 20
1542.97937
 30
0.0
  0
VERTEX
  5
37F
100
AcDbEntity
  8
スト－ル
  6
CONTINUOUS
 62
     6
100
AcDbVertex
100
AcDb2dVertex
 10
622.253876
 20
1543.289887
 30
0.0
  0
VERTEX
  5
380
100
AcDbEntity
  8
スト－ル
  6
CONTINUOUS
 62
     6
100
AcDbVertex
100
AcDb2dVertex
 10
622.587585
 20
1543.628632
 30
0.0
  0
VERTEX
  5
381
100
AcDbEntity
  8
スト－ル
  6
CONTINUOUS
 62
     6
100
AcDbVertex
100
AcDb2dVertex
 10
622.888336
 20
1543.993164
 30
0.0
  0
VERTEX
  5
382
100
AcDbEntity
  8
スト－ル
  6
CONTINUOUS
 62
     6
100
AcDbVertex
100
AcDb2dVertex
 10
623.153839
 20
1544.380737
 30
0.0
  0
VERTEX
  5
383
100
AcDbEntity
  8
スト－ル
  6
CONTINUOUS
 62
     6
100
AcDbVertex
100
AcDb2dVertex
 10
623.381805
 20
1544.7883
 30
0.0
  0
VERTEX
  5
384
100
AcDbEntity
  8
スト－ル
  6
CONTINUOUS
 62
     6
100
AcDbVertex
100
AcDb2dVertex
 10
623.570862
 20
1545.212799
 30
0.0
  0
VERTEX
  5
385
100
AcDbEntity
  8
スト－ル
  6
CONTINUOUS
 62
     6
100
AcDbVertex
100
AcDb2dVertex
 10
623.719482
 20
1545.651337
 30
0.0
  0
SEQEND
  5
386
100
AcDbEntity
  8
スト－ル
  6
CONTINUOUS
 62
     6
  0
POLYLINE
  5
387
100
AcDbEntity
  8
スト－ル
  6
CONTINUOUS
 62
     6
100
AcDb2dPolyline
 66
     1
 10
0.0
 20
0.0
 30
0.0
 70
   128
  0
VERTEX
  5
388
100
AcDbEntity
  8
スト－ル
  6
CONTINUOUS
 62
     6
100
AcDbVertex
100
AcDb2dVertex
 10
623.719482
 20
1545.651337
 30
0.0
  0
VERTEX
  5
389
100
AcDbEntity
  8
スト－ル
  6
CONTINUOUS
 62
     6
100
AcDbVertex
100
AcDb2dVertex
 10
623.826294
 20
1546.099945
 30
0.0
  0
VERTEX
  5
38A
100
AcDbEntity
  8
スト－ル
  6
CONTINUOUS
 62
     6
100
AcDbVertex
100
AcDb2dVertex
 10
623.890839
 20
1546.555572
 30
0.0
  0
VERTEX
  5
38B
100
AcDbEntity
  8
スト－ル
  6
CONTINUOUS
 62
     6
100
AcDbVertex
100
AcDb2dVertex
 10
623.912354
 20
1547.014404
 30
0.0
  0
SEQEND
  5
38C
100
AcDbEntity
  8
スト－ル
  6
CONTINUOUS
 62
     6
  0
LINE
  5
38D
100
AcDbEntity
  8
スト－ル
  6
CONTINUOUS
 62
     6
100
AcDbLine
 10
637.5
 20
1537.51474
 30
0.0
 11
637.5
 21
1541.014648
 31
0.0
  0
LINE
  5
38E
100
AcDbEntity
  8
スト－ル
  6
CONTINUOUS
 62
     6
100
AcDbLine
 10
612.5
 20
1537.51474
 30
0.0
 11
612.5
 21
1541.014648
 31
0.0
  0
LINE
  5
38F
100
AcDbEntity
  8
スト－ル
  6
CONTINUOUS
 62
     6
100
AcDbLine
 10
638.500061
 20
1536.014801
 30
0.0
 11
638.500061
 21
1531.014801
 31
0.0
  0
LINE
  5
390
100
AcDbEntity
  8
スト－ル
  6
CONTINUOUS
 62
     6
100
AcDbLine
 10
637.412109
 20
1537.51474
 30
0.0
 11
638.500061
 21
1536.014801
 31
0.0
  0
LINE
  5
391
100
AcDbEntity
  8
スト－ル
  6
CONTINUOUS
 62
     6
100
AcDbLine
 10
612.587585
 20
1537.51474
 30
0.0
 11
637.412109
 21
1537.51474
 31
0.0
  0
LINE
  5
392
100
AcDbEntity
  8
スト－ル
  6
CONTINUOUS
 62
     6
100
AcDbLine
 10
611.499939
 20
1536.014801
 30
0.0
 11
612.587585
 21
1537.51474
 31
0.0
  0
LINE
  5
393
100
AcDbEntity
  8
スト－ル
  6
CONTINUOUS
 62
     6
100
AcDbLine
 10
611.499939
 20
1536.014801
 30
0.0
 11
611.499939
 21
1531.014801
 31
0.0
  0
LINE
  5
394
100
AcDbEntity
  8
スト－ル
  6
CONTINUOUS
 62
     6
100
AcDbLine
 10
637.412109
 20
1536.014801
 30
0.0
 11
637.412109
 21
1531.014801
 31
0.0
  0
LINE
  5
395
100
AcDbEntity
  8
スト－ル
  6
CONTINUOUS
 62
     6
100
AcDbLine
 10
626.088104
 20
1536.014801
 30
0.0
 11
626.088104
 21
1531.014801
 31
0.0
  0
LINE
  5
396
100
AcDbEntity
  8
スト－ル
  6
CONTINUOUS
 62
     6
100
AcDbLine
 10
623.912354
 20
1536.014801
 30
0.0
 11
623.912354
 21
1531.014801
 31
0.0
  0
LINE
  5
397
100
AcDbEntity
  8
スト－ル
  6
CONTINUOUS
 62
     6
100
AcDbLine
 10
612.587585
 20
1536.014801
 30
0.0
 11
612.587585
 21
1531.014801
 31
0.0
  0
LINE
  5
398
100
AcDbEntity
  8
スト－ル
  6
CONTINUOUS
 62
     6
100
AcDbLine
 10
637.412109
 20
1536.014801
 30
0.0
 11
638.500061
 21
1536.014801
 31
0.0
  0
ARC
  5
399
100
AcDbEntity
  8
スト－ル
  6
CONTINUOUS
 62
     6
100
AcDbCircle
 10
631.750183
 20
1526.078278
 30
0.0
 40
11.436434
100
AcDbArc
 50
60.325043
 51
119.675568
  0
LINE
  5
39A
100
AcDbEntity
  8
スト－ル
  6
CONTINUOUS
 62
     6
100
AcDbLine
 10
623.912354
 20
1536.014801
 30
0.0
 11
626.088104
 21
1536.014801
 31
0.0
  0
ARC
  5
39B
100
AcDbEntity
  8
スト－ル
  6
CONTINUOUS
 62
     6
100
AcDbCircle
 10
618.249969
 20
1526.076752
 30
0.0
 40
11.437979
100
AcDbArc
 50
60.326843
 51
119.673157
  0
LINE
  5
39C
100
AcDbEntity
  8
スト－ル
  6
CONTINUOUS
 62
     6
100
AcDbLine
 10
611.499939
 20
1536.014801
 30
0.0
 11
612.587585
 21
1536.014801
 31
0.0
  0
LINE
  5
39D
100
AcDbEntity
  8
スト－ル
  6
CONTINUOUS
 62
     6
100
AcDbLine
 10
645.0
 20
1531.014801
 30
0.0
 11
645.0
 21
1526.014801
 31
0.0
  0
LINE
  5
39E
100
AcDbEntity
  8
スト－ル
  6
CONTINUOUS
 62
     6
100
AcDbLine
 10
605.0
 20
1531.014801
 30
0.0
 11
645.0
 21
1531.014801
 31
0.0
  0
LINE
  5
39F
100
AcDbEntity
  8
スト－ル
  6
CONTINUOUS
 62
     6
100
AcDbLine
 10
605.0
 20
1531.014801
 30
0.0
 11
605.0
 21
1526.014801
 31
0.0
  0
LINE
  5
3A0
100
AcDbEntity
  8
スト－ル
  6
CONTINUOUS
 62
     3
100
AcDbLine
 10
812.189606
 20
1525.995727
 30
0.0
 11
925.0
 21
1525.995727
 31
0.0
  0
POLYLINE
  5
3A1
100
AcDbEntity
  8
スト－ル
  6
CONTINUOUS
 62
     3
100
AcDb2dPolyline
 66
     1
 10
0.0
 20
0.0
 30
0.0
 70
   128
  0
VERTEX
  5
3A2
100
AcDbEntity
  8
スト－ル
  6
CONTINUOUS
 62
     3
100
AcDbVertex
100
AcDb2dVertex
 10
895.941315
 20
639.807373
 30
0.0
  0
VERTEX
  5
3A3
100
AcDbEntity
  8
スト－ル
  6
CONTINUOUS
 62
     3
100
AcDbVertex
100
AcDb2dVertex
 10
905.0
 20
606.0
 30
0.0
  0
VERTEX
  5
3A4
100
AcDbEntity
  8
スト－ル
  6
CONTINUOUS
 62
     3
100
AcDbVertex
100
AcDb2dVertex
 10
914.058685
 20
639.807373
 30
0.0
  0
SEQEND
  5
3A5
100
AcDbEntity
  8
スト－ル
  6
CONTINUOUS
 62
     3
  0
POLYLINE
  5
3A6
100
AcDbEntity
  8
スト－ル
  6
CONTINUOUS
 62
     3
100
AcDb2dPolyline
 66
     1
 10
0.0
 20
0.0
 30
0.0
 70
   128
  0
VERTEX
  5
3A7
100
AcDbEntity
  8
スト－ル
  6
CONTINUOUS
 62
     3
100
AcDbVertex
100
AcDb2dVertex
 10
914.058685
 20
1492.188355
 30
0.0
  0
VERTEX
  5
3A8
100
AcDbEntity
  8
スト－ル
  6
CONTINUOUS
 62
     3
100
AcDbVertex
100
AcDb2dVertex
 10
905.0
 20
1525.995727
 30
0.0
  0
VERTEX
  5
3A9
100
AcDbEntity
  8
スト－ル
  6
CONTINUOUS
 62
     3
100
AcDbVertex
100
AcDb2dVertex
 10
895.941315
 20
1492.188355
 30
0.0
  0
SEQEND
  5
3AA
100
AcDbEntity
  8
スト－ル
  6
CONTINUOUS
 62
     3
  0
LINE
  5
3AB
100
AcDbEntity
  8
スト－ル
  6
CONTINUOUS
 62
     3
100
AcDbLine
 10
905.0
 20
1525.995727
 30
0.0
 11
905.0
 21
606.0
 31
0.0
  0
TEXT
  5
3AC
100
AcDbEntity
  8
スト－ル
  6
CONTINUOUS
 62
     2
100
AcDbText
 10
901.499939
 20
1007.997833
 30
0.0
 40
40.0
  1
９２０
 50
90.0
 41
0.833
  7
EXCADSTD
 72
     5
 11
901.499939
 21
1126.997833
 31
0.0
100
AcDbText
  0
ARC
  5
3AD
100
AcDbEntity
  8
スト－ル
  6
CONTINUOUS
 62
     7
100
AcDbCircle
 10
20433.859375
 20
722.603882
 30
0.0
 40
20000.0
100
AcDbArc
 50
177.739136
 51
179.371582
  0
ARC
  5
3AE
100
AcDbEntity
  8
スト－ル
  6
CONTINUOUS
 62
     7
100
AcDbCircle
 10
-19183.855469
 20
722.600891
 30
0.0
 40
20000.0
100
AcDbArc
 50
0.628448
 51
2.260864
  0
LINE
  5
3AF
100
AcDbEntity
  8
スト－ル
  6
CONTINUOUS
 62
     7
100
AcDbLine
 10
748.999512
 20
967.435242
 30
0.0
 11
740.973633
 21
1414.717834
 31
0.0
  0
LINE
  5
3B0
100
AcDbEntity
  8
スト－ル
  6
CONTINUOUS
 62
     7
100
AcDbLine
 10
793.782715
 20
1509.290771
 30
0.0
 11
804.484375
 21
957.357025
 31
0.0
  0
LINE
  5
3B1
100
AcDbEntity
  8
スト－ル
  6
CONTINUOUS
 62
     7
100
AcDbLine
 10
445.605499
 20
961.982117
 30
0.0
 11
456.217316
 21
1509.290833
 31
0.0
  0
LINE
  5
3B2
100
AcDbEntity
  8
スト－ル
  6
CONTINUOUS
 62
     7
100
AcDbLine
 10
501.001007
 20
967.435181
 30
0.0
 11
509.026398
 21
1414.717834
 31
0.0
  0
LINE
  5
3B3
100
AcDbEntity
  8
スト－ル
  6
EXLTYPE3
 62
     1
100
AcDbLine
 10
625.0
 20
1774.0
 30
0.0
 11
625.0
 21
586.0
 31
0.0
  0
ARC
  5
3B4
100
AcDbEntity
  8
スト－ル
  6
CONTINUOUS
 62
     7
100
AcDbCircle
 10
525.504395
 20
966.0
 30
0.0
 40
80.0
100
AcDbArc
 50
182.878784
 51
270.0
  0
ARC
  5
3B5
100
AcDbEntity
  8
スト－ル
  6
CONTINUOUS
 62
     7
100
AcDbCircle
 10
10433.771484
 20
1079.77887
 30
0.0
 40
10000.0
100
AcDbArc
 50
180.947205
 51
182.715576
  0
ARC
  5
3B6
100
AcDbEntity
  8
スト－ル
  6
CONTINUOUS
 62
     7
100
AcDbCircle
 10
1435.0
 20
931.000061
 30
0.0
 40
1000.0
100
AcDbArc
 50
179.371582
 51
180.947205
  0
ARC
  5
3B7
100
AcDbEntity
  8
スト－ル
  6
CONTINUOUS
 62
     7
100
AcDbCircle
 10
10433.771484
 20
1079.778625
 30
0.0
 40
9972.5
100
AcDbArc
 50
182.213989
 51
182.512817
  0
ARC
  5
3B8
100
AcDbEntity
  8
スト－ル
  6
CONTINUOUS
 62
     7
100
AcDbCircle
 10
-9183.769531
 20
1079.777405
 30
0.0
 40
9972.5
100
AcDbArc
 50
357.487183
 51
357.786011
  0
ARC
  5
3B9
100
AcDbEntity
  8
スト－ル
  6
CONTINUOUS
 62
     7
100
AcDbCircle
 10
-9183.769531
 20
1079.777405
 30
0.0
 40
10000.0
100
AcDbArc
 50
357.284424
 51
359.052795
  0
LINE
  5
3BA
100
AcDbEntity
  8
スト－ル
  6
CONTINUOUS
 62
     7
100
AcDbLine
 10
575.0
 20
703.944397
 30
0.0
 11
575.0
 21
643.0
 31
0.0
  0
LINE
  5
3BB
100
AcDbEntity
  8
スト－ル
  6
CONTINUOUS
 62
     7
100
AcDbLine
 10
675.0
 20
703.944397
 30
0.0
 11
675.0
 21
643.0
 31
0.0
  0
LINE
  5
3BC
100
AcDbEntity
  8
スト－ル
  6
CONTINUOUS
 62
     7
100
AcDbLine
 10
685.0
 20
633.0
 30
0.0
 11
769.150879
 21
633.0
 31
0.0
  0
LINE
  5
3BD
100
AcDbEntity
  8
スト－ル
  6
EXLTYPE3
 62
     6
100
AcDbLine
 10
540.0
 20
674.0
 30
0.0
 11
540.0
 21
606.0
 31
0.0
  0
LINE
  5
3BE
100
AcDbEntity
  8
スト－ル
  6
CONTINUOUS
 62
     7
100
AcDbLine
 10
565.0
 20
633.0
 30
0.0
 11
480.849152
 21
633.0
 31
0.0
  0
ARC
  5
3BF
100
AcDbEntity
  8
スト－ル
  6
CONTINUOUS
 62
     7
100
AcDbCircle
 10
480.84964
 20
643.0
 30
0.0
 40
10.0
100
AcDbArc
 50
182.512756
 51
270.0
  0
ARC
  5
3C0
100
AcDbEntity
  8
スト－ル
  6
CONTINUOUS
 62
     2
100
AcDbCircle
 10
583.630371
 20
630.138367
 30
0.0
 40
60.0
100
AcDbArc
 50
155.362427
 51
175.689148
  0
ARC
  5
3C1
100
AcDbEntity
  8
スト－ル
  6
CONTINUOUS
 62
     2
100
AcDbCircle
 10
496.369659
 20
630.138306
 30
0.0
 40
60.0
100
AcDbArc
 50
4.310913
 51
24.637573
  0
ARC
  5
3C2
100
AcDbEntity
  8
スト－ル
  6
CONTINUOUS
 62
     7
100
AcDbCircle
 10
565.0
 20
643.0
 30
0.0
 40
10.0
100
AcDbArc
 50
270.0
 51
0.0
  0
ARC
  5
3C3
100
AcDbEntity
  8
スト－ル
  6
CONTINUOUS
 62
     2
100
AcDbCircle
 10
540.0
 20
650.148438
 30
0.0
 40
12.0
100
AcDbArc
 50
24.637329
 51
155.362671
  0
LINE
  5
3C4
100
AcDbEntity
  8
スト－ル
  6
EXLTYPE3
 62
     6
100
AcDbLine
 10
710.0
 20
674.0
 30
0.0
 11
710.0
 21
606.0
 31
0.0
  0
ARC
  5
3C5
100
AcDbEntity
  8
スト－ル
  6
CONTINUOUS
 62
     2
100
AcDbCircle
 10
666.369629
 20
630.138367
 30
0.0
 40
60.0
100
AcDbArc
 50
4.310852
 51
24.637543
  0
ARC
  5
3C6
100
AcDbEntity
  8
スト－ル
  6
CONTINUOUS
 62
     2
100
AcDbCircle
 10
753.630371
 20
630.138306
 30
0.0
 40
60.0
100
AcDbArc
 50
155.362427
 51
175.689087
  0
ARC
  5
3C7
100
AcDbEntity
  8
スト－ル
  6
CONTINUOUS
 62
     7
100
AcDbCircle
 10
685.0
 20
643.0
 30
0.0
 40
10.0
100
AcDbArc
 50
180.0
 51
270.0
  0
ARC
  5
3C8
100
AcDbEntity
  8
スト－ル
  6
CONTINUOUS
 62
     2
100
AcDbCircle
 10
710.0
 20
650.148438
 30
0.0
 40
12.0
100
AcDbArc
 50
24.637421
 51
155.36261
  0
ARC
  5
3C9
100
AcDbEntity
  8
スト－ル
  6
CONTINUOUS
 62
     7
100
AcDbCircle
 10
769.150879
 20
643.0
 30
0.0
 40
10.0
100
AcDbArc
 50
270.0
 51
357.487244
  0
ARC
  5
3CA
100
AcDbEntity
  8
スト－ル
  6
CONTINUOUS
 62
     7
100
AcDbCircle
 10
669.012207
 20
966.0
 30
0.0
 40
80.0
100
AcDbArc
 50
270.0
 51
1.027954
  0
ARC
  5
3CB
100
AcDbEntity
  8
スト－ル
  6
CONTINUOUS
 62
     7
100
AcDbCircle
 10
677.282715
 20
214.005127
 30
0.0
 40
500.0
100
AcDbArc
 50
78.938782
 51
89.097565
  0
ARC
  5
3CC
100
AcDbEntity
  8
スト－ル
  6
CONTINUOUS
 62
     7
100
AcDbCircle
 10
724.495605
 20
966.0
 30
0.0
 40
80.0
100
AcDbArc
 50
270.0
 51
1.130737
  0
ARC
  5
3CD
100
AcDbEntity
  8
スト－ル
  6
CONTINUOUS
 62
     7
100
AcDbCircle
 10
572.717773
 20
214.005127
 30
0.0
 40
500.0
100
AcDbArc
 50
90.902466
 51
101.061218
  0
ARC
  5
3CE
100
AcDbEntity
  8
スト－ル
  6
CONTINUOUS
 62
     7
100
AcDbCircle
 10
478.70755
 20
694.902466
 30
0.0
 40
10.0
100
AcDbArc
 50
101.061218
 51
182.213928
  0
ARC
  5
3CF
100
AcDbEntity
  8
スト－ル
  6
CONTINUOUS
 62
     7
100
AcDbCircle
 10
565.0
 20
703.944397
 30
0.0
 40
10.0
100
AcDbArc
 50
0.0
 51
90.902618
  0
ARC
  5
3D0
100
AcDbEntity
  8
スト－ル
  6
CONTINUOUS
 62
     7
100
AcDbCircle
 10
685.0
 20
703.944397
 30
0.0
 40
10.0
100
AcDbArc
 50
89.097534
 51
180.0
  0
LINE
  5
3D1
100
AcDbEntity
  8
スト－ル
  6
CONTINUOUS
 62
     7
100
AcDbLine
 10
525.504395
 20
886.0
 30
0.0
 11
724.495605
 21
886.0
 31
0.0
  0
ARC
  5
3D2
100
AcDbEntity
  8
スト－ル
  6
CONTINUOUS
 62
     7
100
AcDbCircle
 10
580.987793
 20
966.0
 30
0.0
 40
80.0
100
AcDbArc
 50
178.972046
 51
270.0
  0
ARC
  5
3D3
100
AcDbEntity
  8
スト－ル
  6
CONTINUOUS
 62
     7
100
AcDbCircle
 10
771.292969
 20
694.902466
 30
0.0
 40
10.0
100
AcDbArc
 50
357.786133
 51
78.938721
  0
ARC
  5
3D4
100
AcDbEntity
  8
スト－ル
  6
CONTINUOUS
 62
     7
100
AcDbCircle
 10
-185.0
 20
930.999939
 30
0.0
 40
1000.0
100
AcDbArc
 50
357.991394
 51
0.628448
  0
ARC
  5
3D5
100
AcDbEntity
  8
スト－ル
  6
CONTINUOUS
 62
     7
100
AcDbCircle
 10
464.413605
 20
1511.000061
 30
0.0
 40
15.0
100
AcDbArc
 50
90.0
 51
177.739136
  0
LINE
  5
3D6
100
AcDbEntity
  8
スト－ル
  6
CONTINUOUS
 62
     3
100
AcDbLine
 10
539.999811
 20
606.0
 30
0.0
 11
539.999811
 21
506.0
 31
0.0
  0
LINE
  5
3D7
100
AcDbEntity
  8
スト－ル
  6
CONTINUOUS
 62
     3
100
AcDbLine
 10
709.999811
 20
606.0
 30
0.0
 11
709.999811
 21
506.0
 31
0.0
  0
ARC
  5
3D8
100
AcDbEntity
  8
スト－ル
  6
CONTINUOUS
 62
     7
100
AcDbCircle
 10
700.972168
 20
1414.000061
 30
0.0
 40
40.0
100
AcDbArc
 50
1.027985
 51
90.0
  0
LINE
  5
3D9
100
AcDbEntity
  8
スト－ル
  6
CONTINUOUS
 62
     7
100
AcDbLine
 10
785.585449
 20
1526.000061
 30
0.0
 11
464.413605
 21
1526.000061
 31
0.0
  0
LINE
  5
3DA
100
AcDbEntity
  8
スト－ル
  6
CONTINUOUS
 62
     7
100
AcDbLine
 10
726.250488
 20
1445.000061
 30
0.0
 11
523.749512
 21
1445.000061
 31
0.0
  0
LINE
  5
3DB
100
AcDbEntity
  8
スト－ル
  6
CONTINUOUS
 62
     7
100
AcDbLine
 10
549.027832
 20
1454.000061
 30
0.0
 11
700.972168
 21
1454.000061
 31
0.0
  0
ARC
  5
3DC
100
AcDbEntity
  8
スト－ル
  6
CONTINUOUS
 62
     7
100
AcDbCircle
 10
549.027832
 20
1414.000061
 30
0.0
 40
40.0
100
AcDbArc
 50
90.0
 51
178.97229
  0
ARC
  5
3DD
100
AcDbEntity
  8
スト－ル
  6
CONTINUOUS
 62
     7
100
AcDbCircle
 10
471.214386
 20
1509.000061
 30
0.0
 40
15.0
100
AcDbArc
 50
90.0
 51
178.889282
  0
ARC
  5
3DE
100
AcDbEntity
  8
スト－ル
  6
CONTINUOUS
 62
     7
100
AcDbCircle
 10
778.791016
 20
1509.000061
 30
0.0
 40
15.0
100
AcDbArc
 50
1.110657
 51
90.0
  0
ARC
  5
3DF
100
AcDbEntity
  8
スト－ル
  6
CONTINUOUS
 62
     7
100
AcDbCircle
 10
785.585449
 20
1511.000061
 30
0.0
 40
15.0
100
AcDbArc
 50
2.260834
 51
90.0
  0
LINE
  5
3E0
100
AcDbEntity
  8
スト－ル
  6
CONTINUOUS
 62
     6
100
AcDbLine
 10
1490.0
 20
1600.682465
 30
0.0
 11
1604.086426
 21
1600.682465
 31
0.0
  0
ARC
  5
3E1
100
AcDbEntity
  8
スト－ル
  6
CONTINUOUS
 62
     6
100
AcDbCircle
 10
1713.810394
 20
1547.000061
 30
0.0
 40
10.000305
100
AcDbArc
 50
323.130981
 51
36.869019
  0
LINE
  5
3E2
100
AcDbEntity
  8
スト－ル
  6
CONTINUOUS
 62
     6
100
AcDbLine
 10
1695.809906
 20
1553.000122
 30
0.0
 11
1721.810883
 21
1553.000122
 31
0.0
  0
ARC
  5
3E3
100
AcDbEntity
  8
スト－ル
  6
CONTINUOUS
 62
     6
100
AcDbCircle
 10
1703.810394
 20
1547.000061
 30
0.0
 40
10.000305
100
AcDbArc
 50
143.130981
 51
216.869019
  0
LINE
  5
3E4
100
AcDbEntity
  8
スト－ル
  6
CONTINUOUS
 62
     6
100
AcDbLine
 10
1695.809906
 20
1541.0
 30
0.0
 11
1721.810883
 21
1541.0
 31
0.0
  0
POLYLINE
  5
3E5
100
AcDbEntity
  8
スト－ル
  6
CONTINUOUS
 62
     6
100
AcDb2dPolyline
 66
     1
 10
0.0
 20
0.0
 30
0.0
 70
   128
  0
VERTEX
  5
3E6
100
AcDbEntity
  8
スト－ル
  6
CONTINUOUS
 62
     6
100
AcDbVertex
100
AcDb2dVertex
 10
1723.771332
 20
1547.000366
 30
0.0
  0
VERTEX
  5
3E7
100
AcDbEntity
  8
スト－ル
  6
CONTINUOUS
 62
     6
100
AcDbVertex
100
AcDb2dVertex
 10
1723.759125
 20
1547.459503
 30
0.0
  0
VERTEX
  5
3E8
100
AcDbEntity
  8
スト－ル
  6
CONTINUOUS
 62
     6
100
AcDbVertex
100
AcDb2dVertex
 10
1723.722504
 20
1547.915436
 30
0.0
  0
VERTEX
  5
3E9
100
AcDbEntity
  8
スト－ル
  6
CONTINUOUS
 62
     6
100
AcDbVertex
100
AcDb2dVertex
 10
1723.659027
 20
1548.363739
 30
0.0
  0
VERTEX
  5
3EA
100
AcDbEntity
  8
スト－ル
  6
CONTINUOUS
 62
     6
100
AcDbVertex
100
AcDb2dVertex
 10
1723.573578
 20
1548.801971
 30
0.0
  0
VERTEX
  5
3EB
100
AcDbEntity
  8
スト－ル
  6
CONTINUOUS
 62
     6
100
AcDbVertex
100
AcDb2dVertex
 10
1723.463715
 20
1549.226776
 30
0.0
  0
VERTEX
  5
3EC
100
AcDbEntity
  8
スト－ル
  6
CONTINUOUS
 62
     6
100
AcDbVertex
100
AcDb2dVertex
 10
1723.33432
 20
1549.634186
 30
0.0
  0
VERTEX
  5
3ED
100
AcDbEntity
  8
スト－ル
  6
CONTINUOUS
 62
     6
100
AcDbVertex
100
AcDb2dVertex
 10
1723.180512
 20
1550.021759
 30
0.0
  0
VERTEX
  5
3EE
100
AcDbEntity
  8
スト－ル
  6
CONTINUOUS
 62
     6
100
AcDbVertex
100
AcDb2dVertex
 10
1723.007172
 20
1550.386597
 30
0.0
  0
VERTEX
  5
3EF
100
AcDbEntity
  8
スト－ル
  6
CONTINUOUS
 62
     6
100
AcDbVertex
100
AcDb2dVertex
 10
1722.814301
 20
1550.725189
 30
0.0
  0
VERTEX
  5
3F0
100
AcDbEntity
  8
スト－ル
  6
CONTINUOUS
 62
     6
100
AcDbVertex
100
AcDb2dVertex
 10
1722.60434
 20
1551.035706
 30
0.0
  0
VERTEX
  5
3F1
100
AcDbEntity
  8
スト－ル
  6
CONTINUOUS
 62
     6
100
AcDbVertex
100
AcDb2dVertex
 10
1722.377289
 20
1551.315399
 30
0.0
  0
VERTEX
  5
3F2
100
AcDbEntity
  8
スト－ル
  6
CONTINUOUS
 62
     6
100
AcDbVertex
100
AcDb2dVertex
 10
1722.13559
 20
1551.562286
 30
0.0
  0
VERTEX
  5
3F3
100
AcDbEntity
  8
スト－ル
  6
CONTINUOUS
 62
     6
100
AcDbVertex
100
AcDb2dVertex
 10
1721.884125
 20
1551.774536
 30
0.0
  0
VERTEX
  5
3F4
100
AcDbEntity
  8
スト－ル
  6
CONTINUOUS
 62
     6
100
AcDbVertex
100
AcDb2dVertex
 10
1721.620453
 20
1551.95047
 30
0.0
  0
VERTEX
  5
3F5
100
AcDbEntity
  8
スト－ル
  6
CONTINUOUS
 62
     6
100
AcDbVertex
100
AcDb2dVertex
 10
1721.347015
 20
1552.088409
 30
0.0
  0
VERTEX
  5
3F6
100
AcDbEntity
  8
スト－ル
  6
CONTINUOUS
 62
     6
100
AcDbVertex
100
AcDb2dVertex
 10
1721.068695
 20
1552.187897
 30
0.0
  0
VERTEX
  5
3F7
100
AcDbEntity
  8
スト－ル
  6
CONTINUOUS
 62
     6
100
AcDbVertex
100
AcDb2dVertex
 10
1720.787933
 20
1552.247864
 30
0.0
  0
VERTEX
  5
3F8
100
AcDbEntity
  8
スト－ル
  6
CONTINUOUS
 62
     6
100
AcDbVertex
100
AcDb2dVertex
 10
1720.502289
 20
1552.268005
 30
0.0
  0
VERTEX
  5
3F9
100
AcDbEntity
  8
スト－ル
  6
CONTINUOUS
 62
     6
100
AcDbVertex
100
AcDb2dVertex
 10
1720.216644
 20
1552.248016
 30
0.0
  0
VERTEX
  5
3FA
100
AcDbEntity
  8
スト－ル
  6
CONTINUOUS
 62
     6
100
AcDbVertex
100
AcDb2dVertex
 10
1719.933441
 20
1552.188049
 30
0.0
  0
VERTEX
  5
3FB
100
AcDbEntity
  8
スト－ル
  6
CONTINUOUS
 62
     6
100
AcDbVertex
100
AcDb2dVertex
 10
1719.655121
 20
1552.088409
 30
0.0
  0
VERTEX
  5
3FC
100
AcDbEntity
  8
スト－ル
  6
CONTINUOUS
 62
     6
100
AcDbVertex
100
AcDb2dVertex
 10
1719.384125
 20
1551.950165
 30
0.0
  0
VERTEX
  5
3FD
100
AcDbEntity
  8
スト－ル
  6
CONTINUOUS
 62
     6
100
AcDbVertex
100
AcDb2dVertex
 10
1719.120453
 20
1551.774231
 30
0.0
  0
VERTEX
  5
3FE
100
AcDbEntity
  8
スト－ル
  6
CONTINUOUS
 62
     6
100
AcDbVertex
100
AcDb2dVertex
 10
1718.866547
 20
1551.562286
 30
0.0
  0
VERTEX
  5
3FF
100
AcDbEntity
  8
スト－ル
  6
CONTINUOUS
 62
     6
100
AcDbVertex
100
AcDb2dVertex
 10
1718.627289
 20
1551.315399
 30
0.0
  0
VERTEX
  5
400
100
AcDbEntity
  8
スト－ル
  6
CONTINUOUS
 62
     6
100
AcDbVertex
100
AcDb2dVertex
 10
1718.400238
 20
1551.035706
 30
0.0
  0
VERTEX
  5
401
100
AcDbEntity
  8
スト－ル
  6
CONTINUOUS
 62
     6
100
AcDbVertex
100
AcDb2dVertex
 10
1718.190277
 20
1550.725189
 30
0.0
  0
VERTEX
  5
402
100
AcDbEntity
  8
スト－ル
  6
CONTINUOUS
 62
     6
100
AcDbVertex
100
AcDb2dVertex
 10
1717.997406
 20
1550.386444
 30
0.0
  0
VERTEX
  5
403
100
AcDbEntity
  8
スト－ル
  6
CONTINUOUS
 62
     6
100
AcDbVertex
100
AcDb2dVertex
 10
1717.824066
 20
1550.021912
 30
0.0
  0
VERTEX
  5
404
100
AcDbEntity
  8
スト－ル
  6
CONTINUOUS
 62
     6
100
AcDbVertex
100
AcDb2dVertex
 10
1717.670258
 20
1549.634186
 30
0.0
  0
VERTEX
  5
405
100
AcDbEntity
  8
スト－ル
  6
CONTINUOUS
 62
     6
100
AcDbVertex
100
AcDb2dVertex
 10
1717.538422
 20
1549.226624
 30
0.0
  0
VERTEX
  5
406
100
AcDbEntity
  8
スト－ル
  6
CONTINUOUS
 62
     6
100
AcDbVertex
100
AcDb2dVertex
 10
1717.428558
 20
1548.802124
 30
0.0
  0
VERTEX
  5
407
100
AcDbEntity
  8
スト－ル
  6
CONTINUOUS
 62
     6
100
AcDbVertex
100
AcDb2dVertex
 10
1717.343109
 20
1548.363739
 30
0.0
  0
VERTEX
  5
408
100
AcDbEntity
  8
スト－ル
  6
CONTINUOUS
 62
     6
100
AcDbVertex
100
AcDb2dVertex
 10
1717.282074
 20
1547.915131
 30
0.0
  0
VERTEX
  5
409
100
AcDbEntity
  8
スト－ル
  6
CONTINUOUS
 62
     6
100
AcDbVertex
100
AcDb2dVertex
 10
1717.245453
 20
1547.459503
 30
0.0
  0
VERTEX
  5
40A
100
AcDbEntity
  8
スト－ル
  6
CONTINUOUS
 62
     6
100
AcDbVertex
100
AcDb2dVertex
 10
1717.233246
 20
1547.000366
 30
0.0
  0
VERTEX
  5
40B
100
AcDbEntity
  8
スト－ル
  6
CONTINUOUS
 62
     6
100
AcDbVertex
100
AcDb2dVertex
 10
1717.245453
 20
1546.541382
 30
0.0
  0
VERTEX
  5
40C
100
AcDbEntity
  8
スト－ル
  6
CONTINUOUS
 62
     6
100
AcDbVertex
100
AcDb2dVertex
 10
1717.282074
 20
1546.085907
 30
0.0
  0
VERTEX
  5
40D
100
AcDbEntity
  8
スト－ル
  6
CONTINUOUS
 62
     6
100
AcDbVertex
100
AcDb2dVertex
 10
1717.343109
 20
1545.636688
 30
0.0
  0
VERTEX
  5
40E
100
AcDbEntity
  8
スト－ル
  6
CONTINUOUS
 62
     6
100
AcDbVertex
100
AcDb2dVertex
 10
1717.428558
 20
1545.198456
 30
0.0
  0
VERTEX
  5
40F
100
AcDbEntity
  8
スト－ル
  6
CONTINUOUS
 62
     6
100
AcDbVertex
100
AcDb2dVertex
 10
1717.538422
 20
1544.773651
 30
0.0
  0
VERTEX
  5
410
100
AcDbEntity
  8
スト－ル
  6
CONTINUOUS
 62
     6
100
AcDbVertex
100
AcDb2dVertex
 10
1717.670258
 20
1544.366089
 30
0.0
  0
VERTEX
  5
411
100
AcDbEntity
  8
スト－ル
  6
CONTINUOUS
 62
     6
100
AcDbVertex
100
AcDb2dVertex
 10
1717.824066
 20
1543.978516
 30
0.0
  0
VERTEX
  5
412
100
AcDbEntity
  8
スト－ル
  6
CONTINUOUS
 62
     6
100
AcDbVertex
100
AcDb2dVertex
 10
1717.997406
 20
1543.613678
 30
0.0
  0
VERTEX
  5
413
100
AcDbEntity
  8
スト－ル
  6
CONTINUOUS
 62
     6
100
AcDbVertex
100
AcDb2dVertex
 10
1718.190277
 20
1543.275238
 30
0.0
  0
VERTEX
  5
414
100
AcDbEntity
  8
スト－ル
  6
CONTINUOUS
 62
     6
100
AcDbVertex
100
AcDb2dVertex
 10
1718.400238
 20
1542.964722
 30
0.0
  0
VERTEX
  5
415
100
AcDbEntity
  8
スト－ル
  6
CONTINUOUS
 62
     6
100
AcDbVertex
100
AcDb2dVertex
 10
1718.627289
 20
1542.685028
 30
0.0
  0
VERTEX
  5
416
100
AcDbEntity
  8
スト－ル
  6
CONTINUOUS
 62
     6
100
AcDbVertex
100
AcDb2dVertex
 10
1718.866547
 20
1542.438141
 30
0.0
  0
VERTEX
  5
417
100
AcDbEntity
  8
スト－ル
  6
CONTINUOUS
 62
     6
100
AcDbVertex
100
AcDb2dVertex
 10
1719.120453
 20
1542.225891
 30
0.0
  0
VERTEX
  5
418
100
AcDbEntity
  8
スト－ル
  6
CONTINUOUS
 62
     6
100
AcDbVertex
100
AcDb2dVertex
 10
1719.384125
 20
1542.049957
 30
0.0
  0
VERTEX
  5
419
100
AcDbEntity
  8
スト－ル
  6
CONTINUOUS
 62
     6
100
AcDbVertex
100
AcDb2dVertex
 10
1719.655121
 20
1541.911865
 30
0.0
  0
VERTEX
  5
41A
100
AcDbEntity
  8
スト－ル
  6
CONTINUOUS
 62
     6
100
AcDbVertex
100
AcDb2dVertex
 10
1719.933441
 20
1541.812378
 30
0.0
  0
VERTEX
  5
41B
100
AcDbEntity
  8
スト－ル
  6
CONTINUOUS
 62
     6
100
AcDbVertex
100
AcDb2dVertex
 10
1720.216644
 20
1541.752411
 30
0.0
  0
VERTEX
  5
41C
100
AcDbEntity
  8
スト－ル
  6
CONTINUOUS
 62
     6
100
AcDbVertex
100
AcDb2dVertex
 10
1720.502289
 20
1541.732117
 30
0.0
  0
VERTEX
  5
41D
100
AcDbEntity
  8
スト－ル
  6
CONTINUOUS
 62
     6
100
AcDbVertex
100
AcDb2dVertex
 10
1720.785492
 20
1541.752106
 30
0.0
  0
VERTEX
  5
41E
100
AcDbEntity
  8
スト－ル
  6
CONTINUOUS
 62
     6
100
AcDbVertex
100
AcDb2dVertex
 10
1721.068695
 20
1541.812073
 30
0.0
  0
VERTEX
  5
41F
100
AcDbEntity
  8
スト－ル
  6
CONTINUOUS
 62
     6
100
AcDbVertex
100
AcDb2dVertex
 10
1721.347015
 20
1541.911865
 30
0.0
  0
VERTEX
  5
420
100
AcDbEntity
  8
スト－ル
  6
CONTINUOUS
 62
     6
100
AcDbVertex
100
AcDb2dVertex
 10
1721.620453
 20
1542.05011
 30
0.0
  0
VERTEX
  5
421
100
AcDbEntity
  8
スト－ル
  6
CONTINUOUS
 62
     6
100
AcDbVertex
100
AcDb2dVertex
 10
1721.884125
 20
1542.226044
 30
0.0
  0
SEQEND
  5
422
100
AcDbEntity
  8
スト－ル
  6
CONTINUOUS
 62
     6
  0
POLYLINE
  5
423
100
AcDbEntity
  8
スト－ル
  6
CONTINUOUS
 62
     6
100
AcDb2dPolyline
 66
     1
 10
0.0
 20
0.0
 30
0.0
 70
   128
  0
VERTEX
  5
424
100
AcDbEntity
  8
スト－ル
  6
CONTINUOUS
 62
     6
100
AcDbVertex
100
AcDb2dVertex
 10
1721.884125
 20
1542.226044
 30
0.0
  0
VERTEX
  5
425
100
AcDbEntity
  8
スト－ル
  6
CONTINUOUS
 62
     6
100
AcDbVertex
100
AcDb2dVertex
 10
1722.13559
 20
1542.438141
 30
0.0
  0
VERTEX
  5
426
100
AcDbEntity
  8
スト－ル
  6
CONTINUOUS
 62
     6
100
AcDbVertex
100
AcDb2dVertex
 10
1722.377289
 20
1542.685028
 30
0.0
  0
VERTEX
  5
427
100
AcDbEntity
  8
スト－ル
  6
CONTINUOUS
 62
     6
100
AcDbVertex
100
AcDb2dVertex
 10
1722.60434
 20
1542.964722
 30
0.0
  0
VERTEX
  5
428
100
AcDbEntity
  8
スト－ル
  6
CONTINUOUS
 62
     6
100
AcDbVertex
100
AcDb2dVertex
 10
1722.814301
 20
1543.275238
 30
0.0
  0
VERTEX
  5
429
100
AcDbEntity
  8
スト－ル
  6
CONTINUOUS
 62
     6
100
AcDbVertex
100
AcDb2dVertex
 10
1723.007172
 20
1543.613983
 30
0.0
  0
VERTEX
  5
42A
100
AcDbEntity
  8
スト－ル
  6
CONTINUOUS
 62
     6
100
AcDbVertex
100
AcDb2dVertex
 10
1723.180512
 20
1543.978516
 30
0.0
  0
VERTEX
  5
42B
100
AcDbEntity
  8
スト－ル
  6
CONTINUOUS
 62
     6
100
AcDbVertex
100
AcDb2dVertex
 10
1723.33432
 20
1544.366089
 30
0.0
  0
VERTEX
  5
42C
100
AcDbEntity
  8
スト－ル
  6
CONTINUOUS
 62
     6
100
AcDbVertex
100
AcDb2dVertex
 10
1723.463715
 20
1544.773651
 30
0.0
  0
VERTEX
  5
42D
100
AcDbEntity
  8
スト－ル
  6
CONTINUOUS
 62
     6
100
AcDbVertex
100
AcDb2dVertex
 10
1723.573578
 20
1545.198151
 30
0.0
  0
VERTEX
  5
42E
100
AcDbEntity
  8
スト－ル
  6
CONTINUOUS
 62
     6
100
AcDbVertex
100
AcDb2dVertex
 10
1723.659027
 20
1545.636688
 30
0.0
  0
SEQEND
  5
42F
100
AcDbEntity
  8
スト－ル
  6
CONTINUOUS
 62
     6
  0
POLYLINE
  5
430
100
AcDbEntity
  8
スト－ル
  6
CONTINUOUS
 62
     6
100
AcDb2dPolyline
 66
     1
 10
0.0
 20
0.0
 30
0.0
 70
   128
  0
VERTEX
  5
431
100
AcDbEntity
  8
スト－ル
  6
CONTINUOUS
 62
     6
100
AcDbVertex
100
AcDb2dVertex
 10
1723.659027
 20
1545.636688
 30
0.0
  0
VERTEX
  5
432
100
AcDbEntity
  8
スト－ル
  6
CONTINUOUS
 62
     6
100
AcDbVertex
100
AcDb2dVertex
 10
1723.722504
 20
1546.085297
 30
0.0
  0
VERTEX
  5
433
100
AcDbEntity
  8
スト－ル
  6
CONTINUOUS
 62
     6
100
AcDbVertex
100
AcDb2dVertex
 10
1723.759125
 20
1546.540924
 30
0.0
  0
VERTEX
  5
434
100
AcDbEntity
  8
スト－ル
  6
CONTINUOUS
 62
     6
100
AcDbVertex
100
AcDb2dVertex
 10
1723.771332
 20
1546.999756
 30
0.0
  0
SEQEND
  5
435
100
AcDbEntity
  8
スト－ル
  6
CONTINUOUS
 62
     6
  0
POLYLINE
  5
436
100
AcDbEntity
  8
スト－ル
  6
CONTINUOUS
 62
     6
100
AcDb2dPolyline
 66
     1
 10
0.0
 20
0.0
 30
0.0
 70
   128
  0
VERTEX
  5
437
100
AcDbEntity
  8
スト－ル
  6
CONTINUOUS
 62
     6
100
AcDbVertex
100
AcDb2dVertex
 10
1715.34848
 20
1547.000366
 30
0.0
  0
VERTEX
  5
438
100
AcDbEntity
  8
スト－ル
  6
CONTINUOUS
 62
     6
100
AcDbVertex
100
AcDb2dVertex
 10
1715.324066
 20
1547.459503
 30
0.0
  0
VERTEX
  5
439
100
AcDbEntity
  8
スト－ル
  6
CONTINUOUS
 62
     6
100
AcDbVertex
100
AcDb2dVertex
 10
1715.248383
 20
1547.915436
 30
0.0
  0
VERTEX
  5
43A
100
AcDbEntity
  8
スト－ル
  6
CONTINUOUS
 62
     6
100
AcDbVertex
100
AcDb2dVertex
 10
1715.126312
 20
1548.363739
 30
0.0
  0
VERTEX
  5
43B
100
AcDbEntity
  8
スト－ル
  6
CONTINUOUS
 62
     6
100
AcDbVertex
100
AcDb2dVertex
 10
1714.955414
 20
1548.801971
 30
0.0
  0
VERTEX
  5
43C
100
AcDbEntity
  8
スト－ル
  6
CONTINUOUS
 62
     6
100
AcDbVertex
100
AcDb2dVertex
 10
1714.735687
 20
1549.226776
 30
0.0
  0
VERTEX
  5
43D
100
AcDbEntity
  8
スト－ル
  6
CONTINUOUS
 62
     6
100
AcDbVertex
100
AcDb2dVertex
 10
1714.472015
 20
1549.634186
 30
0.0
  0
VERTEX
  5
43E
100
AcDbEntity
  8
スト－ル
  6
CONTINUOUS
 62
     6
100
AcDbVertex
100
AcDb2dVertex
 10
1714.16684
 20
1550.021759
 30
0.0
  0
VERTEX
  5
43F
100
AcDbEntity
  8
スト－ル
  6
CONTINUOUS
 62
     6
100
AcDbVertex
100
AcDb2dVertex
 10
1713.82016
 20
1550.386597
 30
0.0
  0
VERTEX
  5
440
100
AcDbEntity
  8
スト－ル
  6
CONTINUOUS
 62
     6
100
AcDbVertex
100
AcDb2dVertex
 10
1713.434418
 20
1550.725189
 30
0.0
  0
VERTEX
  5
441
100
AcDbEntity
  8
スト－ル
  6
CONTINUOUS
 62
     6
100
AcDbVertex
100
AcDb2dVertex
 10
1713.012054
 20
1551.035706
 30
0.0
  0
VERTEX
  5
442
100
AcDbEntity
  8
スト－ル
  6
CONTINUOUS
 62
     6
100
AcDbVertex
100
AcDb2dVertex
 10
1712.560394
 20
1551.315399
 30
0.0
  0
VERTEX
  5
443
100
AcDbEntity
  8
スト－ル
  6
CONTINUOUS
 62
     6
100
AcDbVertex
100
AcDb2dVertex
 10
1712.079437
 20
1551.562286
 30
0.0
  0
VERTEX
  5
444
100
AcDbEntity
  8
スト－ル
  6
CONTINUOUS
 62
     6
100
AcDbVertex
100
AcDb2dVertex
 10
1711.574066
 20
1551.774536
 30
0.0
  0
VERTEX
  5
445
100
AcDbEntity
  8
スト－ル
  6
CONTINUOUS
 62
     6
100
AcDbVertex
100
AcDb2dVertex
 10
1711.046722
 20
1551.95047
 30
0.0
  0
VERTEX
  5
446
100
AcDbEntity
  8
スト－ル
  6
CONTINUOUS
 62
     6
100
AcDbVertex
100
AcDb2dVertex
 10
1710.502289
 20
1552.088409
 30
0.0
  0
VERTEX
  5
447
100
AcDbEntity
  8
スト－ル
  6
CONTINUOUS
 62
     6
100
AcDbVertex
100
AcDb2dVertex
 10
1709.945648
 20
1552.187897
 30
0.0
  0
VERTEX
  5
448
100
AcDbEntity
  8
スト－ル
  6
CONTINUOUS
 62
     6
100
AcDbVertex
100
AcDb2dVertex
 10
1709.379242
 20
1552.247864
 30
0.0
  0
VERTEX
  5
449
100
AcDbEntity
  8
スト－ル
  6
CONTINUOUS
 62
     6
100
AcDbVertex
100
AcDb2dVertex
 10
1708.810394
 20
1552.268005
 30
0.0
  0
VERTEX
  5
44A
100
AcDbEntity
  8
スト－ル
  6
CONTINUOUS
 62
     6
100
AcDbVertex
100
AcDb2dVertex
 10
1708.241547
 20
1552.248016
 30
0.0
  0
VERTEX
  5
44B
100
AcDbEntity
  8
スト－ル
  6
CONTINUOUS
 62
     6
100
AcDbVertex
100
AcDb2dVertex
 10
1707.67514
 20
1552.188049
 30
0.0
  0
VERTEX
  5
44C
100
AcDbEntity
  8
スト－ル
  6
CONTINUOUS
 62
     6
100
AcDbVertex
100
AcDb2dVertex
 10
1707.1185
 20
1552.088409
 30
0.0
  0
VERTEX
  5
44D
100
AcDbEntity
  8
スト－ル
  6
CONTINUOUS
 62
     6
100
AcDbVertex
100
AcDb2dVertex
 10
1706.574066
 20
1551.950165
 30
0.0
  0
VERTEX
  5
44E
100
AcDbEntity
  8
スト－ル
  6
CONTINUOUS
 62
     6
100
AcDbVertex
100
AcDb2dVertex
 10
1706.046722
 20
1551.774231
 30
0.0
  0
VERTEX
  5
44F
100
AcDbEntity
  8
スト－ル
  6
CONTINUOUS
 62
     6
100
AcDbVertex
100
AcDb2dVertex
 10
1705.541351
 20
1551.562286
 30
0.0
  0
VERTEX
  5
450
100
AcDbEntity
  8
スト－ル
  6
CONTINUOUS
 62
     6
100
AcDbVertex
100
AcDb2dVertex
 10
1705.060394
 20
1551.315399
 30
0.0
  0
VERTEX
  5
451
100
AcDbEntity
  8
スト－ル
  6
CONTINUOUS
 62
     6
100
AcDbVertex
100
AcDb2dVertex
 10
1704.606293
 20
1551.035706
 30
0.0
  0
VERTEX
  5
452
100
AcDbEntity
  8
スト－ル
  6
CONTINUOUS
 62
     6
100
AcDbVertex
100
AcDb2dVertex
 10
1704.186371
 20
1550.725189
 30
0.0
  0
VERTEX
  5
453
100
AcDbEntity
  8
スト－ル
  6
CONTINUOUS
 62
     6
100
AcDbVertex
100
AcDb2dVertex
 10
1703.80307
 20
1550.386444
 30
0.0
  0
VERTEX
  5
454
100
AcDbEntity
  8
スト－ル
  6
CONTINUOUS
 62
     6
100
AcDbVertex
100
AcDb2dVertex
 10
1703.453949
 20
1550.021912
 30
0.0
  0
VERTEX
  5
455
100
AcDbEntity
  8
スト－ル
  6
CONTINUOUS
 62
     6
100
AcDbVertex
100
AcDb2dVertex
 10
1703.148773
 20
1549.634186
 30
0.0
  0
VERTEX
  5
456
100
AcDbEntity
  8
スト－ル
  6
CONTINUOUS
 62
     6
100
AcDbVertex
100
AcDb2dVertex
 10
1702.885101
 20
1549.226624
 30
0.0
  0
VERTEX
  5
457
100
AcDbEntity
  8
スト－ル
  6
CONTINUOUS
 62
     6
100
AcDbVertex
100
AcDb2dVertex
 10
1702.667816
 20
1548.802124
 30
0.0
  0
VERTEX
  5
458
100
AcDbEntity
  8
スト－ル
  6
CONTINUOUS
 62
     6
100
AcDbVertex
100
AcDb2dVertex
 10
1702.494476
 20
1548.363739
 30
0.0
  0
VERTEX
  5
459
100
AcDbEntity
  8
スト－ル
  6
CONTINUOUS
 62
     6
100
AcDbVertex
100
AcDb2dVertex
 10
1702.372406
 20
1547.915131
 30
0.0
  0
VERTEX
  5
45A
100
AcDbEntity
  8
スト－ル
  6
CONTINUOUS
 62
     6
100
AcDbVertex
100
AcDb2dVertex
 10
1702.296722
 20
1547.459503
 30
0.0
  0
VERTEX
  5
45B
100
AcDbEntity
  8
スト－ル
  6
CONTINUOUS
 62
     6
100
AcDbVertex
100
AcDb2dVertex
 10
1702.272308
 20
1547.000366
 30
0.0
  0
VERTEX
  5
45C
100
AcDbEntity
  8
スト－ル
  6
CONTINUOUS
 62
     6
100
AcDbVertex
100
AcDb2dVertex
 10
1702.296722
 20
1546.541382
 30
0.0
  0
VERTEX
  5
45D
100
AcDbEntity
  8
スト－ル
  6
CONTINUOUS
 62
     6
100
AcDbVertex
100
AcDb2dVertex
 10
1702.372406
 20
1546.085907
 30
0.0
  0
VERTEX
  5
45E
100
AcDbEntity
  8
スト－ル
  6
CONTINUOUS
 62
     6
100
AcDbVertex
100
AcDb2dVertex
 10
1702.494476
 20
1545.636688
 30
0.0
  0
VERTEX
  5
45F
100
AcDbEntity
  8
スト－ル
  6
CONTINUOUS
 62
     6
100
AcDbVertex
100
AcDb2dVertex
 10
1702.667816
 20
1545.198456
 30
0.0
  0
VERTEX
  5
460
100
AcDbEntity
  8
スト－ル
  6
CONTINUOUS
 62
     6
100
AcDbVertex
100
AcDb2dVertex
 10
1702.885101
 20
1544.773651
 30
0.0
  0
VERTEX
  5
461
100
AcDbEntity
  8
スト－ル
  6
CONTINUOUS
 62
     6
100
AcDbVertex
100
AcDb2dVertex
 10
1703.148773
 20
1544.366089
 30
0.0
  0
VERTEX
  5
462
100
AcDbEntity
  8
スト－ル
  6
CONTINUOUS
 62
     6
100
AcDbVertex
100
AcDb2dVertex
 10
1703.453949
 20
1543.978516
 30
0.0
  0
VERTEX
  5
463
100
AcDbEntity
  8
スト－ル
  6
CONTINUOUS
 62
     6
100
AcDbVertex
100
AcDb2dVertex
 10
1703.800629
 20
1543.613678
 30
0.0
  0
VERTEX
  5
464
100
AcDbEntity
  8
スト－ル
  6
CONTINUOUS
 62
     6
100
AcDbVertex
100
AcDb2dVertex
 10
1704.186371
 20
1543.275238
 30
0.0
  0
VERTEX
  5
465
100
AcDbEntity
  8
スト－ル
  6
CONTINUOUS
 62
     6
100
AcDbVertex
100
AcDb2dVertex
 10
1704.608734
 20
1542.964722
 30
0.0
  0
VERTEX
  5
466
100
AcDbEntity
  8
スト－ル
  6
CONTINUOUS
 62
     6
100
AcDbVertex
100
AcDb2dVertex
 10
1705.060394
 20
1542.685028
 30
0.0
  0
VERTEX
  5
467
100
AcDbEntity
  8
スト－ル
  6
CONTINUOUS
 62
     6
100
AcDbVertex
100
AcDb2dVertex
 10
1705.541351
 20
1542.438141
 30
0.0
  0
VERTEX
  5
468
100
AcDbEntity
  8
スト－ル
  6
CONTINUOUS
 62
     6
100
AcDbVertex
100
AcDb2dVertex
 10
1706.046722
 20
1542.225891
 30
0.0
  0
VERTEX
  5
469
100
AcDbEntity
  8
スト－ル
  6
CONTINUOUS
 62
     6
100
AcDbVertex
100
AcDb2dVertex
 10
1706.574066
 20
1542.049957
 30
0.0
  0
VERTEX
  5
46A
100
AcDbEntity
  8
スト－ル
  6
CONTINUOUS
 62
     6
100
AcDbVertex
100
AcDb2dVertex
 10
1707.1185
 20
1541.911865
 30
0.0
  0
VERTEX
  5
46B
100
AcDbEntity
  8
スト－ル
  6
CONTINUOUS
 62
     6
100
AcDbVertex
100
AcDb2dVertex
 10
1707.67514
 20
1541.812378
 30
0.0
  0
VERTEX
  5
46C
100
AcDbEntity
  8
スト－ル
  6
CONTINUOUS
 62
     6
100
AcDbVertex
100
AcDb2dVertex
 10
1708.241547
 20
1541.752411
 30
0.0
  0
VERTEX
  5
46D
100
AcDbEntity
  8
スト－ル
  6
CONTINUOUS
 62
     6
100
AcDbVertex
100
AcDb2dVertex
 10
1708.810394
 20
1541.732117
 30
0.0
  0
VERTEX
  5
46E
100
AcDbEntity
  8
スト－ル
  6
CONTINUOUS
 62
     6
100
AcDbVertex
100
AcDb2dVertex
 10
1709.381683
 20
1541.752106
 30
0.0
  0
VERTEX
  5
46F
100
AcDbEntity
  8
スト－ル
  6
CONTINUOUS
 62
     6
100
AcDbVertex
100
AcDb2dVertex
 10
1709.945648
 20
1541.812073
 30
0.0
  0
VERTEX
  5
470
100
AcDbEntity
  8
スト－ル
  6
CONTINUOUS
 62
     6
100
AcDbVertex
100
AcDb2dVertex
 10
1710.502289
 20
1541.911865
 30
0.0
  0
VERTEX
  5
471
100
AcDbEntity
  8
スト－ル
  6
CONTINUOUS
 62
     6
100
AcDbVertex
100
AcDb2dVertex
 10
1711.046722
 20
1542.05011
 30
0.0
  0
VERTEX
  5
472
100
AcDbEntity
  8
スト－ル
  6
CONTINUOUS
 62
     6
100
AcDbVertex
100
AcDb2dVertex
 10
1711.574066
 20
1542.226044
 30
0.0
  0
SEQEND
  5
473
100
AcDbEntity
  8
スト－ル
  6
CONTINUOUS
 62
     6
  0
POLYLINE
  5
474
100
AcDbEntity
  8
スト－ル
  6
CONTINUOUS
 62
     6
100
AcDb2dPolyline
 66
     1
 10
0.0
 20
0.0
 30
0.0
 70
   128
  0
VERTEX
  5
475
100
AcDbEntity
  8
スト－ル
  6
CONTINUOUS
 62
     6
100
AcDbVertex
100
AcDb2dVertex
 10
1711.574066
 20
1542.226044
 30
0.0
  0
VERTEX
  5
476
100
AcDbEntity
  8
スト－ル
  6
CONTINUOUS
 62
     6
100
AcDbVertex
100
AcDb2dVertex
 10
1712.079437
 20
1542.438141
 30
0.0
  0
VERTEX
  5
477
100
AcDbEntity
  8
スト－ル
  6
CONTINUOUS
 62
     6
100
AcDbVertex
100
AcDb2dVertex
 10
1712.560394
 20
1542.685028
 30
0.0
  0
VERTEX
  5
478
100
AcDbEntity
  8
スト－ル
  6
CONTINUOUS
 62
     6
100
AcDbVertex
100
AcDb2dVertex
 10
1713.014496
 20
1542.964722
 30
0.0
  0
VERTEX
  5
479
100
AcDbEntity
  8
スト－ル
  6
CONTINUOUS
 62
     6
100
AcDbVertex
100
AcDb2dVertex
 10
1713.434418
 20
1543.275238
 30
0.0
  0
VERTEX
  5
47A
100
AcDbEntity
  8
スト－ル
  6
CONTINUOUS
 62
     6
100
AcDbVertex
100
AcDb2dVertex
 10
1713.82016
 20
1543.613983
 30
0.0
  0
VERTEX
  5
47B
100
AcDbEntity
  8
スト－ル
  6
CONTINUOUS
 62
     6
100
AcDbVertex
100
AcDb2dVertex
 10
1714.16684
 20
1543.978516
 30
0.0
  0
VERTEX
  5
47C
100
AcDbEntity
  8
スト－ル
  6
CONTINUOUS
 62
     6
100
AcDbVertex
100
AcDb2dVertex
 10
1714.472015
 20
1544.366089
 30
0.0
  0
VERTEX
  5
47D
100
AcDbEntity
  8
スト－ル
  6
CONTINUOUS
 62
     6
100
AcDbVertex
100
AcDb2dVertex
 10
1714.735687
 20
1544.773651
 30
0.0
  0
VERTEX
  5
47E
100
AcDbEntity
  8
スト－ル
  6
CONTINUOUS
 62
     6
100
AcDbVertex
100
AcDb2dVertex
 10
1714.955414
 20
1545.198151
 30
0.0
  0
VERTEX
  5
47F
100
AcDbEntity
  8
スト－ル
  6
CONTINUOUS
 62
     6
100
AcDbVertex
100
AcDb2dVertex
 10
1715.126312
 20
1545.636688
 30
0.0
  0
SEQEND
  5
480
100
AcDbEntity
  8
スト－ル
  6
CONTINUOUS
 62
     6
  0
POLYLINE
  5
481
100
AcDbEntity
  8
スト－ル
  6
CONTINUOUS
 62
     6
100
AcDb2dPolyline
 66
     1
 10
0.0
 20
0.0
 30
0.0
 70
   128
  0
VERTEX
  5
482
100
AcDbEntity
  8
スト－ル
  6
CONTINUOUS
 62
     6
100
AcDbVertex
100
AcDb2dVertex
 10
1715.126312
 20
1545.636688
 30
0.0
  0
VERTEX
  5
483
100
AcDbEntity
  8
スト－ル
  6
CONTINUOUS
 62
     6
100
AcDbVertex
100
AcDb2dVertex
 10
1715.250824
 20
1546.085297
 30
0.0
  0
VERTEX
  5
484
100
AcDbEntity
  8
スト－ル
  6
CONTINUOUS
 62
     6
100
AcDbVertex
100
AcDb2dVertex
 10
1715.324066
 20
1546.540924
 30
0.0
  0
VERTEX
  5
485
100
AcDbEntity
  8
スト－ル
  6
CONTINUOUS
 62
     6
100
AcDbVertex
100
AcDb2dVertex
 10
1715.34848
 20
1546.999756
 30
0.0
  0
SEQEND
  5
486
100
AcDbEntity
  8
スト－ル
  6
CONTINUOUS
 62
     6
  0
POLYLINE
  5
487
100
AcDbEntity
  8
スト－ル
  6
CONTINUOUS
 62
     6
100
AcDb2dPolyline
 66
     1
 10
0.0
 20
0.0
 30
0.0
 70
   128
  0
VERTEX
  5
488
100
AcDbEntity
  8
スト－ル
  6
CONTINUOUS
 62
     6
100
AcDbVertex
100
AcDb2dVertex
 10
1700.387543
 20
1547.000366
 30
0.0
  0
VERTEX
  5
489
100
AcDbEntity
  8
スト－ル
  6
CONTINUOUS
 62
     6
100
AcDbVertex
100
AcDb2dVertex
 10
1700.375336
 20
1547.459503
 30
0.0
  0
VERTEX
  5
48A
100
AcDbEntity
  8
スト－ル
  6
CONTINUOUS
 62
     6
100
AcDbVertex
100
AcDb2dVertex
 10
1700.338715
 20
1547.915436
 30
0.0
  0
VERTEX
  5
48B
100
AcDbEntity
  8
スト－ル
  6
CONTINUOUS
 62
     6
100
AcDbVertex
100
AcDb2dVertex
 10
1700.275238
 20
1548.363739
 30
0.0
  0
VERTEX
  5
48C
100
AcDbEntity
  8
スト－ル
  6
CONTINUOUS
 62
     6
100
AcDbVertex
100
AcDb2dVertex
 10
1700.189789
 20
1548.801971
 30
0.0
  0
VERTEX
  5
48D
100
AcDbEntity
  8
スト－ル
  6
CONTINUOUS
 62
     6
100
AcDbVertex
100
AcDb2dVertex
 10
1700.079926
 20
1549.226776
 30
0.0
  0
VERTEX
  5
48E
100
AcDbEntity
  8
スト－ル
  6
CONTINUOUS
 62
     6
100
AcDbVertex
100
AcDb2dVertex
 10
1699.94809
 20
1549.634186
 30
0.0
  0
VERTEX
  5
48F
100
AcDbEntity
  8
スト－ル
  6
CONTINUOUS
 62
     6
100
AcDbVertex
100
AcDb2dVertex
 10
1699.794281
 20
1550.021759
 30
0.0
  0
VERTEX
  5
490
100
AcDbEntity
  8
スト－ル
  6
CONTINUOUS
 62
     6
100
AcDbVertex
100
AcDb2dVertex
 10
1699.6185
 20
1550.386597
 30
0.0
  0
VERTEX
  5
491
100
AcDbEntity
  8
スト－ル
  6
CONTINUOUS
 62
     6
100
AcDbVertex
100
AcDb2dVertex
 10
1699.425629
 20
1550.725189
 30
0.0
  0
VERTEX
  5
492
100
AcDbEntity
  8
スト－ル
  6
CONTINUOUS
 62
     6
100
AcDbVertex
100
AcDb2dVertex
 10
1699.213226
 20
1551.035706
 30
0.0
  0
VERTEX
  5
493
100
AcDbEntity
  8
スト－ル
  6
CONTINUOUS
 62
     6
100
AcDbVertex
100
AcDb2dVertex
 10
1698.986176
 20
1551.315552
 30
0.0
  0
VERTEX
  5
494
100
AcDbEntity
  8
スト－ル
  6
CONTINUOUS
 62
     6
100
AcDbVertex
100
AcDb2dVertex
 10
1698.744476
 20
1551.562439
 30
0.0
  0
VERTEX
  5
495
100
AcDbEntity
  8
スト－ル
  6
CONTINUOUS
 62
     6
100
AcDbVertex
100
AcDb2dVertex
 10
1698.49057
 20
1551.774536
 30
0.0
  0
VERTEX
  5
496
100
AcDbEntity
  8
スト－ル
  6
CONTINUOUS
 62
     6
100
AcDbVertex
100
AcDb2dVertex
 10
1698.224457
 20
1551.95047
 30
0.0
  0
VERTEX
  5
497
100
AcDbEntity
  8
スト－ル
  6
CONTINUOUS
 62
     6
100
AcDbVertex
100
AcDb2dVertex
 10
1697.951019
 20
1552.088409
 30
0.0
  0
VERTEX
  5
498
100
AcDbEntity
  8
スト－ル
  6
CONTINUOUS
 62
     6
100
AcDbVertex
100
AcDb2dVertex
 10
1697.670258
 20
1552.187744
 30
0.0
  0
VERTEX
  5
499
100
AcDbEntity
  8
スト－ル
  6
CONTINUOUS
 62
     6
100
AcDbVertex
100
AcDb2dVertex
 10
1697.387054
 20
1552.247711
 30
0.0
  0
VERTEX
  5
49A
100
AcDbEntity
  8
スト－ル
  6
CONTINUOUS
 62
     6
100
AcDbVertex
100
AcDb2dVertex
 10
1697.098969
 20
1552.268005
 30
0.0
  0
VERTEX
  5
49B
100
AcDbEntity
  8
スト－ル
  6
CONTINUOUS
 62
     6
100
AcDbVertex
100
AcDb2dVertex
 10
1696.813324
 20
1552.248016
 30
0.0
  0
VERTEX
  5
49C
100
AcDbEntity
  8
スト－ル
  6
CONTINUOUS
 62
     6
100
AcDbVertex
100
AcDb2dVertex
 10
1696.527679
 20
1552.188049
 30
0.0
  0
VERTEX
  5
49D
100
AcDbEntity
  8
スト－ル
  6
CONTINUOUS
 62
     6
100
AcDbVertex
100
AcDb2dVertex
 10
1696.249359
 20
1552.088409
 30
0.0
  0
VERTEX
  5
49E
100
AcDbEntity
  8
スト－ル
  6
CONTINUOUS
 62
     6
100
AcDbVertex
100
AcDb2dVertex
 10
1695.97348
 20
1551.950165
 30
0.0
  0
VERTEX
  5
49F
100
AcDbEntity
  8
スト－ル
  6
CONTINUOUS
 62
     6
100
AcDbVertex
100
AcDb2dVertex
 10
1695.709808
 20
1551.774231
 30
0.0
  0
VERTEX
  5
4A0
100
AcDbEntity
  8
スト－ル
  6
CONTINUOUS
 62
     6
100
AcDbVertex
100
AcDb2dVertex
 10
1695.455902
 20
1551.562439
 30
0.0
  0
VERTEX
  5
4A1
100
AcDbEntity
  8
スト－ル
  6
CONTINUOUS
 62
     6
100
AcDbVertex
100
AcDb2dVertex
 10
1695.211762
 20
1551.315552
 30
0.0
  0
VERTEX
  5
4A2
100
AcDbEntity
  8
スト－ル
  6
CONTINUOUS
 62
     6
100
AcDbVertex
100
AcDb2dVertex
 10
1694.984711
 20
1551.035706
 30
0.0
  0
VERTEX
  5
4A3
100
AcDbEntity
  8
スト－ル
  6
CONTINUOUS
 62
     6
100
AcDbVertex
100
AcDb2dVertex
 10
1694.77475
 20
1550.725189
 30
0.0
  0
VERTEX
  5
4A4
100
AcDbEntity
  8
スト－ル
  6
CONTINUOUS
 62
     6
100
AcDbVertex
100
AcDb2dVertex
 10
1694.579437
 20
1550.386292
 30
0.0
  0
VERTEX
  5
4A5
100
AcDbEntity
  8
スト－ル
  6
CONTINUOUS
 62
     6
100
AcDbVertex
100
AcDb2dVertex
 10
1694.406097
 20
1550.021759
 30
0.0
  0
VERTEX
  5
4A6
100
AcDbEntity
  8
スト－ル
  6
CONTINUOUS
 62
     6
100
AcDbVertex
100
AcDb2dVertex
 10
1694.252289
 20
1549.634186
 30
0.0
  0
VERTEX
  5
4A7
100
AcDbEntity
  8
スト－ル
  6
CONTINUOUS
 62
     6
100
AcDbVertex
100
AcDb2dVertex
 10
1694.118012
 20
1549.226624
 30
0.0
  0
VERTEX
  5
4A8
100
AcDbEntity
  8
スト－ル
  6
CONTINUOUS
 62
     6
100
AcDbVertex
100
AcDb2dVertex
 10
1694.008148
 20
1548.802124
 30
0.0
  0
VERTEX
  5
4A9
100
AcDbEntity
  8
スト－ル
  6
CONTINUOUS
 62
     6
100
AcDbVertex
100
AcDb2dVertex
 10
1693.922699
 20
1548.363739
 30
0.0
  0
VERTEX
  5
4AA
100
AcDbEntity
  8
スト－ル
  6
CONTINUOUS
 62
     6
100
AcDbVertex
100
AcDb2dVertex
 10
1693.861664
 20
1547.915131
 30
0.0
  0
VERTEX
  5
4AB
100
AcDbEntity
  8
スト－ル
  6
CONTINUOUS
 62
     6
100
AcDbVertex
100
AcDb2dVertex
 10
1693.822601
 20
1547.459503
 30
0.0
  0
VERTEX
  5
4AC
100
AcDbEntity
  8
スト－ル
  6
CONTINUOUS
 62
     6
100
AcDbVertex
100
AcDb2dVertex
 10
1693.810394
 20
1547.000366
 30
0.0
  0
VERTEX
  5
4AD
100
AcDbEntity
  8
スト－ル
  6
CONTINUOUS
 62
     6
100
AcDbVertex
100
AcDb2dVertex
 10
1693.822601
 20
1546.541382
 30
0.0
  0
VERTEX
  5
4AE
100
AcDbEntity
  8
スト－ル
  6
CONTINUOUS
 62
     6
100
AcDbVertex
100
AcDb2dVertex
 10
1693.861664
 20
1546.085907
 30
0.0
  0
VERTEX
  5
4AF
100
AcDbEntity
  8
スト－ル
  6
CONTINUOUS
 62
     6
100
AcDbVertex
100
AcDb2dVertex
 10
1693.922699
 20
1545.636688
 30
0.0
  0
VERTEX
  5
4B0
100
AcDbEntity
  8
スト－ル
  6
CONTINUOUS
 62
     6
100
AcDbVertex
100
AcDb2dVertex
 10
1694.008148
 20
1545.198456
 30
0.0
  0
VERTEX
  5
4B1
100
AcDbEntity
  8
スト－ル
  6
CONTINUOUS
 62
     6
100
AcDbVertex
100
AcDb2dVertex
 10
1694.118012
 20
1544.773651
 30
0.0
  0
VERTEX
  5
4B2
100
AcDbEntity
  8
スト－ル
  6
CONTINUOUS
 62
     6
100
AcDbVertex
100
AcDb2dVertex
 10
1694.252289
 20
1544.366089
 30
0.0
  0
VERTEX
  5
4B3
100
AcDbEntity
  8
スト－ル
  6
CONTINUOUS
 62
     6
100
AcDbVertex
100
AcDb2dVertex
 10
1694.406097
 20
1543.978516
 30
0.0
  0
VERTEX
  5
4B4
100
AcDbEntity
  8
スト－ル
  6
CONTINUOUS
 62
     6
100
AcDbVertex
100
AcDb2dVertex
 10
1694.579437
 20
1543.613678
 30
0.0
  0
VERTEX
  5
4B5
100
AcDbEntity
  8
スト－ル
  6
CONTINUOUS
 62
     6
100
AcDbVertex
100
AcDb2dVertex
 10
1694.77475
 20
1543.275238
 30
0.0
  0
VERTEX
  5
4B6
100
AcDbEntity
  8
スト－ル
  6
CONTINUOUS
 62
     6
100
AcDbVertex
100
AcDb2dVertex
 10
1694.984711
 20
1542.964722
 30
0.0
  0
VERTEX
  5
4B7
100
AcDbEntity
  8
スト－ル
  6
CONTINUOUS
 62
     6
100
AcDbVertex
100
AcDb2dVertex
 10
1695.214203
 20
1542.684876
 30
0.0
  0
VERTEX
  5
4B8
100
AcDbEntity
  8
スト－ル
  6
CONTINUOUS
 62
     6
100
AcDbVertex
100
AcDb2dVertex
 10
1695.455902
 20
1542.437988
 30
0.0
  0
VERTEX
  5
4B9
100
AcDbEntity
  8
スト－ル
  6
CONTINUOUS
 62
     6
100
AcDbVertex
100
AcDb2dVertex
 10
1695.709808
 20
1542.225891
 30
0.0
  0
VERTEX
  5
4BA
100
AcDbEntity
  8
スト－ル
  6
CONTINUOUS
 62
     6
100
AcDbVertex
100
AcDb2dVertex
 10
1695.97348
 20
1542.049957
 30
0.0
  0
VERTEX
  5
4BB
100
AcDbEntity
  8
スト－ル
  6
CONTINUOUS
 62
     6
100
AcDbVertex
100
AcDb2dVertex
 10
1696.249359
 20
1541.911865
 30
0.0
  0
VERTEX
  5
4BC
100
AcDbEntity
  8
スト－ル
  6
CONTINUOUS
 62
     6
100
AcDbVertex
100
AcDb2dVertex
 10
1696.527679
 20
1541.812531
 30
0.0
  0
VERTEX
  5
4BD
100
AcDbEntity
  8
スト－ル
  6
CONTINUOUS
 62
     6
100
AcDbVertex
100
AcDb2dVertex
 10
1696.813324
 20
1541.752564
 30
0.0
  0
VERTEX
  5
4BE
100
AcDbEntity
  8
スト－ル
  6
CONTINUOUS
 62
     6
100
AcDbVertex
100
AcDb2dVertex
 10
1697.098969
 20
1541.732117
 30
0.0
  0
VERTEX
  5
4BF
100
AcDbEntity
  8
スト－ル
  6
CONTINUOUS
 62
     6
100
AcDbVertex
100
AcDb2dVertex
 10
1697.387054
 20
1541.752106
 30
0.0
  0
VERTEX
  5
4C0
100
AcDbEntity
  8
スト－ル
  6
CONTINUOUS
 62
     6
100
AcDbVertex
100
AcDb2dVertex
 10
1697.670258
 20
1541.812073
 30
0.0
  0
VERTEX
  5
4C1
100
AcDbEntity
  8
スト－ル
  6
CONTINUOUS
 62
     6
100
AcDbVertex
100
AcDb2dVertex
 10
1697.951019
 20
1541.911865
 30
0.0
  0
VERTEX
  5
4C2
100
AcDbEntity
  8
スト－ル
  6
CONTINUOUS
 62
     6
100
AcDbVertex
100
AcDb2dVertex
 10
1698.224457
 20
1542.05011
 30
0.0
  0
VERTEX
  5
4C3
100
AcDbEntity
  8
スト－ル
  6
CONTINUOUS
 62
     6
100
AcDbVertex
100
AcDb2dVertex
 10
1698.49057
 20
1542.226044
 30
0.0
  0
SEQEND
  5
4C4
100
AcDbEntity
  8
スト－ル
  6
CONTINUOUS
 62
     6
  0
POLYLINE
  5
4C5
100
AcDbEntity
  8
スト－ル
  6
CONTINUOUS
 62
     6
100
AcDb2dPolyline
 66
     1
 10
0.0
 20
0.0
 30
0.0
 70
   128
  0
VERTEX
  5
4C6
100
AcDbEntity
  8
スト－ル
  6
CONTINUOUS
 62
     6
100
AcDbVertex
100
AcDb2dVertex
 10
1698.49057
 20
1542.226044
 30
0.0
  0
VERTEX
  5
4C7
100
AcDbEntity
  8
スト－ル
  6
CONTINUOUS
 62
     6
100
AcDbVertex
100
AcDb2dVertex
 10
1698.744476
 20
1542.437988
 30
0.0
  0
VERTEX
  5
4C8
100
AcDbEntity
  8
スト－ル
  6
CONTINUOUS
 62
     6
100
AcDbVertex
100
AcDb2dVertex
 10
1698.986176
 20
1542.684876
 30
0.0
  0
VERTEX
  5
4C9
100
AcDbEntity
  8
スト－ル
  6
CONTINUOUS
 62
     6
100
AcDbVertex
100
AcDb2dVertex
 10
1699.213226
 20
1542.964722
 30
0.0
  0
VERTEX
  5
4CA
100
AcDbEntity
  8
スト－ル
  6
CONTINUOUS
 62
     6
100
AcDbVertex
100
AcDb2dVertex
 10
1699.425629
 20
1543.275238
 30
0.0
  0
VERTEX
  5
4CB
100
AcDbEntity
  8
スト－ル
  6
CONTINUOUS
 62
     6
100
AcDbVertex
100
AcDb2dVertex
 10
1699.6185
 20
1543.614136
 30
0.0
  0
VERTEX
  5
4CC
100
AcDbEntity
  8
スト－ル
  6
CONTINUOUS
 62
     6
100
AcDbVertex
100
AcDb2dVertex
 10
1699.794281
 20
1543.978668
 30
0.0
  0
VERTEX
  5
4CD
100
AcDbEntity
  8
スト－ル
  6
CONTINUOUS
 62
     6
100
AcDbVertex
100
AcDb2dVertex
 10
1699.94809
 20
1544.366089
 30
0.0
  0
VERTEX
  5
4CE
100
AcDbEntity
  8
スト－ル
  6
CONTINUOUS
 62
     6
100
AcDbVertex
100
AcDb2dVertex
 10
1700.079926
 20
1544.773651
 30
0.0
  0
VERTEX
  5
4CF
100
AcDbEntity
  8
スト－ル
  6
CONTINUOUS
 62
     6
100
AcDbVertex
100
AcDb2dVertex
 10
1700.189789
 20
1545.198151
 30
0.0
  0
VERTEX
  5
4D0
100
AcDbEntity
  8
スト－ル
  6
CONTINUOUS
 62
     6
100
AcDbVertex
100
AcDb2dVertex
 10
1700.275238
 20
1545.636688
 30
0.0
  0
SEQEND
  5
4D1
100
AcDbEntity
  8
スト－ル
  6
CONTINUOUS
 62
     6
  0
POLYLINE
  5
4D2
100
AcDbEntity
  8
スト－ル
  6
CONTINUOUS
 62
     6
100
AcDb2dPolyline
 66
     1
 10
0.0
 20
0.0
 30
0.0
 70
   128
  0
VERTEX
  5
4D3
100
AcDbEntity
  8
スト－ル
  6
CONTINUOUS
 62
     6
100
AcDbVertex
100
AcDb2dVertex
 10
1700.275238
 20
1545.636688
 30
0.0
  0
VERTEX
  5
4D4
100
AcDbEntity
  8
スト－ル
  6
CONTINUOUS
 62
     6
100
AcDbVertex
100
AcDb2dVertex
 10
1700.338715
 20
1546.085297
 30
0.0
  0
VERTEX
  5
4D5
100
AcDbEntity
  8
スト－ル
  6
CONTINUOUS
 62
     6
100
AcDbVertex
100
AcDb2dVertex
 10
1700.375336
 20
1546.540924
 30
0.0
  0
VERTEX
  5
4D6
100
AcDbEntity
  8
スト－ル
  6
CONTINUOUS
 62
     6
100
AcDbVertex
100
AcDb2dVertex
 10
1700.387543
 20
1546.999756
 30
0.0
  0
SEQEND
  5
4D7
100
AcDbEntity
  8
スト－ル
  6
CONTINUOUS
 62
     6
  0
LINE
  5
4D8
100
AcDbEntity
  8
スト－ル
  6
CONTINUOUS
 62
     6
100
AcDbLine
 10
1696.310394
 20
1541.0
 30
0.0
 11
1696.310394
 21
1537.500092
 31
0.0
  0
LINE
  5
4D9
100
AcDbEntity
  8
スト－ル
  6
CONTINUOUS
 62
     6
100
AcDbLine
 10
1721.310394
 20
1541.0
 30
0.0
 11
1721.310394
 21
1537.500092
 31
0.0
  0
LINE
  5
4DA
100
AcDbEntity
  8
スト－ル
  6
CONTINUOUS
 62
     6
100
AcDbLine
 10
1723.810394
 20
1531.000153
 30
0.0
 11
1723.810394
 21
1536.000153
 31
0.0
  0
LINE
  5
4DB
100
AcDbEntity
  8
スト－ル
  6
CONTINUOUS
 62
     6
100
AcDbLine
 10
1722.311371
 20
1537.500092
 30
0.0
 11
1723.810394
 21
1536.000153
 31
0.0
  0
LINE
  5
4DC
100
AcDbEntity
  8
スト－ル
  6
CONTINUOUS
 62
     6
100
AcDbLine
 10
1695.309418
 20
1537.500092
 30
0.0
 11
1722.311371
 21
1537.500092
 31
0.0
  0
LINE
  5
4DD
100
AcDbEntity
  8
スト－ル
  6
CONTINUOUS
 62
     6
100
AcDbLine
 10
1693.810394
 20
1536.000153
 30
0.0
 11
1695.309418
 21
1537.500092
 31
0.0
  0
LINE
  5
4DE
100
AcDbEntity
  8
スト－ル
  6
CONTINUOUS
 62
     6
100
AcDbLine
 10
1693.810394
 20
1531.000153
 30
0.0
 11
1693.810394
 21
1536.000153
 31
0.0
  0
LINE
  5
4DF
100
AcDbEntity
  8
スト－ル
  6
CONTINUOUS
 62
     6
100
AcDbLine
 10
1717.233246
 20
1536.000153
 30
0.0
 11
1717.233246
 21
1531.000153
 31
0.0
  0
LINE
  5
4E0
100
AcDbEntity
  8
スト－ル
  6
CONTINUOUS
 62
     6
100
AcDbLine
 10
1715.34848
 20
1536.000153
 30
0.0
 11
1715.34848
 21
1531.000153
 31
0.0
  0
LINE
  5
4E1
100
AcDbEntity
  8
スト－ル
  6
CONTINUOUS
 62
     6
100
AcDbLine
 10
1702.272308
 20
1536.000153
 30
0.0
 11
1702.272308
 21
1531.000153
 31
0.0
  0
LINE
  5
4E2
100
AcDbEntity
  8
スト－ル
  6
CONTINUOUS
 62
     6
100
AcDbLine
 10
1700.387543
 20
1536.000153
 30
0.0
 11
1700.387543
 21
1531.000153
 31
0.0
  0
ARC
  5
4E3
100
AcDbEntity
  8
スト－ル
  6
CONTINUOUS
 62
     6
100
AcDbCircle
 10
1720.502289
 20
1533.187042
 30
0.0
 40
4.31303
100
AcDbArc
 50
40.710342
 51
139.289673
  0
LINE
  5
4E4
100
AcDbEntity
  8
スト－ル
  6
CONTINUOUS
 62
     6
100
AcDbLine
 10
1715.34848
 20
1536.000153
 30
0.0
 11
1717.233246
 21
1536.000153
 31
0.0
  0
ARC
  5
4E5
100
AcDbEntity
  8
スト－ル
  6
CONTINUOUS
 62
     6
100
AcDbCircle
 10
1708.810394
 20
1522.500092
 30
0.0
 40
15.00001
100
AcDbArc
 50
64.158539
 51
115.841476
  0
LINE
  5
4E6
100
AcDbEntity
  8
スト－ル
  6
CONTINUOUS
 62
     6
100
AcDbLine
 10
1700.387543
 20
1536.000153
 30
0.0
 11
1702.272308
 21
1536.000153
 31
0.0
  0
ARC
  5
4E7
100
AcDbEntity
  8
スト－ル
  6
CONTINUOUS
 62
     6
100
AcDbCircle
 10
1697.098969
 20
1533.144165
 30
0.0
 40
4.355961
100
AcDbArc
 50
40.968979
 51
139.031006
  0
LINE
  5
4E8
100
AcDbEntity
  8
スト－ル
  6
CONTINUOUS
 62
     6
100
AcDbLine
 10
1728.810394
 20
1531.000153
 30
0.0
 11
1728.810394
 21
1526.000153
 31
0.0
  0
LINE
  5
4E9
100
AcDbEntity
  8
スト－ル
  6
CONTINUOUS
 62
     6
100
AcDbLine
 10
1688.810394
 20
1531.000153
 30
0.0
 11
1728.810394
 21
1531.000153
 31
0.0
  0
LINE
  5
4EA
100
AcDbEntity
  8
スト－ル
  6
CONTINUOUS
 62
     6
100
AcDbLine
 10
1688.810394
 20
1531.000153
 30
0.0
 11
1688.810394
 21
1526.000153
 31
0.0
  0
TEXT
  5
4EB
100
AcDbEntity
  8
スト－ル
  6
CONTINUOUS
 62
     2
100
AcDbText
 10
1491.086426
 20
1604.182526
 30
0.0
 40
40.0
  1
ＮＵ２
 41
0.833
  7
EXCADSTD
 72
     5
 11
1610.086426
 21
1604.182526
 31
0.0
100
AcDbText
  0
POLYLINE
  5
4EC
100
AcDbEntity
  8
スト－ル
  6
CONTINUOUS
 62
     3
100
AcDb2dPolyline
 66
     1
 10
0.0
 20
0.0
 30
0.0
 70
   128
  0
VERTEX
  5
4ED
100
AcDbEntity
  8
スト－ル
  6
CONTINUOUS
 62
     3
100
AcDbVertex
100
AcDb2dVertex
 10
1675.003021
 20
1847.896515
 30
0.0
  0
VERTEX
  5
4EE
100
AcDbEntity
  8
スト－ル
  6
CONTINUOUS
 62
     3
100
AcDbVertex
100
AcDb2dVertex
 10
1708.810394
 20
1856.9552
 30
0.0
  0
VERTEX
  5
4EF
100
AcDbEntity
  8
スト－ル
  6
CONTINUOUS
 62
     3
100
AcDbVertex
100
AcDb2dVertex
 10
1675.003021
 20
1866.013886
 30
0.0
  0
SEQEND
  5
4F0
100
AcDbEntity
  8
スト－ル
  6
CONTINUOUS
 62
     3
  0
POLYLINE
  5
4F1
100
AcDbEntity
  8
スト－ル
  6
CONTINUOUS
 62
     3
100
AcDb2dPolyline
 66
     1
 10
0.0
 20
0.0
 30
0.0
 70
   128
  0
VERTEX
  5
4F2
100
AcDbEntity
  8
スト－ル
  6
CONTINUOUS
 62
     3
100
AcDbVertex
100
AcDb2dVertex
 10
1817.617767
 20
1866.013886
 30
0.0
  0
VERTEX
  5
4F3
100
AcDbEntity
  8
スト－ル
  6
CONTINUOUS
 62
     3
100
AcDbVertex
100
AcDb2dVertex
 10
1783.810394
 20
1856.9552
 30
0.0
  0
VERTEX
  5
4F4
100
AcDbEntity
  8
スト－ル
  6
CONTINUOUS
 62
     3
100
AcDbVertex
100
AcDb2dVertex
 10
1817.617767
 20
1847.896515
 30
0.0
  0
SEQEND
  5
4F5
100
AcDbEntity
  8
スト－ル
  6
CONTINUOUS
 62
     3
  0
LINE
  5
4F6
100
AcDbEntity
  8
スト－ル
  6
CONTINUOUS
 62
     3
100
AcDbLine
 10
1663.810394
 20
1856.9552
 30
0.0
 11
1828.810394
 21
1856.9552
 31
0.0
  0
TEXT
  5
4F7
100
AcDbEntity
  8
スト－ル
  6
CONTINUOUS
 62
     2
100
AcDbText
 10
1708.310516
 20
1860.454651
 30
0.0
 40
40.0
  1
７５
 41
0.861
  7
EXCADSTD
 72
     5
 11
1783.471716
 21
1860.454651
 31
0.0
100
AcDbText
  0
ARC
  5
4F8
100
AcDbEntity
  8
スト－ル
  6
CONTINUOUS
 62
     7
100
AcDbCircle
 10
1496.812835
 20
961.690857
 30
0.0
 40
70.0
100
AcDbArc
 50
273.811401
 51
357.268982
  0
ARC
  5
4F9
100
AcDbEntity
  8
スト－ル
  6
CONTINUOUS
 62
     6
100
AcDbCircle
 10
1526.810394
 20
616.999084
 30
0.0
 40
13.0
100
AcDbArc
 50
72.359009
 51
90.0
  0
ARC
  5
4FA
100
AcDbEntity
  8
スト－ル
  6
CONTINUOUS
 62
     6
100
AcDbCircle
 10
1526.810394
 20
616.999084
 30
0.0
 40
4.0
100
AcDbArc
 50
0.0
 51
90.0
  0
LINE
  5
4FB
100
AcDbEntity
  8
スト－ル
  6
CONTINUOUS
 62
     3
100
AcDbLine
 10
1393.718453
 20
886.0
 30
0.0
 11
1319.584815
 21
886.0
 31
0.0
  0
ARC
  5
4FC
100
AcDbEntity
  8
スト－ル
  6
CONTINUOUS
 62
     7
100
AcDbCircle
 10
6393.180999
 20
1201.840942
 30
0.0
 40
5000.0
100
AcDbArc
 50
183.744202
 51
186.844116
  0
ARC
  5
4FD
100
AcDbEntity
  8
スト－ル
  6
CONTINUOUS
 62
     7
100
AcDbCircle
 10
6398.299164
 20
1110.437927
 30
0.0
 40
4981.0
100
AcDbArc
 50
184.691223
 51
185.39563
  0
LINE
  5
4FE
100
AcDbEntity
  8
スト－ル
  6
CONTINUOUS
 62
     7
100
AcDbLine
 10
1464.742688
 20
632.999023
 30
0.0
 11
1449.325531
 21
632.999023
 31
0.0
  0
ARC
  5
4FF
100
AcDbEntity
  8
スト－ル
  6
CONTINUOUS
 62
     7
100
AcDbCircle
 10
1449.325531
 20
642.999023
 30
0.0
 40
10.0
100
AcDbArc
 50
185.395508
 51
270.0
  0
LINE
  5
500
100
AcDbEntity
  8
スト－ル
  6
CONTINUOUS
 62
     6
100
AcDbLine
 10
1526.810394
 20
629.999084
 30
0.0
 11
1466.001396
 21
629.999084
 31
0.0
  0
LINE
  5
501
100
AcDbEntity
  8
スト－ル
  6
CONTINUOUS
 62
     6
100
AcDbLine
 10
1526.810394
 20
620.999084
 30
0.0
 11
1466.178619
 21
620.999084
 31
0.0
  0
ARC
  5
502
100
AcDbEntity
  8
スト－ル
  6
CONTINUOUS
 62
     7
100
AcDbCircle
 10
1446.669281
 20
-286.116455
 30
0.0
 40
1000.0
100
AcDbArc
 50
88.871215
 51
90.157227
  0
ARC
  5
503
100
AcDbEntity
  8
スト－ル
  6
CONTINUOUS
 62
     7
100
AcDbCircle
 10
1443.952484
 20
703.879761
 30
0.0
 40
10.0
100
AcDbArc
 50
90.157227
 51
184.691284
  0
LINE
  5
504
100
AcDbEntity
  8
スト－ル
  6
CONTINUOUS
 62
     7
100
AcDbLine
 10
1501.466156
 20
891.845703
 30
0.0
 11
1413.145843
 21
885.961853
 31
0.0
  0
ARC
  5
505
100
AcDbEntity
  8
スト－ル
  6
CONTINUOUS
 62
     7
100
AcDbCircle
 10
1413.810394
 20
875.984009
 30
0.0
 40
10.0
100
AcDbArc
 50
93.807617
 51
187.516968
  0
LINE
  5
506
100
AcDbEntity
  8
スト－ル
  6
CONTINUOUS
 62
     7
100
AcDbLine
 10
1583.048187
 20
1510.006042
 30
0.0
 11
1566.733734
 21
958.35553
 31
0.0
  0
LINE
  5
507
100
AcDbEntity
  8
スト－ル
  6
CONTINUOUS
 62
     6
100
AcDbLine
 10
1679.495514
 20
732.835144
 30
0.0
 11
1674.55014
 21
638.479736
 31
0.0
  0
LINE
  5
508
100
AcDbEntity
  8
スト－ル
  6
CONTINUOUS
 62
     6
100
AcDbLine
 10
1545.810394
 20
715.999084
 30
0.0
 11
1538.810394
 21
612.999023
 31
0.0
  0
LINE
  5
509
100
AcDbEntity
  8
スト－ル
  6
CONTINUOUS
 62
     6
100
AcDbLine
 10
1581.810394
 20
715.999084
 30
0.0
 11
1588.810394
 21
612.999023
 31
0.0
  0
LINE
  5
50A
100
AcDbEntity
  8
スト－ル
  6
CONTINUOUS
 62
     6
100
AcDbLine
 10
1670.572601
 20
753.658691
 30
0.0
 11
1664.392975
 21
635.737366
 31
0.0
  0
LINE
  5
50B
100
AcDbEntity
  8
スト－ル
  6
CONTINUOUS
 62
     6
100
AcDbLine
 10
1596.332855
 20
635.718567
 30
0.0
 11
1591.929046
 21
714.111267
 31
0.0
  0
ARC
  5
50C
100
AcDbEntity
  8
スト－ル
  6
CONTINUOUS
 62
     6
100
AcDbCircle
 10
1679.543304
 20
638.21814
 30
0.0
 40
5.0
100
AcDbArc
 50
177.000244
 51
268.025513
  0
LINE
  5
50D
100
AcDbEntity
  8
スト－ル
  6
CONTINUOUS
 62
     6
100
AcDbLine
 10
1600.810394
 20
620.999084
 30
0.0
 11
1726.810882
 21
620.999084
 31
0.0
  0
LINE
  5
50E
100
AcDbEntity
  8
スト－ル
  6
CONTINUOUS
 62
     6
100
AcDbLine
 10
1601.325531
 20
630.99939
 30
0.0
 11
1659.399749
 21
630.999023
 31
0.0
  0
LINE
  5
50F
100
AcDbEntity
  8
スト－ル
  6
CONTINUOUS
 62
     6
100
AcDbLine
 10
1530.810394
 20
612.999023
 30
0.0
 11
1530.810394
 21
616.999084
 31
0.0
  0
LINE
  5
510
100
AcDbEntity
  8
スト－ル
  6
CONTINUOUS
 62
     6
100
AcDbLine
 10
1531.695648
 20
645.615356
 30
0.0
 11
1530.750335
 21
629.387695
 31
0.0
  0
ARC
  5
511
100
AcDbEntity
  8
スト－ル
  6
CONTINUOUS
 62
     6
100
AcDbCircle
 10
1601.325531
 20
635.999084
 30
0.0
 40
5.0
100
AcDbArc
 50
183.215454
 51
270.0
  0
ARC
  5
512
100
AcDbEntity
  8
スト－ル
  6
CONTINUOUS
 62
     6
100
AcDbCircle
 10
1600.810394
 20
616.999084
 30
0.0
 40
4.0
100
AcDbArc
 50
90.0
 51
180.0
  0
LINE
  5
513
100
AcDbEntity
  8
スト－ル
  6
CONTINUOUS
 62
     6
100
AcDbLine
 10
1596.810394
 20
612.999023
 30
0.0
 11
1596.810394
 21
616.999084
 31
0.0
  0
ARC
  5
514
100
AcDbEntity
  8
スト－ル
  6
CONTINUOUS
 62
     6
100
AcDbCircle
 10
1659.399749
 20
635.999084
 30
0.0
 40
5.0
100
AcDbArc
 50
269.999268
 51
357.000244
  0
LINE
  5
515
100
AcDbEntity
  8
スト－ル
  6
CONTINUOUS
 62
     6
100
AcDbLine
 10
1743.810882
 20
605.999023
 30
0.0
 11
1743.810882
 21
616.507324
 31
0.0
  0
LINE
  5
516
100
AcDbEntity
  8
スト－ル
  6
CONTINUOUS
 62
     6
100
AcDbLine
 10
1731.810882
 20
605.99884
 30
0.0
 11
1731.810882
 21
615.999084
 31
0.0
  0
LINE
  5
517
100
AcDbEntity
  8
スト－ル
  6
CONTINUOUS
 62
     6
100
AcDbLine
 10
1679.371429
 20
633.221069
 30
0.0
 11
1729.327484
 21
631.498474
 31
0.0
  0
ARC
  5
518
100
AcDbEntity
  8
スト－ル
  6
CONTINUOUS
 62
     6
100
AcDbCircle
 10
1728.810882
 20
616.507385
 30
0.0
 40
15.0
100
AcDbArc
 50
359.999756
 51
88.025024
  0
ARC
  5
519
100
AcDbEntity
  8
スト－ル
  6
CONTINUOUS
 62
     6
100
AcDbCircle
 10
1726.810882
 20
615.999084
 30
0.0
 40
5.0
100
AcDbArc
 50
0.0
 51
90.0
  0
ARC
  5
51A
100
AcDbEntity
  8
スト－ル
  6
CONTINUOUS
 62
     7
100
AcDbCircle
 10
1778.302582
 20
-6973.998047
 30
0.0
 40
8500.0
100
AcDbArc
 50
89.962891
 51
91.217346
  0
ARC
  5
51B
100
AcDbEntity
  8
スト－ル
  6
CONTINUOUS
 62
     7
100
AcDbCircle
 10
1598.027191
 20
1509.086182
 30
0.0
 40
15.0
100
AcDbArc
 50
91.217407
 51
178.30603
  0
POLYLINE
  5
51C
100
AcDbEntity
  8
スト－ル
  6
CONTINUOUS
 62
     2
100
AcDb2dPolyline
 66
     1
 10
0.0
 20
0.0
 30
0.0
 70
   128
  0
VERTEX
  5
51D
100
AcDbEntity
  8
スト－ル
  6
CONTINUOUS
 62
     2
100
AcDbVertex
100
AcDb2dVertex
 10
1755.284815
 20
606.0
 30
0.0
  0
VERTEX
  5
51E
100
AcDbEntity
  8
スト－ル
  6
CONTINUOUS
 62
     2
100
AcDbVertex
100
AcDb2dVertex
 10
1755.197411
 20
606.884811
 30
0.0
  0
VERTEX
  5
51F
100
AcDbEntity
  8
スト－ル
  6
CONTINUOUS
 62
     2
100
AcDbVertex
100
AcDb2dVertex
 10
1754.922226
 20
609.383335
 30
0.0
  0
VERTEX
  5
520
100
AcDbEntity
  8
スト－ル
  6
CONTINUOUS
 62
     2
100
AcDbVertex
100
AcDb2dVertex
 10
1754.439801
 20
613.26171
 30
0.0
  0
VERTEX
  5
521
100
AcDbEntity
  8
スト－ル
  6
CONTINUOUS
 62
     2
100
AcDbVertex
100
AcDb2dVertex
 10
1753.73068
 20
618.286077
 30
0.0
  0
VERTEX
  5
522
100
AcDbEntity
  8
スト－ル
  6
CONTINUOUS
 62
     2
100
AcDbVertex
100
AcDb2dVertex
 10
1752.775403
 20
624.222571
 30
0.0
  0
VERTEX
  5
523
100
AcDbEntity
  8
スト－ル
  6
CONTINUOUS
 62
     2
100
AcDbVertex
100
AcDb2dVertex
 10
1751.554512
 20
630.837334
 30
0.0
  0
VERTEX
  5
524
100
AcDbEntity
  8
スト－ル
  6
CONTINUOUS
 62
     2
100
AcDbVertex
100
AcDb2dVertex
 10
1750.048549
 20
637.896502
 30
0.0
  0
VERTEX
  5
525
100
AcDbEntity
  8
スト－ル
  6
CONTINUOUS
 62
     2
100
AcDbVertex
100
AcDb2dVertex
 10
1748.238056
 20
645.166214
 30
0.0
  0
VERTEX
  5
526
100
AcDbEntity
  8
スト－ル
  6
CONTINUOUS
 62
     2
100
AcDbVertex
100
AcDb2dVertex
 10
1746.103575
 20
652.412609
 30
0.0
  0
VERTEX
  5
527
100
AcDbEntity
  8
スト－ル
  6
CONTINUOUS
 62
     2
100
AcDbVertex
100
AcDb2dVertex
 10
1743.625648
 20
659.401825
 30
0.0
  0
VERTEX
  5
528
100
AcDbEntity
  8
スト－ル
  6
CONTINUOUS
 62
     2
100
AcDbVertex
100
AcDb2dVertex
 10
1740.784815
 20
665.9
 30
0.0
  0
VERTEX
  5
529
100
AcDbEntity
  8
スト－ル
  6
CONTINUOUS
 62
     2
100
AcDbVertex
100
AcDb2dVertex
 10
1737.966871
 20
671.096529
 30
0.0
  0
VERTEX
  5
52A
100
AcDbEntity
  8
スト－ル
  6
CONTINUOUS
 62
     2
100
AcDbVertex
100
AcDb2dVertex
 10
1734.926933
 20
675.813125
 30
0.0
  0
VERTEX
  5
52B
100
AcDbEntity
  8
スト－ル
  6
CONTINUOUS
 62
     2
100
AcDbVertex
100
AcDb2dVertex
 10
1731.742619
 20
680.137876
 30
0.0
  0
VERTEX
  5
52C
100
AcDbEntity
  8
スト－ル
  6
CONTINUOUS
 62
     2
100
AcDbVertex
100
AcDb2dVertex
 10
1728.491548
 20
684.15887
 30
0.0
  0
VERTEX
  5
52D
100
AcDbEntity
  8
スト－ル
  6
CONTINUOUS
 62
     2
100
AcDbVertex
100
AcDb2dVertex
 10
1725.251339
 20
687.964195
 30
0.0
  0
VERTEX
  5
52E
100
AcDbEntity
  8
スト－ル
  6
CONTINUOUS
 62
     2
100
AcDbVertex
100
AcDb2dVertex
 10
1722.09961
 20
691.641937
 30
0.0
  0
VERTEX
  5
52F
100
AcDbEntity
  8
スト－ル
  6
CONTINUOUS
 62
     2
100
AcDbVertex
100
AcDb2dVertex
 10
1719.113979
 20
695.280187
 30
0.0
  0
VERTEX
  5
530
100
AcDbEntity
  8
スト－ル
  6
CONTINUOUS
 62
     2
100
AcDbVertex
100
AcDb2dVertex
 10
1716.372066
 20
698.96703
 30
0.0
  0
VERTEX
  5
531
100
AcDbEntity
  8
スト－ル
  6
CONTINUOUS
 62
     2
100
AcDbVertex
100
AcDb2dVertex
 10
1713.951488
 20
702.790554
 30
0.0
  0
VERTEX
  5
532
100
AcDbEntity
  8
スト－ル
  6
CONTINUOUS
 62
     2
100
AcDbVertex
100
AcDb2dVertex
 10
1711.929865
 20
706.838849
 30
0.0
  0
VERTEX
  5
533
100
AcDbEntity
  8
スト－ル
  6
CONTINUOUS
 62
     2
100
AcDbVertex
100
AcDb2dVertex
 10
1710.384815
 20
711.2
 30
0.0
  0
VERTEX
  5
534
100
AcDbEntity
  8
スト－ル
  6
CONTINUOUS
 62
     2
100
AcDbVertex
100
AcDb2dVertex
 10
1709.429019
 20
715.49885
 30
0.0
  0
VERTEX
  5
535
100
AcDbEntity
  8
スト－ル
  6
CONTINUOUS
 62
     2
100
AcDbVertex
100
AcDb2dVertex
 10
1708.8233
 20
720.054554
 30
0.0
  0
VERTEX
  5
536
100
AcDbEntity
  8
スト－ル
  6
CONTINUOUS
 62
     2
100
AcDbVertex
100
AcDb2dVertex
 10
1708.457199
 20
724.790779
 30
0.0
  0
VERTEX
  5
537
100
AcDbEntity
  8
スト－ル
  6
CONTINUOUS
 62
     2
100
AcDbVertex
100
AcDb2dVertex
 10
1708.220254
 20
729.63119
 30
0.0
  0
VERTEX
  5
538
100
AcDbEntity
  8
スト－ル
  6
CONTINUOUS
 62
     2
100
AcDbVertex
100
AcDb2dVertex
 10
1708.002006
 20
734.499453
 30
0.0
  0
VERTEX
  5
539
100
AcDbEntity
  8
スト－ル
  6
CONTINUOUS
 62
     2
100
AcDbVertex
100
AcDb2dVertex
 10
1707.691995
 20
739.319234
 30
0.0
  0
VERTEX
  5
53A
100
AcDbEntity
  8
スト－ル
  6
CONTINUOUS
 62
     2
100
AcDbVertex
100
AcDb2dVertex
 10
1707.17976
 20
744.014199
 30
0.0
  0
VERTEX
  5
53B
100
AcDbEntity
  8
スト－ル
  6
CONTINUOUS
 62
     2
100
AcDbVertex
100
AcDb2dVertex
 10
1706.35484
 20
748.508013
 30
0.0
  0
VERTEX
  5
53C
100
AcDbEntity
  8
スト－ル
  6
CONTINUOUS
 62
     2
100
AcDbVertex
100
AcDb2dVertex
 10
1705.106776
 20
752.724343
 30
0.0
  0
VERTEX
  5
53D
100
AcDbEntity
  8
スト－ル
  6
CONTINUOUS
 62
     2
100
AcDbVertex
100
AcDb2dVertex
 10
1703.325107
 20
756.586854
 30
0.0
  0
VERTEX
  5
53E
100
AcDbEntity
  8
スト－ル
  6
CONTINUOUS
 62
     2
100
AcDbVertex
100
AcDb2dVertex
 10
1700.899373
 20
760.019212
 30
0.0
  0
VERTEX
  5
53F
100
AcDbEntity
  8
スト－ル
  6
CONTINUOUS
 62
     2
100
AcDbVertex
100
AcDb2dVertex
 10
1699.893859
 20
761.092837
 30
0.0
  0
VERTEX
  5
540
100
AcDbEntity
  8
スト－ル
  6
CONTINUOUS
 62
     2
100
AcDbVertex
100
AcDb2dVertex
 10
1698.807504
 20
762.112805
 30
0.0
  0
VERTEX
  5
541
100
AcDbEntity
  8
スト－ル
  6
CONTINUOUS
 62
     2
100
AcDbVertex
100
AcDb2dVertex
 10
1697.649526
 20
763.085909
 30
0.0
  0
VERTEX
  5
542
100
AcDbEntity
  8
スト－ル
  6
CONTINUOUS
 62
     2
100
AcDbVertex
100
AcDb2dVertex
 10
1696.429144
 20
764.018946
 30
0.0
  0
VERTEX
  5
543
100
AcDbEntity
  8
スト－ル
  6
CONTINUOUS
 62
     2
100
AcDbVertex
100
AcDb2dVertex
 10
1695.155574
 20
764.91871
 30
0.0
  0
VERTEX
  5
544
100
AcDbEntity
  8
スト－ル
  6
CONTINUOUS
 62
     2
100
AcDbVertex
100
AcDb2dVertex
 10
1693.838036
 20
765.791996
 30
0.0
  0
VERTEX
  5
545
100
AcDbEntity
  8
スト－ル
  6
CONTINUOUS
 62
     2
100
AcDbVertex
100
AcDb2dVertex
 10
1692.485745
 20
766.645599
 30
0.0
  0
VERTEX
  5
546
100
AcDbEntity
  8
スト－ル
  6
CONTINUOUS
 62
     2
100
AcDbVertex
100
AcDb2dVertex
 10
1691.107921
 20
767.486314
 30
0.0
  0
VERTEX
  5
547
100
AcDbEntity
  8
スト－ル
  6
CONTINUOUS
 62
     2
100
AcDbVertex
100
AcDb2dVertex
 10
1689.71378
 20
768.320937
 30
0.0
  0
VERTEX
  5
548
100
AcDbEntity
  8
スト－ル
  6
CONTINUOUS
 62
     2
100
AcDbVertex
100
AcDb2dVertex
 10
1688.312541
 20
769.156262
 30
0.0
  0
VERTEX
  5
549
100
AcDbEntity
  8
スト－ル
  6
CONTINUOUS
 62
     2
100
AcDbVertex
100
AcDb2dVertex
 10
1686.913421
 20
769.999084
 30
0.0
  0
VERTEX
  5
54A
100
AcDbEntity
  8
スト－ル
  6
CONTINUOUS
 62
     2
100
AcDbVertex
100
AcDb2dVertex
 10
1682.40382
 20
772.846203
 30
0.0
  0
VERTEX
  5
54B
100
AcDbEntity
  8
スト－ル
  6
CONTINUOUS
 62
     2
100
AcDbVertex
100
AcDb2dVertex
 10
1677.992041
 20
775.798103
 30
0.0
  0
VERTEX
  5
54C
100
AcDbEntity
  8
スト－ル
  6
CONTINUOUS
 62
     2
100
AcDbVertex
100
AcDb2dVertex
 10
1673.65443
 20
778.806418
 30
0.0
  0
VERTEX
  5
54D
100
AcDbEntity
  8
スト－ル
  6
CONTINUOUS
 62
     2
100
AcDbVertex
100
AcDb2dVertex
 10
1669.36733
 20
781.822783
 30
0.0
  0
VERTEX
  5
54E
100
AcDbEntity
  8
スト－ル
  6
CONTINUOUS
 62
     2
100
AcDbVertex
100
AcDb2dVertex
 10
1665.107085
 20
784.798831
 30
0.0
  0
VERTEX
  5
54F
100
AcDbEntity
  8
スト－ル
  6
CONTINUOUS
 62
     2
100
AcDbVertex
100
AcDb2dVertex
 10
1660.850039
 20
787.686197
 30
0.0
  0
VERTEX
  5
550
100
AcDbEntity
  8
スト－ル
  6
CONTINUOUS
 62
     2
100
AcDbVertex
100
AcDb2dVertex
 10
1656.572534
 20
790.436516
 30
0.0
  0
VERTEX
  5
551
100
AcDbEntity
  8
スト－ル
  6
CONTINUOUS
 62
     2
100
AcDbVertex
100
AcDb2dVertex
 10
1652.250916
 20
793.001421
 30
0.0
  0
VERTEX
  5
552
100
AcDbEntity
  8
スト－ル
  6
CONTINUOUS
 62
     2
100
AcDbVertex
100
AcDb2dVertex
 10
1647.861528
 20
795.332547
 30
0.0
  0
VERTEX
  5
553
100
AcDbEntity
  8
スト－ル
  6
CONTINUOUS
 62
     2
100
AcDbVertex
100
AcDb2dVertex
 10
1643.380713
 20
797.381529
 30
0.0
  0
VERTEX
  5
554
100
AcDbEntity
  8
スト－ル
  6
CONTINUOUS
 62
     2
100
AcDbVertex
100
AcDb2dVertex
 10
1638.784815
 20
799.1
 30
0.0
  0
VERTEX
  5
555
100
AcDbEntity
  8
スト－ル
  6
CONTINUOUS
 62
     2
100
AcDbVertex
100
AcDb2dVertex
 10
1632.966174
 20
800.710401
 30
0.0
  0
VERTEX
  5
556
100
AcDbEntity
  8
スト－ル
  6
CONTINUOUS
 62
     2
100
AcDbVertex
100
AcDb2dVertex
 10
1626.968188
 20
801.808431
 30
0.0
  0
VERTEX
  5
557
100
AcDbEntity
  8
スト－ル
  6
CONTINUOUS
 62
     2
100
AcDbVertex
100
AcDb2dVertex
 10
1620.820367
 20
802.452065
 30
0.0
  0
VERTEX
  5
558
100
AcDbEntity
  8
スト－ル
  6
CONTINUOUS
 62
     2
100
AcDbVertex
100
AcDb2dVertex
 10
1614.552221
 20
802.69928
 30
0.0
  0
VERTEX
  5
559
100
AcDbEntity
  8
スト－ル
  6
CONTINUOUS
 62
     2
100
AcDbVertex
100
AcDb2dVertex
 10
1608.193257
 20
802.608051
 30
0.0
  0
VERTEX
  5
55A
100
AcDbEntity
  8
スト－ル
  6
CONTINUOUS
 62
     2
100
AcDbVertex
100
AcDb2dVertex
 10
1601.772986
 20
802.236354
 30
0.0
  0
VERTEX
  5
55B
100
AcDbEntity
  8
スト－ル
  6
CONTINUOUS
 62
     2
100
AcDbVertex
100
AcDb2dVertex
 10
1595.320915
 20
801.642165
 30
0.0
  0
VERTEX
  5
55C
100
AcDbEntity
  8
スト－ル
  6
CONTINUOUS
 62
     2
100
AcDbVertex
100
AcDb2dVertex
 10
1588.866553
 20
800.883459
 30
0.0
  0
VERTEX
  5
55D
100
AcDbEntity
  8
スト－ル
  6
CONTINUOUS
 62
     2
100
AcDbVertex
100
AcDb2dVertex
 10
1582.43941
 20
800.018212
 30
0.0
  0
VERTEX
  5
55E
100
AcDbEntity
  8
スト－ル
  6
CONTINUOUS
 62
     2
100
AcDbVertex
100
AcDb2dVertex
 10
1576.068995
 20
799.104401
 30
0.0
  0
VERTEX
  5
55F
100
AcDbEntity
  8
スト－ル
  6
CONTINUOUS
 62
     2
100
AcDbVertex
100
AcDb2dVertex
 10
1569.784815
 20
798.2
 30
0.0
  0
VERTEX
  5
560
100
AcDbEntity
  8
スト－ル
  6
CONTINUOUS
 62
     2
100
AcDbVertex
100
AcDb2dVertex
 10
1564.695781
 20
797.496723
 30
0.0
  0
VERTEX
  5
561
100
AcDbEntity
  8
スト－ル
  6
CONTINUOUS
 62
     2
100
AcDbVertex
100
AcDb2dVertex
 10
1559.664461
 20
796.826886
 30
0.0
  0
VERTEX
  5
562
100
AcDbEntity
  8
スト－ル
  6
CONTINUOUS
 62
     2
100
AcDbVertex
100
AcDb2dVertex
 10
1554.67028
 20
796.178348
 30
0.0
  0
VERTEX
  5
563
100
AcDbEntity
  8
スト－ル
  6
CONTINUOUS
 62
     2
100
AcDbVertex
100
AcDb2dVertex
 10
1549.692663
 20
795.538969
 30
0.0
  0
VERTEX
  5
564
100
AcDbEntity
  8
スト－ル
  6
CONTINUOUS
 62
     2
100
AcDbVertex
100
AcDb2dVertex
 10
1544.711034
 20
794.89661
 30
0.0
  0
VERTEX
  5
565
100
AcDbEntity
  8
スト－ル
  6
CONTINUOUS
 62
     2
100
AcDbVertex
100
AcDb2dVertex
 10
1539.704819
 20
794.239129
 30
0.0
  0
VERTEX
  5
566
100
AcDbEntity
  8
スト－ル
  6
CONTINUOUS
 62
     2
100
AcDbVertex
100
AcDb2dVertex
 10
1534.653442
 20
793.554386
 30
0.0
  0
VERTEX
  5
567
100
AcDbEntity
  8
スト－ル
  6
CONTINUOUS
 62
     2
100
AcDbVertex
100
AcDb2dVertex
 10
1529.536328
 20
792.830243
 30
0.0
  0
VERTEX
  5
568
100
AcDbEntity
  8
スト－ル
  6
CONTINUOUS
 62
     2
100
AcDbVertex
100
AcDb2dVertex
 10
1524.332903
 20
792.054557
 30
0.0
  0
VERTEX
  5
569
100
AcDbEntity
  8
スト－ル
  6
CONTINUOUS
 62
     2
100
AcDbVertex
100
AcDb2dVertex
 10
1519.02259
 20
791.21519
 30
0.0
  0
VERTEX
  5
56A
100
AcDbEntity
  8
スト－ル
  6
CONTINUOUS
 62
     2
100
AcDbVertex
100
AcDb2dVertex
 10
1513.584815
 20
790.3
 30
0.0
  0
VERTEX
  5
56B
100
AcDbEntity
  8
スト－ル
  6
CONTINUOUS
 62
     2
100
AcDbVertex
100
AcDb2dVertex
 10
1510.452784
 20
789.740538
 30
0.0
  0
VERTEX
  5
56C
100
AcDbEntity
  8
スト－ル
  6
CONTINUOUS
 62
     2
100
AcDbVertex
100
AcDb2dVertex
 10
1507.309157
 20
789.127454
 30
0.0
  0
VERTEX
  5
56D
100
AcDbEntity
  8
スト－ル
  6
CONTINUOUS
 62
     2
100
AcDbVertex
100
AcDb2dVertex
 10
1504.189659
 20
788.435245
 30
0.0
  0
VERTEX
  5
56E
100
AcDbEntity
  8
スト－ル
  6
CONTINUOUS
 62
     2
100
AcDbVertex
100
AcDb2dVertex
 10
1501.130017
 20
787.638408
 30
0.0
  0
VERTEX
  5
56F
100
AcDbEntity
  8
スト－ル
  6
CONTINUOUS
 62
     2
100
AcDbVertex
100
AcDb2dVertex
 10
1498.165956
 20
786.71144
 30
0.0
  0
VERTEX
  5
570
100
AcDbEntity
  8
スト－ル
  6
CONTINUOUS
 62
     2
100
AcDbVertex
100
AcDb2dVertex
 10
1495.333201
 20
785.628835
 30
0.0
  0
VERTEX
  5
571
100
AcDbEntity
  8
スト－ル
  6
CONTINUOUS
 62
     2
100
AcDbVertex
100
AcDb2dVertex
 10
1492.667478
 20
784.365092
 30
0.0
  0
VERTEX
  5
572
100
AcDbEntity
  8
スト－ル
  6
CONTINUOUS
 62
     2
100
AcDbVertex
100
AcDb2dVertex
 10
1490.204512
 20
782.894706
 30
0.0
  0
VERTEX
  5
573
100
AcDbEntity
  8
スト－ル
  6
CONTINUOUS
 62
     2
100
AcDbVertex
100
AcDb2dVertex
 10
1487.980028
 20
781.192174
 30
0.0
  0
VERTEX
  5
574
100
AcDbEntity
  8
スト－ル
  6
CONTINUOUS
 62
     2
100
AcDbVertex
100
AcDb2dVertex
 10
1486.029752
 20
779.231992
 30
0.0
  0
VERTEX
  5
575
100
AcDbEntity
  8
スト－ル
  6
CONTINUOUS
 62
     2
100
AcDbVertex
100
AcDb2dVertex
 10
1484.389409
 20
776.988656
 30
0.0
  0
VERTEX
  5
576
100
AcDbEntity
  8
スト－ル
  6
CONTINUOUS
 62
     2
100
AcDbVertex
100
AcDb2dVertex
 10
1483.989383
 20
776.30556
 30
0.0
  0
VERTEX
  5
577
100
AcDbEntity
  8
スト－ル
  6
CONTINUOUS
 62
     2
100
AcDbVertex
100
AcDb2dVertex
 10
1483.614562
 20
775.600423
 30
0.0
  0
VERTEX
  5
578
100
AcDbEntity
  8
スト－ル
  6
CONTINUOUS
 62
     2
100
AcDbVertex
100
AcDb2dVertex
 10
1483.262958
 20
774.875485
 30
0.0
  0
VERTEX
  5
579
100
AcDbEntity
  8
スト－ル
  6
CONTINUOUS
 62
     2
100
AcDbVertex
100
AcDb2dVertex
 10
1482.932582
 20
774.132989
 30
0.0
  0
VERTEX
  5
57A
100
AcDbEntity
  8
スト－ル
  6
CONTINUOUS
 62
     2
100
AcDbVertex
100
AcDb2dVertex
 10
1482.621445
 20
773.375177
 30
0.0
  0
VERTEX
  5
57B
100
AcDbEntity
  8
スト－ル
  6
CONTINUOUS
 62
     2
100
AcDbVertex
100
AcDb2dVertex
 10
1482.327559
 20
772.60429
 30
0.0
  0
VERTEX
  5
57C
100
AcDbEntity
  8
スト－ル
  6
CONTINUOUS
 62
     2
100
AcDbVertex
100
AcDb2dVertex
 10
1482.048935
 20
771.822569
 30
0.0
  0
VERTEX
  5
57D
100
AcDbEntity
  8
スト－ル
  6
CONTINUOUS
 62
     2
100
AcDbVertex
100
AcDb2dVertex
 10
1481.783583
 20
771.032257
 30
0.0
  0
VERTEX
  5
57E
100
AcDbEntity
  8
スト－ル
  6
CONTINUOUS
 62
     2
100
AcDbVertex
100
AcDb2dVertex
 10
1481.529515
 20
770.235596
 30
0.0
  0
VERTEX
  5
57F
100
AcDbEntity
  8
スト－ル
  6
CONTINUOUS
 62
     2
100
AcDbVertex
100
AcDb2dVertex
 10
1481.284743
 20
769.434826
 30
0.0
  0
VERTEX
  5
580
100
AcDbEntity
  8
スト－ル
  6
CONTINUOUS
 62
     2
100
AcDbVertex
100
AcDb2dVertex
 10
1481.047277
 20
768.632191
 30
0.0
  0
VERTEX
  5
581
100
AcDbEntity
  8
スト－ル
  6
CONTINUOUS
 62
     2
100
AcDbVertex
100
AcDb2dVertex
 10
1480.30382
 20
765.994521
 30
0.0
  0
VERTEX
  5
582
100
AcDbEntity
  8
スト－ル
  6
CONTINUOUS
 62
     2
100
AcDbVertex
100
AcDb2dVertex
 10
1479.610368
 20
763.360724
 30
0.0
  0
VERTEX
  5
583
100
AcDbEntity
  8
スト－ル
  6
CONTINUOUS
 62
     2
100
AcDbVertex
100
AcDb2dVertex
 10
1478.959437
 20
760.730613
 30
0.0
  0
VERTEX
  5
584
100
AcDbEntity
  8
スト－ル
  6
CONTINUOUS
 62
     2
100
AcDbVertex
100
AcDb2dVertex
 10
1478.343545
 20
758.104
 30
0.0
  0
VERTEX
  5
585
100
AcDbEntity
  8
スト－ル
  6
CONTINUOUS
 62
     2
100
AcDbVertex
100
AcDb2dVertex
 10
1477.755209
 20
755.4807
 30
0.0
  0
VERTEX
  5
586
100
AcDbEntity
  8
スト－ル
  6
CONTINUOUS
 62
     2
100
AcDbVertex
100
AcDb2dVertex
 10
1477.186946
 20
752.860525
 30
0.0
  0
VERTEX
  5
587
100
AcDbEntity
  8
スト－ル
  6
CONTINUOUS
 62
     2
100
AcDbVertex
100
AcDb2dVertex
 10
1476.631272
 20
750.243288
 30
0.0
  0
VERTEX
  5
588
100
AcDbEntity
  8
スト－ル
  6
CONTINUOUS
 62
     2
100
AcDbVertex
100
AcDb2dVertex
 10
1476.080705
 20
747.628805
 30
0.0
  0
VERTEX
  5
589
100
AcDbEntity
  8
スト－ル
  6
CONTINUOUS
 62
     2
100
AcDbVertex
100
AcDb2dVertex
 10
1475.527762
 20
745.016886
 30
0.0
  0
VERTEX
  5
58A
100
AcDbEntity
  8
スト－ル
  6
CONTINUOUS
 62
     2
100
AcDbVertex
100
AcDb2dVertex
 10
1474.96496
 20
742.407347
 30
0.0
  0
VERTEX
  5
58B
100
AcDbEntity
  8
スト－ル
  6
CONTINUOUS
 62
     2
100
AcDbVertex
100
AcDb2dVertex
 10
1474.384815
 20
739.8
 30
0.0
  0
VERTEX
  5
58C
100
AcDbEntity
  8
スト－ル
  6
CONTINUOUS
 62
     2
100
AcDbVertex
100
AcDb2dVertex
 10
1473.835056
 20
737.421958
 30
0.0
  0
VERTEX
  5
58D
100
AcDbEntity
  8
スト－ル
  6
CONTINUOUS
 62
     2
100
AcDbVertex
100
AcDb2dVertex
 10
1473.266292
 20
735.045276
 30
0.0
  0
VERTEX
  5
58E
100
AcDbEntity
  8
スト－ル
  6
CONTINUOUS
 62
     2
100
AcDbVertex
100
AcDb2dVertex
 10
1472.680199
 20
732.669644
 30
0.0
  0
VERTEX
  5
58F
100
AcDbEntity
  8
スト－ル
  6
CONTINUOUS
 62
     2
100
AcDbVertex
100
AcDb2dVertex
 10
1472.078455
 20
730.294752
 30
0.0
  0
VERTEX
  5
590
100
AcDbEntity
  8
スト－ル
  6
CONTINUOUS
 62
     2
100
AcDbVertex
100
AcDb2dVertex
 10
1471.462734
 20
727.920288
 30
0.0
  0
VERTEX
  5
591
100
AcDbEntity
  8
スト－ル
  6
CONTINUOUS
 62
     2
100
AcDbVertex
100
AcDb2dVertex
 10
1470.834713
 20
725.545943
 30
0.0
  0
VERTEX
  5
592
100
AcDbEntity
  8
スト－ル
  6
CONTINUOUS
 62
     2
100
AcDbVertex
100
AcDb2dVertex
 10
1470.196069
 20
723.171405
 30
0.0
  0
VERTEX
  5
593
100
AcDbEntity
  8
スト－ル
  6
CONTINUOUS
 62
     2
100
AcDbVertex
100
AcDb2dVertex
 10
1469.548477
 20
720.796366
 30
0.0
  0
VERTEX
  5
594
100
AcDbEntity
  8
スト－ル
  6
CONTINUOUS
 62
     2
100
AcDbVertex
100
AcDb2dVertex
 10
1468.893613
 20
718.420513
 30
0.0
  0
VERTEX
  5
595
100
AcDbEntity
  8
スト－ル
  6
CONTINUOUS
 62
     2
100
AcDbVertex
100
AcDb2dVertex
 10
1468.233154
 20
716.043537
 30
0.0
  0
VERTEX
  5
596
100
AcDbEntity
  8
スト－ル
  6
CONTINUOUS
 62
     2
100
AcDbVertex
100
AcDb2dVertex
 10
1467.568775
 20
713.665127
 30
0.0
  0
VERTEX
  5
597
100
AcDbEntity
  8
スト－ル
  6
CONTINUOUS
 62
     2
100
AcDbVertex
100
AcDb2dVertex
 10
1466.486104
 20
709.790347
 30
0.0
  0
VERTEX
  5
598
100
AcDbEntity
  8
スト－ル
  6
CONTINUOUS
 62
     2
100
AcDbVertex
100
AcDb2dVertex
 10
1465.420456
 20
705.908726
 30
0.0
  0
VERTEX
  5
599
100
AcDbEntity
  8
スト－ル
  6
CONTINUOUS
 62
     2
100
AcDbVertex
100
AcDb2dVertex
 10
1464.394796
 20
702.018045
 30
0.0
  0
VERTEX
  5
59A
100
AcDbEntity
  8
スト－ル
  6
CONTINUOUS
 62
     2
100
AcDbVertex
100
AcDb2dVertex
 10
1463.432088
 20
698.116083
 30
0.0
  0
VERTEX
  5
59B
100
AcDbEntity
  8
スト－ル
  6
CONTINUOUS
 62
     2
100
AcDbVertex
100
AcDb2dVertex
 10
1462.555297
 20
694.200621
 30
0.0
  0
VERTEX
  5
59C
100
AcDbEntity
  8
スト－ル
  6
CONTINUOUS
 62
     2
100
AcDbVertex
100
AcDb2dVertex
 10
1461.787387
 20
690.269437
 30
0.0
  0
VERTEX
  5
59D
100
AcDbEntity
  8
スト－ル
  6
CONTINUOUS
 62
     2
100
AcDbVertex
100
AcDb2dVertex
 10
1461.151323
 20
686.320313
 30
0.0
  0
VERTEX
  5
59E
100
AcDbEntity
  8
スト－ル
  6
CONTINUOUS
 62
     2
100
AcDbVertex
100
AcDb2dVertex
 10
1460.67007
 20
682.351027
 30
0.0
  0
VERTEX
  5
59F
100
AcDbEntity
  8
スト－ル
  6
CONTINUOUS
 62
     2
100
AcDbVertex
100
AcDb2dVertex
 10
1460.366591
 20
678.359359
 30
0.0
  0
VERTEX
  5
5A0
100
AcDbEntity
  8
スト－ル
  6
CONTINUOUS
 62
     2
100
AcDbVertex
100
AcDb2dVertex
 10
1460.263851
 20
674.343091
 30
0.0
  0
VERTEX
  5
5A1
100
AcDbEntity
  8
スト－ル
  6
CONTINUOUS
 62
     2
100
AcDbVertex
100
AcDb2dVertex
 10
1460.384815
 20
670.3
 30
0.0
  0
VERTEX
  5
5A2
100
AcDbEntity
  8
スト－ル
  6
CONTINUOUS
 62
     2
100
AcDbVertex
100
AcDb2dVertex
 10
1460.676134
 20
666.810062
 30
0.0
  0
VERTEX
  5
5A3
100
AcDbEntity
  8
スト－ル
  6
CONTINUOUS
 62
     2
100
AcDbVertex
100
AcDb2dVertex
 10
1461.11433
 20
663.309038
 30
0.0
  0
VERTEX
  5
5A4
100
AcDbEntity
  8
スト－ル
  6
CONTINUOUS
 62
     2
100
AcDbVertex
100
AcDb2dVertex
 10
1461.664706
 20
659.807219
 30
0.0
  0
VERTEX
  5
5A5
100
AcDbEntity
  8
スト－ル
  6
CONTINUOUS
 62
     2
100
AcDbVertex
100
AcDb2dVertex
 10
1462.292566
 20
656.314896
 30
0.0
  0
VERTEX
  5
5A6
100
AcDbEntity
  8
スト－ル
  6
CONTINUOUS
 62
     2
100
AcDbVertex
100
AcDb2dVertex
 10
1462.963215
 20
652.842362
 30
0.0
  0
VERTEX
  5
5A7
100
AcDbEntity
  8
スト－ル
  6
CONTINUOUS
 62
     2
100
AcDbVertex
100
AcDb2dVertex
 10
1463.641957
 20
649.399907
 30
0.0
  0
VERTEX
  5
5A8
100
AcDbEntity
  8
スト－ル
  6
CONTINUOUS
 62
     2
100
AcDbVertex
100
AcDb2dVertex
 10
1464.294095
 20
645.997823
 30
0.0
  0
VERTEX
  5
5A9
100
AcDbEntity
  8
スト－ル
  6
CONTINUOUS
 62
     2
100
AcDbVertex
100
AcDb2dVertex
 10
1464.884933
 20
642.646401
 30
0.0
  0
VERTEX
  5
5AA
100
AcDbEntity
  8
スト－ル
  6
CONTINUOUS
 62
     2
100
AcDbVertex
100
AcDb2dVertex
 10
1465.379775
 20
639.355933
 30
0.0
  0
VERTEX
  5
5AB
100
AcDbEntity
  8
スト－ル
  6
CONTINUOUS
 62
     2
100
AcDbVertex
100
AcDb2dVertex
 10
1465.743926
 20
636.13671
 30
0.0
  0
VERTEX
  5
5AC
100
AcDbEntity
  8
スト－ル
  6
CONTINUOUS
 62
     2
100
AcDbVertex
100
AcDb2dVertex
 10
1465.942688
 20
632.999023
 30
0.0
  0
VERTEX
  5
5AD
100
AcDbEntity
  8
スト－ル
  6
CONTINUOUS
 62
     2
100
AcDbVertex
100
AcDb2dVertex
 10
1465.966638
 20
632.017855
 30
0.0
  0
VERTEX
  5
5AE
100
AcDbEntity
  8
スト－ル
  6
CONTINUOUS
 62
     2
100
AcDbVertex
100
AcDb2dVertex
 10
1465.975263
 20
631.038176
 30
0.0
  0
VERTEX
  5
5AF
100
AcDbEntity
  8
スト－ル
  6
CONTINUOUS
 62
     2
100
AcDbVertex
100
AcDb2dVertex
 10
1465.973505
 20
630.052174
 30
0.0
  0
VERTEX
  5
5B0
100
AcDbEntity
  8
スト－ル
  6
CONTINUOUS
 62
     2
100
AcDbVertex
100
AcDb2dVertex
 10
1465.966305
 20
629.052036
 30
0.0
  0
VERTEX
  5
5B1
100
AcDbEntity
  8
スト－ル
  6
CONTINUOUS
 62
     2
100
AcDbVertex
100
AcDb2dVertex
 10
1465.958606
 20
628.029952
 30
0.0
  0
VERTEX
  5
5B2
100
AcDbEntity
  8
スト－ル
  6
CONTINUOUS
 62
     2
100
AcDbVertex
100
AcDb2dVertex
 10
1465.955347
 20
626.978108
 30
0.0
  0
VERTEX
  5
5B3
100
AcDbEntity
  8
スト－ル
  6
CONTINUOUS
 62
     2
100
AcDbVertex
100
AcDb2dVertex
 10
1465.961471
 20
625.888694
 30
0.0
  0
VERTEX
  5
5B4
100
AcDbEntity
  8
スト－ル
  6
CONTINUOUS
 62
     2
100
AcDbVertex
100
AcDb2dVertex
 10
1465.981919
 20
624.753896
 30
0.0
  0
VERTEX
  5
5B5
100
AcDbEntity
  8
スト－ル
  6
CONTINUOUS
 62
     2
100
AcDbVertex
100
AcDb2dVertex
 10
1466.021632
 20
623.565903
 30
0.0
  0
VERTEX
  5
5B6
100
AcDbEntity
  8
スト－ル
  6
CONTINUOUS
 62
     2
100
AcDbVertex
100
AcDb2dVertex
 10
1466.085552
 20
622.316903
 30
0.0
  0
VERTEX
  5
5B7
100
AcDbEntity
  8
スト－ル
  6
CONTINUOUS
 62
     2
100
AcDbVertex
100
AcDb2dVertex
 10
1466.178619
 20
620.999084
 30
0.0
  0
VERTEX
  5
5B8
100
AcDbEntity
  8
スト－ル
  6
CONTINUOUS
 62
     2
100
AcDbVertex
100
AcDb2dVertex
 10
1466.341655
 20
619.236744
 30
0.0
  0
VERTEX
  5
5B9
100
AcDbEntity
  8
スト－ル
  6
CONTINUOUS
 62
     2
100
AcDbVertex
100
AcDb2dVertex
 10
1466.546829
 20
617.402816
 30
0.0
  0
VERTEX
  5
5BA
100
AcDbEntity
  8
スト－ル
  6
CONTINUOUS
 62
     2
100
AcDbVertex
100
AcDb2dVertex
 10
1466.78199
 20
615.547749
 30
0.0
  0
VERTEX
  5
5BB
100
AcDbEntity
  8
スト－ル
  6
CONTINUOUS
 62
     2
100
AcDbVertex
100
AcDb2dVertex
 10
1467.034988
 20
613.721991
 30
0.0
  0
VERTEX
  5
5BC
100
AcDbEntity
  8
スト－ル
  6
CONTINUOUS
 62
     2
100
AcDbVertex
100
AcDb2dVertex
 10
1467.293674
 20
611.97599
 30
0.0
  0
VERTEX
  5
5BD
100
AcDbEntity
  8
スト－ル
  6
CONTINUOUS
 62
     2
100
AcDbVertex
100
AcDb2dVertex
 10
1467.545897
 20
610.360194
 30
0.0
  0
VERTEX
  5
5BE
100
AcDbEntity
  8
スト－ル
  6
CONTINUOUS
 62
     2
100
AcDbVertex
100
AcDb2dVertex
 10
1467.779507
 20
608.925054
 30
0.0
  0
VERTEX
  5
5BF
100
AcDbEntity
  8
スト－ル
  6
CONTINUOUS
 62
     2
100
AcDbVertex
100
AcDb2dVertex
 10
1467.982354
 20
607.721015
 30
0.0
  0
VERTEX
  5
5C0
100
AcDbEntity
  8
スト－ル
  6
CONTINUOUS
 62
     2
100
AcDbVertex
100
AcDb2dVertex
 10
1468.142288
 20
606.798528
 30
0.0
  0
VERTEX
  5
5C1
100
AcDbEntity
  8
スト－ル
  6
CONTINUOUS
 62
     2
100
AcDbVertex
100
AcDb2dVertex
 10
1468.247158
 20
606.20804
 30
0.0
  0
VERTEX
  5
5C2
100
AcDbEntity
  8
スト－ル
  6
CONTINUOUS
 62
     2
100
AcDbVertex
100
AcDb2dVertex
 10
1468.284815
 20
606.0
 30
0.0
  0
SEQEND
  5
5C3
100
AcDbEntity
  8
スト－ル
  6
CONTINUOUS
 62
     2
  0
LINE
  5
5C4
100
AcDbEntity
  8
スト－ル
  6
CONTINUOUS
 62
     2
100
AcDbLine
 10
1530.407305
 20
623.499084
 30
0.0
 11
1467.378619
 21
623.499084
 31
0.0
  0
LINE
  5
5C5
100
AcDbEntity
  8
スト－ル
  6
CONTINUOUS
 62
     2
100
AcDbLine
 10
1530.640318
 20
627.499084
 30
0.0
 11
1467.201678
 21
627.499084
 31
0.0
  0
LINE
  5
5C6
100
AcDbEntity
  8
スト－ル
  6
CONTINUOUS
 62
     2
100
AcDbLine
 10
1530.523811
 20
625.499084
 30
0.0
 11
1467.378619
 21
625.499084
 31
0.0
  0
LINE
  5
5C7
100
AcDbEntity
  8
スト－ル
  6
CONTINUOUS
 62
     2
100
AcDbLine
 10
1543.304628
 20
715.999084
 30
0.0
 11
1536.316148
 21
613.168535
 31
0.0
  0
LINE
  5
5C8
100
AcDbEntity
  8
スト－ル
  6
CONTINUOUS
 62
     2
100
AcDbLine
 10
1541.300014
 20
715.999084
 30
0.0
 11
1534.320751
 21
613.304144
 31
0.0
  0
LINE
  5
5C9
100
AcDbEntity
  8
スト－ル
  6
CONTINUOUS
 62
     2
100
AcDbLine
 10
1538.794247
 20
715.999084
 30
0.0
 11
1531.826504
 21
613.473656
 31
0.0
  0
LINE
  5
5CA
100
AcDbEntity
  8
スト－ル
  6
CONTINUOUS
 62
     2
100
AcDbLine
 10
1584.316161
 20
715.999084
 30
0.0
 11
1591.304641
 21
613.168535
 31
0.0
  0
LINE
  5
5CB
100
AcDbEntity
  8
スト－ル
  6
CONTINUOUS
 62
     2
100
AcDbLine
 10
1586.320774
 20
715.999084
 30
0.0
 11
1593.300038
 21
613.304144
 31
0.0
  0
LINE
  5
5CC
100
AcDbEntity
  8
スト－ル
  6
CONTINUOUS
 62
     2
100
AcDbLine
 10
1588.826541
 20
715.999084
 30
0.0
 11
1595.794285
 21
613.473656
 31
0.0
  0
LINE
  5
5CD
100
AcDbEntity
  8
スト－ル
  6
CONTINUOUS
 62
     2
100
AcDbLine
 10
1597.0193
 20
623.499084
 30
0.0
 11
1726.810882
 21
623.499084
 31
0.0
  0
LINE
  5
5CE
100
AcDbEntity
  8
スト－ル
  6
CONTINUOUS
 62
     2
100
AcDbLine
 10
1596.906948
 20
625.499084
 30
0.0
 11
1726.810882
 21
625.499084
 31
0.0
  0
LINE
  5
5CF
100
AcDbEntity
  8
スト－ル
  6
CONTINUOUS
 62
     2
100
AcDbLine
 10
1596.766507
 20
627.999084
 30
0.0
 11
1726.810882
 21
627.999084
 31
0.0
  0
LINE
  5
5D0
100
AcDbEntity
  8
スト－ル
  6
CONTINUOUS
 62
     2
100
AcDbLine
 10
1734.310882
 20
605.99884
 30
0.0
 11
1734.310882
 21
615.999084
 31
0.0
  0
LINE
  5
5D1
100
AcDbEntity
  8
スト－ル
  6
CONTINUOUS
 62
     2
100
AcDbLine
 10
1741.310882
 20
605.999023
 30
0.0
 11
1741.310882
 21
616.507324
 31
0.0
  0
LINE
  5
5D2
100
AcDbEntity
  8
スト－ル
  6
CONTINUOUS
 62
     2
100
AcDbLine
 10
1736.560882
 20
605.99884
 30
0.0
 11
1736.560882
 21
615.999084
 31
0.0
  0
LINE
  5
5D3
100
AcDbEntity
  8
スト－ル
  6
CONTINUOUS
 62
     2
100
AcDbLine
 10
1739.060882
 20
605.999023
 30
0.0
 11
1739.060882
 21
616.507324
 31
0.0
  0
LINE
  5
5D4
100
AcDbEntity
  8
スト－ル
  6
CONTINUOUS
 62
     2
100
AcDbLine
 10
1674.513348
 20
630.887101
 30
0.0
 11
1729.24133
 21
628.999959
 31
0.0
  0
LINE
  5
5D5
100
AcDbEntity
  8
スト－ル
  6
CONTINUOUS
 62
     2
100
AcDbLine
 10
1673.069176
 20
753.527859
 30
0.0
 11
1666.529982
 21
628.745162
 31
0.0
  0
LINE
  5
5D6
100
AcDbEntity
  8
スト－ル
  6
CONTINUOUS
 62
     2
100
AcDbLine
 10
1675.066435
 20
753.423193
 30
0.0
 11
1668.527241
 21
628.640496
 31
0.0
  0
LINE
  5
5D7
100
AcDbEntity
  8
スト－ル
  6
CONTINUOUS
 62
     2
100
AcDbLine
 10
1677.063694
 20
753.318528
 30
0.0
 11
1670.524501
 21
628.53583
 31
0.0
  0
LINE
  5
5D8
100
AcDbEntity
  8
スト－ル
  6
CONTINUOUS
 62
     2
100
AcDbLine
 10
1679.060954
 20
753.213862
 30
0.0
 11
1672.52176
 21
628.431165
 31
0.0
  0
ARC
  5
5D9
100
AcDbEntity
  8
スト－ル
  6
CONTINUOUS
 62
     2
100
AcDbCircle
 10
1601.325531
 20
635.999084
 30
0.0
 40
7.315382
100
AcDbArc
 50
213.138714
 51
273.693529
  0
ARC
  5
5DA
100
AcDbEntity
  8
スト－ル
  6
CONTINUOUS
 62
     2
100
AcDbCircle
 10
1728.810882
 20
616.507385
 30
0.0
 40
13.451369
100
AcDbArc
 50
5.514371
 51
90.058863
  0
ARC
  5
5DB
100
AcDbEntity
  8
スト－ル
  6
CONTINUOUS
 62
     2
100
AcDbCircle
 10
1728.810882
 20
616.507385
 30
0.0
 40
11.365811
100
AcDbArc
 50
12.668401
 51
86.169613
  0
ARC
  5
5DC
100
AcDbEntity
  8
スト－ル
  6
CONTINUOUS
 62
     2
100
AcDbCircle
 10
1728.810882
 20
616.507385
 30
0.0
 40
9.617736
100
AcDbArc
 50
12.187309
 51
92.942856
  0
ARC
  5
5DD
100
AcDbEntity
  8
スト－ル
  6
CONTINUOUS
 62
     2
100
AcDbCircle
 10
1728.810882
 20
616.507385
 30
0.0
 40
7.580502
100
AcDbArc
 50
355.662289
 51
90.09046
  0
ARC
  5
5DE
100
AcDbEntity
  8
スト－ル
  6
CONTINUOUS
 62
     2
100
AcDbCircle
 10
1728.810882
 20
616.507385
 30
0.0
 40
5.91886
100
AcDbArc
 50
5.746263
 51
94.612746
  0
ARC
  5
5DF
100
AcDbEntity
  8
スト－ル
  6
CONTINUOUS
 62
     2
100
AcDbCircle
 10
1659.399749
 20
635.999084
 30
0.0
 40
7.591923
100
AcDbArc
 50
282.941448
 51
334.447036
  0
LINE
  5
5E0
100
AcDbEntity
  8
スト－ル
  6
CONTINUOUS
 62
     6
100
AcDbLine
 10
1528.710571
 20
609.0
 30
0.0
 11
1598.910523
 21
609.0
 31
0.0
  0
LINE
  5
5E1
100
AcDbEntity
  8
スト－ル
  6
CONTINUOUS
 62
     6
100
AcDbLine
 10
1537.210549
 20
576.0
 30
0.0
 11
1590.410545
 21
576.0
 31
0.0
  0
LINE
  5
5E2
100
AcDbEntity
  8
スト－ル
  6
CONTINUOUS
 62
     6
100
AcDbLine
 10
1535.910545
 20
571.706765
 30
0.0
 11
1535.910545
 21
606.0
 31
0.0
  0
LINE
  5
5E3
100
AcDbEntity
  8
スト－ル
  6
CONTINUOUS
 62
     6
100
AcDbLine
 10
1538.710671
 20
576.0
 30
0.0
 11
1538.395523
 21
607.515
 31
0.0
  0
LINE
  5
5E4
100
AcDbEntity
  8
スト－ル
  6
CONTINUOUS
 62
     6
100
AcDbLine
 10
1535.910545
 20
606.0
 30
0.0
 11
1536.200546
 21
576.999939
 31
0.0
  0
LINE
  5
5E5
100
AcDbEntity
  8
スト－ル
  6
CONTINUOUS
 62
     6
100
AcDbLine
 10
1536.200546
 20
576.999939
 30
0.0
 11
1537.210549
 21
576.0
 31
0.0
  0
ARC
  5
5E6
100
AcDbEntity
  8
スト－ル
  6
CONTINUOUS
 62
     6
100
AcDbCircle
 10
1536.895599
 20
607.5
 30
0.0
 40
1.5
100
AcDbArc
 50
0.572937
 51
90.0
  0
LINE
  5
5E7
100
AcDbEntity
  8
スト－ル
  6
CONTINUOUS
 62
     6
100
AcDbLine
 10
1534.810547
 20
609.0
 30
0.0
 11
1536.895599
 21
609.0
 31
0.0
  0
LINE
  5
5E8
100
AcDbEntity
  8
スト－ル
  6
CONTINUOUS
 62
     6
100
AcDbLine
 10
1588.910671
 20
576.024994
 30
0.0
 11
1589.225571
 21
607.515
 31
0.0
  0
LINE
  5
5E9
100
AcDbEntity
  8
スト－ル
  6
CONTINUOUS
 62
     6
100
AcDbLine
 10
1591.710549
 20
606.0
 30
0.0
 11
1591.420548
 21
576.999939
 31
0.0
  0
LINE
  5
5EA
100
AcDbEntity
  8
スト－ル
  6
CONTINUOUS
 62
     6
100
AcDbLine
 10
1591.420548
 20
576.999939
 30
0.0
 11
1590.410545
 21
576.0
 31
0.0
  0
ARC
  5
5EB
100
AcDbEntity
  8
スト－ル
  6
CONTINUOUS
 62
     6
100
AcDbCircle
 10
1590.725495
 20
607.5
 30
0.0
 40
1.5
100
AcDbArc
 50
90.0
 51
179.427063
  0
POLYLINE
  5
5EC
100
AcDbEntity
  8
スト－ル
  6
CONTINUOUS
 62
     6
100
AcDb2dPolyline
 66
     1
 10
0.0
 20
0.0
 30
0.0
 70
   128
  0
VERTEX
  5
5ED
100
AcDbEntity
  8
スト－ル
  6
CONTINUOUS
 62
     6
100
AcDbVertex
100
AcDb2dVertex
 10
1533.410675
 20
573.200153
 30
0.0
  0
VERTEX
  5
5EE
100
AcDbEntity
  8
スト－ル
  6
CONTINUOUS
 62
     6
100
AcDbVertex
100
AcDb2dVertex
 10
1533.473991
 20
573.160338
 30
0.0
  0
VERTEX
  5
5EF
100
AcDbEntity
  8
スト－ル
  6
CONTINUOUS
 62
     6
100
AcDbVertex
100
AcDb2dVertex
 10
1533.655108
 20
573.048556
 30
0.0
  0
VERTEX
  5
5F0
100
AcDbEntity
  8
スト－ル
  6
CONTINUOUS
 62
     6
100
AcDbVertex
100
AcDb2dVertex
 10
1533.940776
 20
572.876298
 30
0.0
  0
VERTEX
  5
5F1
100
AcDbEntity
  8
スト－ル
  6
CONTINUOUS
 62
     6
100
AcDbVertex
100
AcDb2dVertex
 10
1534.317748
 20
572.655057
 30
0.0
  0
VERTEX
  5
5F2
100
AcDbEntity
  8
スト－ル
  6
CONTINUOUS
 62
     6
100
AcDbVertex
100
AcDb2dVertex
 10
1534.772773
 20
572.396324
 30
0.0
  0
VERTEX
  5
5F3
100
AcDbEntity
  8
スト－ル
  6
CONTINUOUS
 62
     6
100
AcDbVertex
100
AcDb2dVertex
 10
1535.292605
 20
572.111592
 30
0.0
  0
VERTEX
  5
5F4
100
AcDbEntity
  8
スト－ル
  6
CONTINUOUS
 62
     6
100
AcDbVertex
100
AcDb2dVertex
 10
1535.863994
 20
571.812351
 30
0.0
  0
VERTEX
  5
5F5
100
AcDbEntity
  8
スト－ル
  6
CONTINUOUS
 62
     6
100
AcDbVertex
100
AcDb2dVertex
 10
1536.473692
 20
571.510095
 30
0.0
  0
VERTEX
  5
5F6
100
AcDbEntity
  8
スト－ル
  6
CONTINUOUS
 62
     6
100
AcDbVertex
100
AcDb2dVertex
 10
1537.10845
 20
571.216316
 30
0.0
  0
VERTEX
  5
5F7
100
AcDbEntity
  8
スト－ル
  6
CONTINUOUS
 62
     6
100
AcDbVertex
100
AcDb2dVertex
 10
1537.75502
 20
570.942504
 30
0.0
  0
VERTEX
  5
5F8
100
AcDbEntity
  8
スト－ル
  6
CONTINUOUS
 62
     6
100
AcDbVertex
100
AcDb2dVertex
 10
1538.400153
 20
570.700153
 30
0.0
  0
VERTEX
  5
5F9
100
AcDbEntity
  8
スト－ル
  6
CONTINUOUS
 62
     6
100
AcDbVertex
100
AcDb2dVertex
 10
1539.520459
 20
570.366771
 30
0.0
  0
VERTEX
  5
5FA
100
AcDbEntity
  8
スト－ル
  6
CONTINUOUS
 62
     6
100
AcDbVertex
100
AcDb2dVertex
 10
1540.594581
 20
570.147467
 30
0.0
  0
VERTEX
  5
5FB
100
AcDbEntity
  8
スト－ル
  6
CONTINUOUS
 62
     6
100
AcDbVertex
100
AcDb2dVertex
 10
1541.623225
 20
570.019169
 30
0.0
  0
VERTEX
  5
5FC
100
AcDbEntity
  8
スト－ル
  6
CONTINUOUS
 62
     6
100
AcDbVertex
100
AcDb2dVertex
 10
1542.6071
 20
569.958803
 30
0.0
  0
VERTEX
  5
5FD
100
AcDbEntity
  8
スト－ル
  6
CONTINUOUS
 62
     6
100
AcDbVertex
100
AcDb2dVertex
 10
1543.546914
 20
569.943295
 30
0.0
  0
VERTEX
  5
5FE
100
AcDbEntity
  8
スト－ル
  6
CONTINUOUS
 62
     6
100
AcDbVertex
100
AcDb2dVertex
 10
1544.443374
 20
569.949572
 30
0.0
  0
VERTEX
  5
5FF
100
AcDbEntity
  8
スト－ル
  6
CONTINUOUS
 62
     6
100
AcDbVertex
100
AcDb2dVertex
 10
1545.297189
 20
569.954559
 30
0.0
  0
VERTEX
  5
600
100
AcDbEntity
  8
スト－ル
  6
CONTINUOUS
 62
     6
100
AcDbVertex
100
AcDb2dVertex
 10
1546.109066
 20
569.935185
 30
0.0
  0
VERTEX
  5
601
100
AcDbEntity
  8
スト－ル
  6
CONTINUOUS
 62
     6
100
AcDbVertex
100
AcDb2dVertex
 10
1546.879714
 20
569.868375
 30
0.0
  0
VERTEX
  5
602
100
AcDbEntity
  8
スト－ル
  6
CONTINUOUS
 62
     6
100
AcDbVertex
100
AcDb2dVertex
 10
1547.60984
 20
569.731055
 30
0.0
  0
VERTEX
  5
603
100
AcDbEntity
  8
スト－ル
  6
CONTINUOUS
 62
     6
100
AcDbVertex
100
AcDb2dVertex
 10
1548.300153
 20
569.500153
 30
0.0
  0
VERTEX
  5
604
100
AcDbEntity
  8
スト－ル
  6
CONTINUOUS
 62
     6
100
AcDbVertex
100
AcDb2dVertex
 10
1548.903206
 20
569.190561
 30
0.0
  0
VERTEX
  5
605
100
AcDbEntity
  8
スト－ル
  6
CONTINUOUS
 62
     6
100
AcDbVertex
100
AcDb2dVertex
 10
1549.485324
 20
568.798159
 30
0.0
  0
VERTEX
  5
606
100
AcDbEntity
  8
スト－ル
  6
CONTINUOUS
 62
     6
100
AcDbVertex
100
AcDb2dVertex
 10
1550.058736
 20
568.339069
 30
0.0
  0
VERTEX
  5
607
100
AcDbEntity
  8
スト－ル
  6
CONTINUOUS
 62
     6
100
AcDbVertex
100
AcDb2dVertex
 10
1550.635673
 20
567.829411
 30
0.0
  0
VERTEX
  5
608
100
AcDbEntity
  8
スト－ル
  6
CONTINUOUS
 62
     6
100
AcDbVertex
100
AcDb2dVertex
 10
1551.228362
 20
567.285308
 30
0.0
  0
VERTEX
  5
609
100
AcDbEntity
  8
スト－ル
  6
CONTINUOUS
 62
     6
100
AcDbVertex
100
AcDb2dVertex
 10
1551.849034
 20
566.722882
 30
0.0
  0
VERTEX
  5
60A
100
AcDbEntity
  8
スト－ル
  6
CONTINUOUS
 62
     6
100
AcDbVertex
100
AcDb2dVertex
 10
1552.509918
 20
566.158253
 30
0.0
  0
VERTEX
  5
60B
100
AcDbEntity
  8
スト－ル
  6
CONTINUOUS
 62
     6
100
AcDbVertex
100
AcDb2dVertex
 10
1553.223242
 20
565.607544
 30
0.0
  0
VERTEX
  5
60C
100
AcDbEntity
  8
スト－ル
  6
CONTINUOUS
 62
     6
100
AcDbVertex
100
AcDb2dVertex
 10
1554.001236
 20
565.086877
 30
0.0
  0
VERTEX
  5
60D
100
AcDbEntity
  8
スト－ル
  6
CONTINUOUS
 62
     6
100
AcDbVertex
100
AcDb2dVertex
 10
1554.85613
 20
564.612372
 30
0.0
  0
VERTEX
  5
60E
100
AcDbEntity
  8
スト－ル
  6
CONTINUOUS
 62
     6
100
AcDbVertex
100
AcDb2dVertex
 10
1555.800153
 20
564.200153
 30
0.0
  0
VERTEX
  5
60F
100
AcDbEntity
  8
スト－ル
  6
CONTINUOUS
 62
     6
100
AcDbVertex
100
AcDb2dVertex
 10
1556.710278
 20
563.898352
 30
0.0
  0
VERTEX
  5
610
100
AcDbEntity
  8
スト－ル
  6
CONTINUOUS
 62
     6
100
AcDbVertex
100
AcDb2dVertex
 10
1557.670442
 20
563.651929
 30
0.0
  0
VERTEX
  5
611
100
AcDbEntity
  8
スト－ル
  6
CONTINUOUS
 62
     6
100
AcDbVertex
100
AcDb2dVertex
 10
1558.651836
 20
563.455273
 30
0.0
  0
VERTEX
  5
612
100
AcDbEntity
  8
スト－ル
  6
CONTINUOUS
 62
     6
100
AcDbVertex
100
AcDb2dVertex
 10
1559.625656
 20
563.302771
 30
0.0
  0
VERTEX
  5
613
100
AcDbEntity
  8
スト－ル
  6
CONTINUOUS
 62
     6
100
AcDbVertex
100
AcDb2dVertex
 10
1560.563094
 20
563.188812
 30
0.0
  0
VERTEX
  5
614
100
AcDbEntity
  8
スト－ル
  6
CONTINUOUS
 62
     6
100
AcDbVertex
100
AcDb2dVertex
 10
1561.435344
 20
563.107782
 30
0.0
  0
VERTEX
  5
615
100
AcDbEntity
  8
スト－ル
  6
CONTINUOUS
 62
     6
100
AcDbVertex
100
AcDb2dVertex
 10
1562.2136
 20
563.054069
 30
0.0
  0
VERTEX
  5
616
100
AcDbEntity
  8
スト－ル
  6
CONTINUOUS
 62
     6
100
AcDbVertex
100
AcDb2dVertex
 10
1562.869055
 20
563.022062
 30
0.0
  0
VERTEX
  5
617
100
AcDbEntity
  8
スト－ル
  6
CONTINUOUS
 62
     6
100
AcDbVertex
100
AcDb2dVertex
 10
1563.372902
 20
563.006149
 30
0.0
  0
VERTEX
  5
618
100
AcDbEntity
  8
スト－ル
  6
CONTINUOUS
 62
     6
100
AcDbVertex
100
AcDb2dVertex
 10
1563.696334
 20
563.000716
 30
0.0
  0
VERTEX
  5
619
100
AcDbEntity
  8
スト－ル
  6
CONTINUOUS
 62
     6
100
AcDbVertex
100
AcDb2dVertex
 10
1563.810547
 20
563.000153
 30
0.0
  0
SEQEND
  5
61A
100
AcDbEntity
  8
スト－ル
  6
CONTINUOUS
 62
     6
  0
ARC
  5
61B
100
AcDbEntity
  8
スト－ル
  6
CONTINUOUS
 62
     6
100
AcDbCircle
 10
1548.610611
 20
505.001616
 30
0.0
 40
20.0
100
AcDbArc
 50
40.536084
 51
139.463916
  0
ARC
  5
61C
100
AcDbEntity
  8
スト－ル
  6
CONTINUOUS
 62
     6
100
AcDbCircle
 10
1548.610611
 20
530.998689
 30
0.0
 40
20.0
100
AcDbArc
 50
220.536084
 51
319.463916
  0
LINE
  5
61D
100
AcDbEntity
  8
スト－ル
  6
CONTINUOUS
 62
     6
100
AcDbLine
 10
1533.410675
 20
561.100153
 30
0.0
 11
1533.410675
 21
606.0
 31
0.0
  0
LINE
  5
61E
100
AcDbEntity
  8
スト－ル
  6
CONTINUOUS
 62
     6
100
AcDbLine
 10
1533.410675
 20
548.100153
 30
0.0
 11
1533.410675
 21
553.100153
 31
0.0
  0
LINE
  5
61F
100
AcDbEntity
  8
スト－ル
  6
CONTINUOUS
 62
     6
100
AcDbLine
 10
1533.410675
 20
518.000153
 30
0.0
 11
1533.410675
 21
527.100153
 31
0.0
  0
LINE
  5
620
100
AcDbEntity
  8
スト－ル
  6
CONTINUOUS
 62
     6
100
AcDbLine
 10
1533.410675
 20
535.100153
 30
0.0
 11
1533.410675
 21
540.100153
 31
0.0
  0
LINE
  5
621
100
AcDbEntity
  8
スト－ル
  6
CONTINUOUS
 62
     6
100
AcDbLine
 10
1591.710549
 20
515.548496
 30
0.0
 11
1591.710549
 21
527.100153
 31
0.0
  0
LINE
  5
622
100
AcDbEntity
  8
スト－ル
  6
CONTINUOUS
 62
     6
100
AcDbLine
 10
1594.210423
 20
518.000153
 30
0.0
 11
1594.210423
 21
527.100153
 31
0.0
  0
LINE
  5
623
100
AcDbEntity
  8
スト－ル
  6
CONTINUOUS
 62
     6
100
AcDbLine
 10
1591.710549
 20
535.100153
 30
0.0
 11
1591.710549
 21
540.100153
 31
0.0
  0
LINE
  5
624
100
AcDbEntity
  8
スト－ル
  6
CONTINUOUS
 62
     6
100
AcDbLine
 10
1594.210423
 20
535.100153
 30
0.0
 11
1594.210423
 21
540.100153
 31
0.0
  0
LINE
  5
625
100
AcDbEntity
  8
スト－ル
  6
CONTINUOUS
 62
     6
100
AcDbLine
 10
1594.210423
 20
548.100153
 30
0.0
 11
1594.210423
 21
553.100153
 31
0.0
  0
LINE
  5
626
100
AcDbEntity
  8
スト－ル
  6
CONTINUOUS
 62
     6
100
AcDbLine
 10
1594.210423
 20
561.100153
 30
0.0
 11
1594.210423
 21
606.0
 31
0.0
  0
LINE
  5
627
100
AcDbEntity
  8
スト－ル
  6
CONTINUOUS
 62
     6
100
AcDbLine
 10
1591.710549
 20
548.100153
 30
0.0
 11
1591.710549
 21
553.100153
 31
0.0
  0
LINE
  5
628
100
AcDbEntity
  8
スト－ル
  6
CONTINUOUS
 62
     6
100
AcDbLine
 10
1591.710549
 20
561.100153
 30
0.0
 11
1591.710549
 21
606.0
 31
0.0
  0
LINE
  5
629
100
AcDbEntity
  8
スト－ル
  6
CONTINUOUS
 62
     6
100
AcDbLine
 10
1513.810547
 20
618.0
 30
0.0
 11
1513.810547
 21
606.0
 31
0.0
  0
LINE
  5
62A
100
AcDbEntity
  8
スト－ル
  6
CONTINUOUS
 62
     6
100
AcDbLine
 10
1516.960205
 20
618.0
 30
0.0
 11
1513.810547
 21
618.0
 31
0.0
  0
LINE
  5
62B
100
AcDbEntity
  8
スト－ル
  6
CONTINUOUS
 62
     6
100
AcDbLine
 10
1516.810547
 20
612.927399
 30
0.0
 11
1516.810547
 21
606.0
 31
0.0
  0
ARC
  5
62C
100
AcDbEntity
  8
スト－ル
  6
CONTINUOUS
 62
     6
100
AcDbCircle
 10
1532.812706
 20
626.526337
 30
0.0
 40
21.0
100
AcDbArc
 50
220.358521
 51
256.826721
  0
ARC
  5
62D
100
AcDbEntity
  8
スト－ル
  6
CONTINUOUS
 62
     6
100
AcDbCircle
 10
1532.812706
 20
626.526337
 30
0.0
 40
18.0
100
AcDbArc
 50
208.273804
 51
256.826721
  0
LINE
  5
62E
100
AcDbEntity
  8
スト－ル
  6
CONTINUOUS
 62
     6
100
AcDbLine
 10
1524.102856
 20
610.773924
 30
0.0
 11
1530.81311
 21
617.484178
 31
0.0
  0
LINE
  5
62F
100
AcDbEntity
  8
スト－ル
  6
CONTINUOUS
 62
     6
100
AcDbLine
 10
1520.07054
 20
613.812675
 30
0.0
 11
1527.23561
 21
620.977746
 31
0.0
  0
LINE
  5
630
100
AcDbEntity
  8
スト－ル
  6
CONTINUOUS
 62
     6
100
AcDbLine
 10
1530.400305
 20
609.0
 30
0.0
 11
1518.400183
 21
621.000122
 31
0.0
  0
LINE
  5
631
100
AcDbEntity
  8
スト－ル
  6
CONTINUOUS
 62
     6
100
AcDbLine
 10
1530.81311
 20
615.658263
 30
0.0
 11
1525.471251
 21
621.000122
 31
0.0
  0
LINE
  5
632
100
AcDbEntity
  8
スト－ル
  6
CONTINUOUS
 62
     6
100
AcDbLine
 10
1529.4
 20
609.0
 30
0.0
 11
1533.4
 21
613.0
 31
0.0
  0
LINE
  5
633
100
AcDbEntity
  8
スト－ル
  6
CONTINUOUS
 62
     6
100
AcDbLine
 10
1536.200153
 20
610.27122
 30
0.0
 11
1533.471373
 21
613.0
 31
0.0
  0
LINE
  5
634
100
AcDbEntity
  8
スト－ル
  6
CONTINUOUS
 62
     7
100
AcDbLine
 10
1531.810394
 20
612.999023
 30
0.0
 11
1595.810394
 21
612.999023
 31
0.0
  0
LINE
  5
635
100
AcDbEntity
  8
スト－ル
  6
CONTINUOUS
 62
     2
100
AcDbLine
 10
1536.200153
 20
613.0
 30
0.0
 11
1536.200153
 21
609.0
 31
0.0
  0
LINE
  5
636
100
AcDbEntity
  8
スト－ル
  6
CONTINUOUS
 62
     2
100
AcDbLine
 10
1591.420941
 20
613.0
 30
0.0
 11
1591.420941
 21
609.0
 31
0.0
  0
LINE
  5
637
100
AcDbEntity
  8
スト－ル
  6
CONTINUOUS
 62
     6
100
AcDbLine
 10
1591.420941
 20
610.27122
 30
0.0
 11
1594.149721
 21
613.0
 31
0.0
  0
LINE
  5
638
100
AcDbEntity
  8
スト－ル
  6
CONTINUOUS
 62
     6
100
AcDbLine
 10
1594.221094
 20
613.0
 30
0.0
 11
1598.221094
 21
609.0
 31
0.0
  0
LINE
  5
639
100
AcDbEntity
  8
スト－ル
  6
CONTINUOUS
 62
     6
100
AcDbLine
 10
1596.81311
 20
617.479052
 30
0.0
 11
1603.518238
 21
610.773924
 31
0.0
  0
LINE
  5
63A
100
AcDbEntity
  8
スト－ル
  6
CONTINUOUS
 62
     6
100
AcDbLine
 10
1596.81311
 20
615.663389
 30
0.0
 11
1602.149843
 21
621.000122
 31
0.0
  0
LINE
  5
63B
100
AcDbEntity
  8
スト－ル
  6
CONTINUOUS
 62
     6
100
AcDbLine
 10
1600.363107
 20
621.000122
 30
0.0
 11
1607.550554
 21
613.812675
 31
0.0
  0
ARC
  5
63C
100
AcDbEntity
  8
スト－ル
  6
CONTINUOUS
 62
     6
100
AcDbCircle
 10
1594.808388
 20
626.526337
 30
0.0
 40
18.0
100
AcDbArc
 50
283.173279
 51
331.726196
  0
LINE
  5
63D
100
AcDbEntity
  8
スト－ル
  6
CONTINUOUS
 62
     6
100
AcDbLine
 10
1609.220911
 20
621.000122
 30
0.0
 11
1597.220789
 21
609.0
 31
0.0
  0
LINE
  5
63E
100
AcDbEntity
  8
スト－ル
  6
CONTINUOUS
 62
     2
100
AcDbLine
 10
1610.66088
 20
617.999996
 30
0.0
 11
1610.400153
 21
621.000122
 31
0.0
  0
LINE
  5
63F
100
AcDbEntity
  8
スト－ル
  6
CONTINUOUS
 62
     6
100
AcDbLine
 10
1613.810547
 20
618.0
 30
0.0
 11
1613.810547
 21
606.0
 31
0.0
  0
LINE
  5
640
100
AcDbEntity
  8
スト－ル
  6
CONTINUOUS
 62
     6
100
AcDbLine
 10
1610.810394
 20
618.0
 30
0.0
 11
1613.810547
 21
618.0
 31
0.0
  0
LINE
  5
641
100
AcDbEntity
  8
スト－ル
  6
CONTINUOUS
 62
     6
100
AcDbLine
 10
1610.810547
 20
612.927399
 30
0.0
 11
1610.810547
 21
606.0
 31
0.0
  0
ARC
  5
642
100
AcDbEntity
  8
スト－ル
  6
CONTINUOUS
 62
     6
100
AcDbCircle
 10
1594.808388
 20
626.526337
 30
0.0
 40
21.0
100
AcDbArc
 50
283.173279
 51
319.641479
  0
LINE
  5
643
100
AcDbEntity
  8
スト－ル
  6
CONTINUOUS
 62
     2
100
AcDbLine
 10
1516.600153
 20
621.000122
 30
0.0
 11
1516.960214
 21
617.999996
 31
0.0
  0
LINE
  5
644
100
AcDbEntity
  8
スト－ル
  6
CONTINUOUS
 62
     6
100
AcDbLine
 10
1311.248344
 20
520.488794
 30
0.0
 11
1494.277092
 21
520.488794
 31
0.0
  0
TEXT
  5
645
100
AcDbEntity
  8
スト－ル
  6
CONTINUOUS
 62
     2
100
AcDbText
 10
1306.305839
 20
523.988855
 30
0.0
 40
40.0
  1
ＮＵ９ＡＶ
 41
0.8106
  7
EXCADSTD
 72
     5
 11
1499.305839
 21
523.988855
 31
0.0
100
AcDbText
  0
TEXT
  5
646
100
AcDbEntity
  8
スト－ル
  6
CONTINUOUS
 62
     2
100
AcDbText
 10
1158.987906
 20
454.035727
 30
0.0
 40
40.0
  1
ＶＵ５０　ＶＰ５０
 41
0.795667
  7
EXCADSTD
 72
     5
 11
1499.987905
 21
454.035727
 31
0.0
100
AcDbText
  0
TEXT
  5
647
100
AcDbEntity
  8
スト－ル
  6
CONTINUOUS
 62
     2
100
AcDbText
 10
1307.398581
 20
454.035727
 30
0.0
 40
25.0
  1
ＯＲ
 41
0.7728
  7
EXCADSTD
 72
     5
 11
1349.562182
 21
454.035727
 31
0.0
100
AcDbText
  0
LINE
  5
648
100
AcDbEntity
  8
スト－ル
  6
CONTINUOUS
 62
     6
100
AcDbLine
 10
1165.0
 20
450.535666
 30
0.0
 11
1491.804251
 21
450.535666
 31
0.0
  0
ARC
  5
649
100
AcDbEntity
  8
スト－ル
  6
CONTINUOUS
 62
     6
100
AcDbCircle
 10
1579.010485
 20
530.998687
 30
0.0
 40
20.0
100
AcDbArc
 50
220.536075
 51
319.463925
  0
LINE
  5
64A
100
AcDbEntity
  8
スト－ル
  6
CONTINUOUS
 62
     3
100
AcDbLine
 10
1783.810394
 20
470.0
 30
0.0
 11
1783.810394
 21
601.0
 31
0.0
  0
ARC
  5
64B
100
AcDbEntity
  8
スト－ル
  6
CONTINUOUS
 62
     6
100
AcDbCircle
 10
1527.587738
 20
658.999084
 30
0.0
 40
14.0
100
AcDbArc
 50
270.0
 51
287.063049
  0
ARC
  5
64C
100
AcDbEntity
  8
スト－ル
  6
CONTINUOUS
 62
     6
100
AcDbCircle
 10
1527.587738
 20
658.999084
 30
0.0
 40
5.0
100
AcDbArc
 50
270.0
 51
356.784546
  0
LINE
  5
64D
100
AcDbEntity
  8
スト－ル
  6
CONTINUOUS
 62
     6
100
AcDbLine
 10
1497.970062
 20
755.750122
 30
0.0
 11
1503.07846
 21
658.266418
 31
0.0
  0
LINE
  5
64E
100
AcDbEntity
  8
スト－ル
  6
CONTINUOUS
 62
     6
100
AcDbLine
 10
1506.776703
 20
759.671204
 30
0.0
 11
1512.066253
 21
658.737427
 31
0.0
  0
ARC
  5
64F
100
AcDbEntity
  8
スト－ル
  6
CONTINUOUS
 62
     6
100
AcDbCircle
 10
1517.059417
 20
658.999084
 30
0.0
 40
14.0
100
AcDbArc
 50
183.000061
 51
270.0
  0
LINE
  5
650
100
AcDbEntity
  8
スト－ル
  6
CONTINUOUS
 62
     6
100
AcDbLine
 10
1527.587738
 20
644.999084
 30
0.0
 11
1517.059417
 21
644.999084
 31
0.0
  0
LINE
  5
651
100
AcDbEntity
  8
スト－ル
  6
CONTINUOUS
 62
     6
100
AcDbLine
 10
1512.369354
 20
690.999084
 30
0.0
 11
1516.924164
 21
690.999084
 31
0.0
  0
ARC
  5
652
100
AcDbEntity
  8
スト－ル
  6
CONTINUOUS
 62
     6
100
AcDbCircle
 10
1517.059417
 20
658.999084
 30
0.0
 40
5.0
100
AcDbArc
 50
183.000061
 51
270.0
  0
LINE
  5
653
100
AcDbEntity
  8
スト－ル
  6
CONTINUOUS
 62
     6
100
AcDbLine
 10
1512.369354
 20
670.999084
 30
0.0
 11
1516.468597
 21
670.999084
 31
0.0
  0
LINE
  5
654
100
AcDbEntity
  8
スト－ル
  6
CONTINUOUS
 62
     6
100
AcDbLine
 10
1527.587738
 20
653.999084
 30
0.0
 11
1517.059417
 21
653.999084
 31
0.0
  0
LINE
  5
655
100
AcDbEntity
  8
スト－ル
  6
CONTINUOUS
 62
     6
100
AcDbLine
 10
1511.23056
 20
705.999084
 30
0.0
 11
1516.290497
 21
705.999084
 31
0.0
  0
LINE
  5
656
100
AcDbEntity
  8
スト－ル
  6
CONTINUOUS
 62
     6
100
AcDbLine
 10
1487.66098
 20
766.058838
 30
0.0
 11
1497.970062
 21
755.750122
 31
0.0
  0
LINE
  5
657
100
AcDbEntity
  8
スト－ル
  6
CONTINUOUS
 62
     6
100
AcDbLine
 10
1492.639007
 20
773.808899
 30
0.0
 11
1506.776703
 21
759.671204
 31
0.0
  0
ARC
  5
658
100
AcDbEntity
  8
スト－ル
  6
CONTINUOUS
 62
     6
100
AcDbCircle
 10
1596.394378
 20
1055.295837
 30
0.0
 40
300.0
100
AcDbArc
 50
248.077637
 51
249.766174
  0
ARC
  5
659
100
AcDbEntity
  8
スト－ル
  6
CONTINUOUS
 62
     6
100
AcDbCircle
 10
1596.394378
 20
1055.295837
 30
0.0
 40
309.0
100
AcDbArc
 50
248.081238
 51
249.397156
  0
LINE
  5
65A
100
AcDbEntity
  8
スト－ル
  6
CONTINUOUS
 62
     6
100
AcDbLine
 10
1532.579925
 20
658.718628
 30
0.0
 11
1535.691742
 21
714.111267
 31
0.0
  0
LINE
  5
65B
100
AcDbEntity
  8
スト－ル
  6
CONTINUOUS
 62
     6
100
AcDbLine
 10
1599.543304
 20
690.999084
 30
0.0
 11
1606.880462
 21
690.999084
 31
0.0
  0
LINE
  5
65C
100
AcDbEntity
  8
スト－ル
  6
CONTINUOUS
 62
     6
100
AcDbLine
 10
1601.365082
 20
670.999084
 30
0.0
 11
1607.56369
 21
670.999084
 31
0.0
  0
LINE
  5
65D
100
AcDbEntity
  8
スト－ル
  6
CONTINUOUS
 62
     7
100
AcDbLine
 10
1660.604828
 20
653.999084
 30
0.0
 11
1600.03305
 21
653.999084
 31
0.0
  0
ARC
  5
65E
100
AcDbEntity
  8
スト－ル
  6
CONTINUOUS
 62
     7
100
AcDbCircle
 10
1600.03305
 20
658.999084
 30
0.0
 40
5.0
100
AcDbArc
 50
183.215454
 51
270.0
  0
LINE
  5
65F
100
AcDbEntity
  8
スト－ル
  6
CONTINUOUS
 62
     6
100
AcDbLine
 10
1639.219207
 20
670.999084
 30
0.0
 11
1646.734466
 21
670.999084
 31
0.0
  0
LINE
  5
660
100
AcDbEntity
  8
スト－ル
  6
CONTINUOUS
 62
     6
100
AcDbLine
 10
1654.022186
 20
690.999084
 30
0.0
 11
1661.359466
 21
690.999084
 31
0.0
  0
ARC
  5
661
100
AcDbEntity
  8
スト－ル
  6
CONTINUOUS
 62
     7
100
AcDbCircle
 10
1660.604828
 20
658.999084
 30
0.0
 40
5.0
100
AcDbArc
 50
270.0
 51
356.999756
  0
LINE
  5
662
100
AcDbEntity
  8
スト－ル
  6
CONTINUOUS
 62
     6
100
AcDbLine
 10
1655.388519
 20
670.999084
 30
0.0
 11
1662.448456
 21
670.999084
 31
0.0
  0
ARC
  5
663
100
AcDbEntity
  8
スト－ル
  6
CONTINUOUS
 62
     6
100
AcDbCircle
 10
1709.454437
 20
731.264893
 30
0.0
 40
30.0
100
AcDbArc
 50
106.568939
 51
176.999756
  0
LINE
  5
664
100
AcDbEntity
  8
スト－ル
  6
CONTINUOUS
 62
     6
100
AcDbLine
 10
1670.572601
 20
753.658691
 30
0.0
 11
1686.913421
 21
769.999084
 31
0.0
  0
ARC
  5
665
100
AcDbEntity
  8
スト－ル
  6
CONTINUOUS
 62
     6
100
AcDbCircle
 10
1537.688812
 20
713.999084
 30
0.0
 40
2.0
100
AcDbArc
 50
90.0
 51
176.784485
  0
ARC
  5
666
100
AcDbEntity
  8
スト－ル
  6
CONTINUOUS
 62
     6
100
AcDbCircle
 10
1589.932464
 20
713.999084
 30
0.0
 40
2.0
100
AcDbArc
 50
3.215454
 51
90.0
  0
LINE
  5
667
100
AcDbEntity
  8
スト－ル
  6
CONTINUOUS
 62
     6
100
AcDbLine
 10
1598.859955
 20
705.999084
 30
0.0
 11
1604.603119
 21
705.999084
 31
0.0
  0
LINE
  5
668
100
AcDbEntity
  8
スト－ル
  6
CONTINUOUS
 62
     6
100
AcDbLine
 10
1654.249847
 20
705.999084
 30
0.0
 11
1662.498138
 21
705.999084
 31
0.0
  0
LINE
  5
669
100
AcDbEntity
  8
スト－ル
  6
CONTINUOUS
 62
     7
100
AcDbLine
 10
1589.932464
 20
715.999084
 30
0.0
 11
1537.688812
 21
715.999084
 31
0.0
  0
LINE
  5
66A
100
AcDbEntity
  8
スト－ル
  6
CONTINUOUS
 62
     2
100
AcDbLine
 10
1500.466637
 20
755.880949
 30
0.0
 11
1505.575035
 21
658.397245
 31
0.0
  0
LINE
  5
66B
100
AcDbEntity
  8
スト－ル
  6
CONTINUOUS
 62
     2
100
AcDbLine
 10
1504.280129
 20
759.540368
 30
0.0
 11
1509.569679
 21
658.606591
 31
0.0
  0
LINE
  5
66C
100
AcDbEntity
  8
スト－ル
  6
CONTINUOUS
 62
     2
100
AcDbLine
 10
1502.463896
 20
755.985611
 30
0.0
 11
1507.572294
 21
658.501907
 31
0.0
  0
LINE
  5
66D
100
AcDbEntity
  8
スト－ル
  6
CONTINUOUS
 62
     2
100
AcDbLine
 10
1489.428716
 20
767.826636
 30
0.0
 11
1499.737798
 21
757.51792
 31
0.0
  0
LINE
  5
66E
100
AcDbEntity
  8
スト－ル
  6
CONTINUOUS
 62
     2
100
AcDbLine
 10
1490.87124
 20
772.041132
 30
0.0
 11
1505.008936
 21
757.903437
 31
0.0
  0
LINE
  5
66F
100
AcDbEntity
  8
スト－ル
  6
CONTINUOUS
 62
     2
100
AcDbLine
 10
1489.457027
 20
770.626918
 30
0.0
 11
1503.594723
 21
756.489223
 31
0.0
  0
LINE
  5
670
100
AcDbEntity
  8
スト－ル
  6
CONTINUOUS
 62
     2
100
AcDbLine
 10
1532.3
 20
647.499084
 30
0.0
 11
1517.059417
 21
647.499084
 31
0.0
  0
LINE
  5
671
100
AcDbEntity
  8
スト－ル
  6
CONTINUOUS
 62
     2
100
AcDbLine
 10
1527.587738
 20
651.499084
 30
0.0
 11
1517.059417
 21
651.499084
 31
0.0
  0
LINE
  5
672
100
AcDbEntity
  8
スト－ル
  6
CONTINUOUS
 62
     2
100
AcDbLine
 10
1527.587738
 20
649.499084
 30
0.0
 11
1517.059417
 21
649.499084
 31
0.0
  0
LINE
  5
673
100
AcDbEntity
  8
スト－ル
  6
CONTINUOUS
 62
     2
100
AcDbLine
 10
1675.22477
 20
754.77525
 30
0.0
 11
1687.832626
 21
767.382777
 31
0.0
  0
LINE
  5
674
100
AcDbEntity
  8
スト－ル
  6
CONTINUOUS
 62
     2
100
AcDbLine
 10
1676.638965
 20
753.361018
 30
0.0
 11
1689.246821
 21
765.968545
 31
0.0
  0
ARC
  5
675
100
AcDbEntity
  8
スト－ル
  6
CONTINUOUS
 62
     2
100
AcDbCircle
 10
1517.059417
 20
658.999084
 30
0.0
 40
11.893486
100
AcDbArc
 50
190.292236
 51
264.869279
  0
ARC
  5
676
100
AcDbEntity
  8
スト－ル
  6
CONTINUOUS
 62
     2
100
AcDbCircle
 10
1517.059417
 20
658.999084
 30
0.0
 40
9.934295
100
AcDbArc
 50
189.976229
 51
265.782848
  0
ARC
  5
677
100
AcDbEntity
  8
スト－ル
  6
CONTINUOUS
 62
     2
100
AcDbCircle
 10
1517.059417
 20
658.999084
 30
0.0
 40
7.488711
100
AcDbArc
 50
199.494326
 51
258.924564
  0
ARC
  5
678
100
AcDbEntity
  8
スト－ル
  6
CONTINUOUS
 62
     2
100
AcDbCircle
 10
1709.454437
 20
731.264893
 30
0.0
 40
32.140974
100
AcDbArc
 50
110.754209
 51
161.189871
  0
ARC
  5
679
100
AcDbEntity
  8
スト－ル
  6
CONTINUOUS
 62
     2
100
AcDbCircle
 10
1709.454437
 20
731.264893
 30
0.0
 40
34.019538
100
AcDbArc
 50
113.970996
 51
150.839179
  0
ARC
  5
67A
100
AcDbEntity
  8
スト－ル
  6
CONTINUOUS
 62
     2
100
AcDbCircle
 10
1709.454437
 20
731.264893
 30
0.0
 40
35.655427
100
AcDbArc
 50
114.606551
 51
145.813854
  0
ARC
  5
67B
100
AcDbEntity
  8
スト－ル
  6
CONTINUOUS
 62
     2
100
AcDbCircle
 10
1709.454437
 20
731.264893
 30
0.0
 40
37.312331
100
AcDbArc
 50
116.816921
 51
142.325581
  0
ARC
  5
67C
100
AcDbEntity
  8
スト－ル
  6
CONTINUOUS
 62
     2
100
AcDbCircle
 10
1596.394378
 20
1055.295837
 30
0.0
 40
302.280683
100
AcDbArc
 50
248.308431
 51
249.500225
  0
ARC
  5
67D
100
AcDbEntity
  8
スト－ル
  6
CONTINUOUS
 62
     2
100
AcDbCircle
 10
1596.394378
 20
1055.295837
 30
0.0
 40
304.890811
100
AcDbArc
 50
248.248221
 51
249.380782
  0
ARC
  5
67E
100
AcDbEntity
  8
スト－ル
  6
CONTINUOUS
 62
     2
100
AcDbCircle
 10
1596.394378
 20
1055.295837
 30
0.0
 40
307.034387
100
AcDbArc
 50
248.237374
 51
249.481802
  0
ARC
  5
67F
100
AcDbEntity
  8
スト－ル
  6
CONTINUOUS
 62
     2
100
AcDbCircle
 10
1527.587738
 20
658.999084
 30
0.0
 40
7.324718
100
AcDbArc
 50
275.071449
 51
335.611973
  0
ARC
  5
680
100
AcDbEntity
  8
スト－ル
  6
CONTINUOUS
 62
     2
100
AcDbCircle
 10
1527.587738
 20
658.999084
 30
0.0
 40
9.899473
100
AcDbArc
 50
280.801248
 51
308.624315
  0
ARC
  5
681
100
AcDbEntity
  8
スト－ル
  6
CONTINUOUS
 62
     2
100
AcDbCircle
 10
1527.587738
 20
658.999084
 30
0.0
 40
11.458555
100
AcDbArc
 50
288.180944
 51
300.419388
  0
ARC
  5
682
100
AcDbEntity
  8
スト－ル
  6
CONTINUOUS
 62
     2
100
AcDbCircle
 10
1522.998143
 20
749.962062
 30
0.0
 40
5.0
100
AcDbArc
 50
354.454683
 51
60.059982
  0
ARC
  5
683
100
AcDbEntity
  8
スト－ル
  6
CONTINUOUS
 62
     2
100
AcDbCircle
 10
1506.114261
 20
759.686423
 30
0.0
 40
5.0
100
AcDbArc
 50
60.059982
 51
90.0
  0
LINE
  5
684
100
AcDbEntity
  8
スト－ル
  6
CONTINUOUS
 62
     2
100
AcDbLine
 10
1508.609727
 20
764.019165
 30
0.0
 11
1525.493609
 21
754.294804
 31
0.0
  0
LINE
  5
685
100
AcDbEntity
  8
スト－ル
  6
CONTINUOUS
 62
     2
100
AcDbLine
 10
1527.974744
 20
749.478897
 30
0.0
 11
1519.451203
 21
661.686423
 31
0.0
  0
LINE
  5
686
100
AcDbEntity
  8
スト－ル
  6
CONTINUOUS
 62
     2
100
AcDbLine
 10
1503.451203
 20
764.686423
 30
0.0
 11
1506.114261
 21
764.686423
 31
0.0
  0
ARC
  5
687
100
AcDbEntity
  8
スト－ル
  6
CONTINUOUS
 62
     2
100
AcDbCircle
 10
1503.451203
 20
768.686423
 30
0.0
 40
4.0
100
AcDbArc
 50
180.0
 51
270.0
  0
CIRCLE
  5
688
100
AcDbEntity
  8
スト－ル
  6
CONTINUOUS
 62
     2
100
AcDbCircle
 10
1597.451203
 20
761.686423
 30
0.0
 40
3.5
  0
ARC
  5
689
100
AcDbEntity
  8
スト－ル
  6
CONTINUOUS
 62
     2
100
AcDbCircle
 10
1603.70744
 20
766.686423
 30
0.0
 40
5.0
100
AcDbArc
 50
3.012788
 51
90.0
  0
LINE
  5
68A
100
AcDbEntity
  8
スト－ル
  6
CONTINUOUS
 62
     2
100
AcDbLine
 10
1608.700529
 20
766.949217
 30
0.0
 11
1609.301607
 21
755.528747
 31
0.0
  0
ARC
  5
68B
100
AcDbEntity
  8
スト－ル
  6
CONTINUOUS
 62
     2
100
AcDbCircle
 10
1612.29746
 20
755.686423
 30
0.0
 40
3.0
100
AcDbArc
 50
183.012788
 51
270.0
  0
ARC
  5
68C
100
AcDbEntity
  8
スト－ル
  6
CONTINUOUS
 62
     2
100
AcDbCircle
 10
1674.451203
 20
765.686423
 30
0.0
 40
5.0
100
AcDbArc
 50
0.0
 51
88.989003
  0
ARC
  5
68D
100
AcDbEntity
  8
スト－ル
  6
CONTINUOUS
 62
     2
100
AcDbCircle
 10
1504.451203
 20
768.686423
 30
0.0
 40
5.0
100
AcDbArc
 50
88.989003
 51
180.0
  0
LINE
  5
68E
100
AcDbEntity
  8
スト－ル
  6
CONTINUOUS
 62
     2
100
AcDbLine
 10
1633.963084
 20
752.686423
 30
0.0
 11
1612.29746
 21
752.686423
 31
0.0
  0
ARC
  5
68F
100
AcDbEntity
  8
スト－ル
  6
CONTINUOUS
 62
     2
100
AcDbCircle
 10
1670.021579
 20
765.764593
 30
0.0
 40
5.0
100
AcDbArc
 50
88.989003
 51
143.254412
  0
ARC
  5
690
100
AcDbEntity
  8
スト－ル
  6
CONTINUOUS
 62
     2
100
AcDbCircle
 10
1633.963084
 20
792.686423
 30
0.0
 40
40.0
100
AcDbArc
 50
270.0
 51
323.254412
  0
LINE
  5
691
100
AcDbEntity
  8
スト－ル
  6
CONTINUOUS
 62
     2
100
AcDbLine
 10
1623.172061
 20
742.686423
 30
0.0
 11
1633.963084
 21
742.686423
 31
0.0
  0
LINE
  5
692
100
AcDbEntity
  8
スト－ル
  6
CONTINUOUS
 62
     2
100
AcDbLine
 10
1621.182983
 20
740.477693
 30
0.0
 11
1629.451203
 21
661.686423
 31
0.0
  0
ARC
  5
693
100
AcDbEntity
  8
スト－ル
  6
CONTINUOUS
 62
     2
100
AcDbCircle
 10
1623.172061
 20
740.686423
 30
0.0
 40
2.0
100
AcDbArc
 50
90.0
 51
185.990595
  0
LINE
  5
694
100
AcDbEntity
  8
スト－ル
  6
CONTINUOUS
 62
     2
100
AcDbLine
 10
1623.951203
 20
752.686423
 30
0.0
 11
1623.951203
 21
742.686423
 31
0.0
  0
LINE
  5
695
100
AcDbEntity
  8
スト－ル
  6
CONTINUOUS
 62
     2
100
AcDbLine
 10
1634.951203
 20
752.686423
 30
0.0
 11
1634.951203
 21
742.696188
 31
0.0
  0
ARC
  5
696
100
AcDbEntity
  8
スト－ル
  6
CONTINUOUS
 62
     2
100
AcDbCircle
 10
1673.093685
 20
747.202403
 30
0.0
 40
10.0
100
AcDbArc
 50
116.717318
 51
130.705916
  0
LINE
  5
697
100
AcDbEntity
  8
スト－ル
  6
CONTINUOUS
 62
     2
100
AcDbLine
 10
1668.597795
 20
756.134759
 30
0.0
 11
1677.249559
 21
760.489419
 31
0.0
  0
LINE
  5
698
100
AcDbEntity
  8
スト－ル
  6
CONTINUOUS
 62
     2
100
AcDbLine
 10
1679.451203
 20
765.686423
 30
0.0
 11
1679.451203
 21
764.062362
 31
0.0
  0
ARC
  5
699
100
AcDbEntity
  8
スト－ル
  6
CONTINUOUS
 62
     2
100
AcDbCircle
 10
1675.451203
 20
764.062362
 30
0.0
 40
4.0
100
AcDbArc
 50
296.717318
 51
0.0
  0
ARC
  5
69A
100
AcDbEntity
  8
スト－ル
  6
CONTINUOUS
 62
     2
100
AcDbCircle
 10
1633.963084
 20
792.686423
 30
0.0
 40
50.0
100
AcDbArc
 50
270.0
 51
310.705916
  0
ARC
  5
69B
100
AcDbEntity
  8
スト－ル
  6
CONTINUOUS
 62
     2
100
AcDbCircle
 10
1516.696785
 20
273.393254
 30
0.0
 40
490.0
100
AcDbArc
 50
86.256609
 51
87.018014
  0
LINE
  5
69C
100
AcDbEntity
  8
スト－ル
  6
CONTINUOUS
 62
     2
100
AcDbLine
 10
1539.045533
 20
760.023726
 30
0.0
 11
1529.498222
 21
661.686423
 31
0.0
  0
ARC
  5
69D
100
AcDbEntity
  8
スト－ル
  6
CONTINUOUS
 62
     2
100
AcDbCircle
 10
1542.031493
 20
759.733827
 30
0.0
 40
3.0
100
AcDbArc
 50
87.018014
 51
174.454683
  0
ARC
  5
69E
100
AcDbEntity
  8
スト－ル
  6
CONTINUOUS
 62
     2
100
AcDbCircle
 10
1536.467839
 20
672.904337
 30
0.0
 40
90.0
100
AcDbArc
 50
61.77184
 51
87.166851
  0
ARC
  5
69F
100
AcDbEntity
  8
スト－ル
  6
CONTINUOUS
 62
     2
100
AcDbCircle
 10
1603.117605
 20
751.108527
 30
0.0
 40
2.0
100
AcDbArc
 50
5.557935
 51
118.177212
  0
ARC
  5
6A0
100
AcDbEntity
  8
スト－ル
  6
CONTINUOUS
 62
     2
100
AcDbCircle
 10
1597.451203
 20
761.686423
 30
0.0
 40
10.0
100
AcDbArc
 50
205.127527
 51
298.177212
  0
LINE
  5
6A1
100
AcDbEntity
  8
スト－ル
  6
CONTINUOUS
 62
     2
100
AcDbLine
 10
1542.006877
 20
762.733726
 30
0.0
 11
1585.925024
 21
759.156272
 31
0.0
  0
ARC
  5
6A2
100
AcDbEntity
  8
スト－ル
  6
CONTINUOUS
 62
     2
100
AcDbCircle
 10
1585.681459
 20
756.166175
 30
0.0
 40
3.0
100
AcDbArc
 50
25.127527
 51
85.343121
  0
LINE
  5
6A3
100
AcDbEntity
  8
スト－ル
  6
CONTINUOUS
 62
     2
100
AcDbLine
 10
1611.129953
 20
740.459778
 30
0.0
 11
1619.396293
 21
661.686423
 31
0.0
  0
ARC
  5
6A4
100
AcDbEntity
  8
スト－ル
  6
CONTINUOUS
 62
     2
100
AcDbCircle
 10
1616.875095
 20
822.686423
 30
0.0
 40
80.0
100
AcDbArc
 50
241.77184
 51
263.963283
  0
ARC
  5
6A5
100
AcDbEntity
  8
スト－ル
  6
CONTINUOUS
 62
     2
100
AcDbCircle
 10
1608.146336
 20
740.146682
 30
0.0
 40
3.0
100
AcDbArc
 50
5.990595
 51
83.963283
  0
ARC
  5
6A6
100
AcDbEntity
  8
スト－ル
  6
CONTINUOUS
 62
     2
100
AcDbCircle
 10
1610.472522
 20
747.801019
 30
0.0
 40
5.0
100
AcDbArc
 50
185.557935
 51
253.09575
  0
LINE
  5
6A7
100
AcDbEntity
  8
スト－ル
  6
CONTINUOUS
 62
     2
100
AcDbLine
 10
1605.496028
 20
747.316758
 30
0.0
 11
1605.108203
 21
751.302231
 31
0.0
  0
LINE
  5
6A8
100
AcDbEntity
  8
スト－ル
  6
CONTINUOUS
 62
     7
100
AcDbLine
 10
1519.451203
 20
661.686423
 30
0.0
 11
1532.746648
 21
661.686423
 31
0.0
  0
LINE
  5
6A9
100
AcDbEntity
  8
スト－ル
  6
CONTINUOUS
 62
     7
100
AcDbLine
 10
1594.874078
 20
661.686423
 30
0.0
 11
1639.451203
 21
661.686423
 31
0.0
  0
LINE
  5
6AA
100
AcDbEntity
  8
スト－ル
  6
CONTINUOUS
 62
     7
100
AcDbLine
 10
1642.502601
 20
707.303346
 30
0.0
 11
1639.451203
 21
661.686423
 31
0.0
  0
ARC
  5
6AB
100
AcDbEntity
  8
スト－ル
  6
CONTINUOUS
 62
     7
100
AcDbCircle
 10
1692.391112
 20
703.966214
 30
0.0
 40
50.0
100
AcDbArc
 50
144.008076
 51
176.173083
  0
LINE
  5
6AC
100
AcDbEntity
  8
スト－ル
  6
CONTINUOUS
 62
     7
100
AcDbLine
 10
1668.41813
 20
756.042041
 30
0.0
 11
1651.93612
 21
733.349775
 31
0.0
  0
LINE
  5
6AD
100
AcDbEntity
  8
スト－ル
  6
CONTINUOUS
 62
     2
100
AcDbLine
 10
1504.539424
 20
773.685645
 30
0.0
 11
1603.711836
 21
771.935543
 31
0.0
  0
LINE
  5
6AE
100
AcDbEntity
  8
スト－ル
  6
CONTINUOUS
 62
     2
100
AcDbLine
 10
1670.1098
 20
770.763815
 30
0.0
 11
1674.539424
 21
770.685645
 31
0.0
  0
LINE
  5
6AF
100
AcDbEntity
  8
スト－ル
  6
CONTINUOUS
 62
     7
100
AcDbLine
 10
1603.711836
 20
771.935543
 30
0.0
 11
1670.1098
 21
770.763815
 31
0.0
  0
LINE
  5
6B0
100
AcDbEntity
  8
スト－ル
  6
CONTINUOUS
 62
     6
100
AcDbLine
 10
1530.402364
 20
670.999084
 30
0.0
 11
1533.337982
 21
670.999084
 31
0.0
  0
LINE
  5
6B1
100
AcDbEntity
  8
スト－ル
  6
CONTINUOUS
 62
     6
100
AcDbLine
 10
1532.344111
 20
690.999084
 30
0.0
 11
1534.436859
 21
690.999084
 31
0.0
  0
LINE
  5
6B2
100
AcDbEntity
  8
スト－ル
  6
CONTINUOUS
 62
     6
100
AcDbLine
 10
1614.16806
 20
670.999084
 30
0.0
 11
1618.419039
 21
670.999084
 31
0.0
  0
LINE
  5
6B3
100
AcDbEntity
  8
スト－ル
  6
CONTINUOUS
 62
     6
100
AcDbLine
 10
1613.484832
 20
690.999084
 30
0.0
 11
1616.320273
 21
690.999084
 31
0.0
  0
LINE
  5
6B4
100
AcDbEntity
  8
スト－ル
  6
CONTINUOUS
 62
     6
100
AcDbLine
 10
1610.752044
 20
705.999084
 30
0.0
 11
1614.746199
 21
705.999084
 31
0.0
  0
LINE
  5
6B5
100
AcDbEntity
  8
スト－ル
  6
CONTINUOUS
 62
     6
100
AcDbLine
 10
1637.80307
 20
705.999084
 30
0.0
 11
1645.595794
 21
705.999084
 31
0.0
  0
LINE
  5
6B6
100
AcDbEntity
  8
スト－ル
  6
CONTINUOUS
 62
     6
100
AcDbLine
 10
1640.308197
 20
690.999084
 30
0.0
 11
1646.051361
 21
690.999084
 31
0.0
  0
LINE
  5
6B7
100
AcDbEntity
  8
スト－ル
  6
CONTINUOUS
 62
     6
100
AcDbLine
 10
1519.886423
 20
661.686423
 30
0.0
 11
1530.531749
 21
672.331749
 31
0.0
  0
LINE
  5
6B8
100
AcDbEntity
  8
スト－ル
  6
CONTINUOUS
 62
     6
100
AcDbLine
 10
1520.925064
 20
676.8672
 30
0.0
 11
1532.052408
 21
687.994544
 31
0.0
  0
LINE
  5
6B9
100
AcDbEntity
  8
スト－ル
  6
CONTINUOUS
 62
     6
100
AcDbLine
 10
1522.445724
 20
692.529995
 30
0.0
 11
1533.573068
 21
703.657339
 31
0.0
  0
LINE
  5
6BA
100
AcDbEntity
  8
スト－ル
  6
CONTINUOUS
 62
     6
100
AcDbLine
 10
1509.065277
 20
715.999084
 30
0.0
 11
1524.724276
 21
715.999084
 31
0.0
  0
LINE
  5
6BB
100
AcDbEntity
  8
スト－ル
  6
CONTINUOUS
 62
     6
100
AcDbLine
 10
1523.966384
 20
708.192791
 30
0.0
 11
1535.093728
 21
719.320135
 31
0.0
  0
LINE
  5
6BC
100
AcDbEntity
  8
スト－ル
  6
CONTINUOUS
 62
     6
100
AcDbLine
 10
1525.487044
 20
723.855586
 30
0.0
 11
1536.614388
 21
734.98293
 31
0.0
  0
LINE
  5
6BD
100
AcDbEntity
  8
スト－ル
  6
CONTINUOUS
 62
     6
100
AcDbLine
 10
1527.007703
 20
739.518382
 30
0.0
 11
1538.135047
 21
750.645725
 31
0.0
  0
LINE
  5
6BE
100
AcDbEntity
  8
スト－ル
  6
CONTINUOUS
 62
     6
100
AcDbLine
 10
1508.909452
 20
763.846537
 30
0.0
 11
1518.502158
 21
773.439243
 31
0.0
  0
LINE
  5
6BF
100
AcDbEntity
  8
スト－ル
  6
CONTINUOUS
 62
     6
100
AcDbLine
 10
1517.883143
 20
758.678092
 30
0.0
 11
1532.399055
 21
773.194004
 31
0.0
  0
LINE
  5
6C0
100
AcDbEntity
  8
スト－ル
  6
CONTINUOUS
 62
     6
100
AcDbLine
 10
1526.685806
 20
753.33862
 30
0.0
 11
1546.295951
 21
772.948765
 31
0.0
  0
LINE
  5
6C1
100
AcDbEntity
  8
スト－ル
  6
CONTINUOUS
 62
     6
100
AcDbLine
 10
1549.604191
 20
762.114869
 30
0.0
 11
1560.192847
 21
772.703525
 31
0.0
  0
LINE
  5
6C2
100
AcDbEntity
  8
スト－ル
  6
CONTINUOUS
 62
     6
100
AcDbLine
 10
1562.681116
 20
761.049658
 30
0.0
 11
1574.089744
 21
772.458286
 31
0.0
  0
LINE
  5
6C3
100
AcDbEntity
  8
スト－ル
  6
CONTINUOUS
 62
     6
100
AcDbLine
 10
1575.75804
 20
759.984447
 30
0.0
 11
1587.98664
 21
772.213047
 31
0.0
  0
LINE
  5
6C4
100
AcDbEntity
  8
スト－ル
  6
CONTINUOUS
 62
     6
100
AcDbLine
 10
1587.993532
 20
758.077803
 30
0.0
 11
1601.883536
 21
771.967807
 31
0.0
  0
LINE
  5
6C5
100
AcDbEntity
  8
スト－ル
  6
CONTINUOUS
 62
     6
100
AcDbLine
 10
1595.870077
 20
751.812212
 30
0.0
 11
1608.815857
 21
764.757992
 31
0.0
  0
LINE
  5
6C6
100
AcDbEntity
  8
スト－ル
  6
CONTINUOUS
 62
     6
100
AcDbLine
 10
1605.497899
 20
747.297899
 30
0.0
 11
1611.125015
 21
752.925015
 31
0.0
  0
LINE
  5
6C7
100
AcDbEntity
  8
スト－ル
  6
CONTINUOUS
 62
     6
100
AcDbLine
 10
1591.822996
 20
715.999084
 30
0.0
 11
1613.696816
 21
715.999084
 31
0.0
  0
LINE
  5
6C8
100
AcDbEntity
  8
スト－ル
  6
CONTINUOUS
 62
     6
100
AcDbLine
 10
1623.751726
 20
715.999084
 30
0.0
 11
1668.598968
 21
715.999084
 31
0.0
  0
LINE
  5
6C9
100
AcDbEntity
  8
スト－ル
  6
CONTINUOUS
 62
     6
100
AcDbLine
 10
1619.34739
 20
662.152441
 30
0.0
 11
1628.447364
 21
671.252415
 31
0.0
  0
LINE
  5
6CA
100
AcDbEntity
  8
スト－ル
  6
CONTINUOUS
 62
     6
100
AcDbLine
 10
1618.004282
 20
674.951468
 30
0.0
 11
1627.104256
 21
684.051442
 31
0.0
  0
LINE
  5
6CB
100
AcDbEntity
  8
スト－ル
  6
CONTINUOUS
 62
     6
100
AcDbLine
 10
1616.661174
 20
687.750496
 30
0.0
 11
1625.761148
 21
696.85047
 31
0.0
  0
LINE
  5
6CC
100
AcDbEntity
  8
スト－ル
  6
CONTINUOUS
 62
     6
100
AcDbLine
 10
1615.318066
 20
700.549524
 30
0.0
 11
1624.41804
 21
709.649498
 31
0.0
  0
LINE
  5
6CD
100
AcDbEntity
  8
スト－ル
  6
CONTINUOUS
 62
     6
100
AcDbLine
 10
1613.974959
 20
713.348552
 30
0.0
 11
1623.074933
 21
722.448526
 31
0.0
  0
LINE
  5
6CE
100
AcDbEntity
  8
スト－ル
  6
CONTINUOUS
 62
     6
100
AcDbLine
 10
1611.288743
 20
738.946607
 30
0.0
 11
1623.951203
 21
751.609067
 31
0.0
  0
LINE
  5
6CF
100
AcDbEntity
  8
スト－ル
  6
CONTINUOUS
 62
     6
100
AcDbLine
 10
1644.418126
 20
743.791719
 30
0.0
 11
1671.368018
 21
770.741611
 31
0.0
  0
LINE
  5
6D0
100
AcDbEntity
  8
スト－ル
  6
CONTINUOUS
 62
     6
100
AcDbLine
 10
1612.631851
 20
726.14758
 30
0.0
 11
1621.731825
 21
735.247553
 31
0.0
  0
LINE
  5
6D1
100
AcDbEntity
  8
スト－ル
  6
CONTINUOUS
 62
     6
100
AcDbLine
 10
1634.951203
 20
748.466931
 30
0.0
 11
1639.564889
 21
753.080618
 31
0.0
  0
LINE
  5
6D2
100
AcDbEntity
  8
スト－ル
  6
CONTINUOUS
 62
     3
100
AcDbLine
 10
1563.810547
 20
470.0
 30
0.0
 11
1563.810547
 21
518.000153
 31
0.0
  0
LINE
  5
6D3
100
AcDbEntity
  8
スト－ル
  6
EXLTYPE3
 62
     1
100
AcDbLine
 10
1563.810547
 20
518.000153
 30
0.0
 11
1563.810547
 21
735.222717
 31
0.0
  0
LEADER
  5
6D4
100
AcDbEntity
  8
フラッシュバルブ
  6
CONTINUOUS
 62
     6
100
AcDbLeader
  3
STANDARD
 73
     3
 74
     1
 75
     0
 40
0.0
 76
     2
 10
1687.810486
 20
1714.311523
 30
0.0
 10
1598.331268
 20
1765.972443
 30
0.0
 77
     6
1001
ACAD
1000
DSTYLE
1002
{
1070
    41
1040
35.0
1070
     5
1000
_EX_NORM
1070
     6
1000
_EX_NORM
1070
     7
1000
_EX_NORM
1070
   341
1005
2A
1002
}
  0
POLYLINE
  5
6D5
100
AcDbEntity
  8
フラッシュバルブ
  6
CONTINUOUS
 62
     6
100
AcDb2dPolyline
 66
     1
 10
0.0
 20
0.0
 30
0.0
 70
   128
  0
VERTEX
  5
6D6
100
AcDbEntity
  8
フラッシュバルブ
  6
CONTINUOUS
 62
     6
100
AcDbVertex
100
AcDb2dVertex
 10
1787.378509
 20
1711.500549
 30
0.0
  0
VERTEX
  5
6D7
100
AcDbEntity
  8
フラッシュバルブ
  6
CONTINUOUS
 62
     6
100
AcDbVertex
100
AcDb2dVertex
 10
1815.31842
 20
1759.893951
 30
0.0
  0
SEQEND
  5
6D8
100
AcDbEntity
  8
フラッシュバルブ
  6
CONTINUOUS
 62
     6
  0
LINE
  5
6D9
100
AcDbEntity
  8
フラッシュバルブ
  6
CONTINUOUS
 62
     6
100
AcDbLine
 10
1799.826678
 20
1744.728111
 30
0.0
 11
1787.378509
 21
1711.500549
 31
0.0
  0
LINE
  5
6DA
100
AcDbEntity
  8
フラッシュバルブ
  6
CONTINUOUS
 62
     6
100
AcDbLine
 10
1787.378509
 20
1711.500549
 30
0.0
 11
1809.93031
 21
1738.894783
 31
0.0
  0
LINE
  5
6DB
100
AcDbEntity
  8
フラッシュバルブ
  6
CONTINUOUS
 62
     6
100
AcDbLine
 10
615.72251
 20
2677.99988
 30
0.0
 11
634.27749
 21
2677.99988
 31
0.0
  0
LINE
  5
6DC
100
AcDbEntity
  8
フラッシュバルブ
  6
CONTINUOUS
 62
     6
100
AcDbLine
 10
615.68451
 20
2664.00001
 30
0.0
 11
615.68451
 21
2677.96186
 31
0.0
  0
LINE
  5
6DD
100
AcDbEntity
  8
フラッシュバルブ
  6
CONTINUOUS
 62
     6
100
AcDbLine
 10
614.52251
 20
2676.79987
 30
0.0
 11
615.72251
 21
2677.99988
 31
0.0
  0
LINE
  5
6DE
100
AcDbEntity
  8
フラッシュバルブ
  6
CONTINUOUS
 62
     6
100
AcDbLine
 10
634.27749
 20
2677.99988
 30
0.0
 11
635.4775
 21
2676.79987
 31
0.0
  0
LINE
  5
6DF
100
AcDbEntity
  8
フラッシュバルブ
  6
CONTINUOUS
 62
     6
100
AcDbLine
 10
634.31551
 20
2663.99999
 30
0.0
 11
634.31551
 21
2677.96186
 31
0.0
  0
LINE
  5
6E0
100
AcDbEntity
  8
フラッシュバルブ
  6
CONTINUOUS
 62
     6
100
AcDbLine
 10
614.52251
 20
2676.79987
 30
0.0
 11
635.4775
 21
2676.79987
 31
0.0
  0
LINE
  5
6E1
100
AcDbEntity
  8
フラッシュバルブ
  6
CONTINUOUS
 62
     6
100
AcDbLine
 10
635.4775
 20
2652.1232
 30
0.0
 11
635.4775
 21
2654.49988
 31
0.0
  0
LINE
  5
6E2
100
AcDbEntity
  8
フラッシュバルブ
  6
CONTINUOUS
 62
     6
100
AcDbLine
 10
601.25001
 20
2660.60129
 30
0.0
 11
601.25001
 21
2664.0
 31
0.0
  0
LINE
  5
6E3
100
AcDbEntity
  8
フラッシュバルブ
  6
CONTINUOUS
 62
     6
100
AcDbLine
 10
602.34819
 20
2659.49988
 30
0.0
 11
647.65184
 21
2659.49988
 31
0.0
  0
LINE
  5
6E4
100
AcDbEntity
  8
フラッシュバルブ
  6
CONTINUOUS
 62
     6
100
AcDbLine
 10
648.75001
 20
2660.60129
 30
0.0
 11
648.75001
 21
2664.0
 31
0.0
  0
LINE
  5
6E5
100
AcDbEntity
  8
フラッシュバルブ
  6
CONTINUOUS
 62
     6
100
AcDbLine
 10
610.48007
 20
2654.49988
 30
0.0
 11
639.51997
 21
2654.49988
 31
0.0
  0
LINE
  5
6E6
100
AcDbEntity
  8
フラッシュバルブ
  6
CONTINUOUS
 62
     6
100
AcDbLine
 10
614.52251
 20
2676.79987
 30
0.0
 11
614.52251
 21
2664.00002
 31
0.0
  0
LINE
  5
6E7
100
AcDbEntity
  8
フラッシュバルブ
  6
CONTINUOUS
 62
     6
100
AcDbLine
 10
609.5
 20
2552.49985
 30
0.0
 11
640.5
 21
2552.49985
 31
0.0
  0
LINE
  5
6E8
100
AcDbEntity
  8
フラッシュバルブ
  6
CONTINUOUS
 62
     6
100
AcDbLine
 10
609.5
 20
2562.49985
 30
0.0
 11
640.5
 21
2562.49985
 31
0.0
  0
LINE
  5
6E9
100
AcDbEntity
  8
フラッシュバルブ
  6
CONTINUOUS
 62
     6
100
AcDbLine
 10
631.5
 20
2545.99985
 30
0.0
 11
618.5
 21
2545.99985
 31
0.0
  0
LINE
  5
6EA
100
AcDbEntity
  8
フラッシュバルブ
  6
CONTINUOUS
 62
     6
100
AcDbLine
 10
616.0
 20
2540.99985
 30
0.0
 11
634.0
 21
2540.99985
 31
0.0
  0
LINE
  5
6EB
100
AcDbEntity
  8
フラッシュバルブ
  6
CONTINUOUS
 62
     6
100
AcDbLine
 10
619.5
 20
2540.99985
 30
0.0
 11
619.5
 21
2545.99985
 31
0.0
  0
LINE
  5
6EC
100
AcDbEntity
  8
フラッシュバルブ
  6
CONTINUOUS
 62
     6
100
AcDbLine
 10
630.5
 20
2540.99985
 30
0.0
 11
630.5
 21
2545.99985
 31
0.0
  0
LINE
  5
6ED
100
AcDbEntity
  8
フラッシュバルブ
  6
CONTINUOUS
 62
     6
100
AcDbLine
 10
634.0
 20
2537.99985
 30
0.0
 11
616.0
 21
2537.99985
 31
0.0
  0
LINE
  5
6EE
100
AcDbEntity
  8
フラッシュバルブ
  6
CONTINUOUS
 62
     6
100
AcDbLine
 10
633.5
 20
2547.99985
 30
0.0
 11
633.5
 21
2552.49985
 31
0.0
  0
LINE
  5
6EF
100
AcDbEntity
  8
フラッシュバルブ
  6
CONTINUOUS
 62
     6
100
AcDbLine
 10
616.5
 20
2547.99985
 30
0.0
 11
616.5
 21
2552.49985
 31
0.0
  0
LINE
  5
6F0
100
AcDbEntity
  8
フラッシュバルブ
  6
CONTINUOUS
 62
     6
100
AcDbLine
 10
636.50001
 20
2615.568179
 30
0.0
 11
636.50001
 21
2609.99985
 31
0.0
  0
LINE
  5
6F1
100
AcDbEntity
  8
フラッシュバルブ
  6
CONTINUOUS
 62
     6
100
AcDbLine
 10
611.0
 20
2565.27982
 30
0.0
 11
611.739
 21
2563.99985
 31
0.0
  0
LINE
  5
6F2
100
AcDbEntity
  8
フラッシュバルブ
  6
CONTINUOUS
 62
     6
100
AcDbLine
 10
611.739
 20
2563.99985
 30
0.0
 11
611.739
 21
2562.49985
 31
0.0
  0
LINE
  5
6F3
100
AcDbEntity
  8
フラッシュバルブ
  6
CONTINUOUS
 62
     6
100
AcDbLine
 10
639.0
 20
2565.27982
 30
0.0
 11
638.261
 21
2563.99985
 31
0.0
  0
LINE
  5
6F4
100
AcDbEntity
  8
フラッシュバルブ
  6
CONTINUOUS
 62
     6
100
AcDbLine
 10
610.96868
 20
2563.99985
 30
0.0
 11
639.0
 21
2563.99985
 31
0.0
  0
LINE
  5
6F5
100
AcDbEntity
  8
フラッシュバルブ
  6
CONTINUOUS
 62
     6
100
AcDbLine
 10
638.261
 20
2563.99985
 30
0.0
 11
638.261
 21
2562.49985
 31
0.0
  0
LINE
  5
6F6
100
AcDbEntity
  8
フラッシュバルブ
  6
CONTINUOUS
 62
     6
100
AcDbLine
 10
639.0
 20
2562.49985
 30
0.0
 11
639.0
 21
2570.125264
 31
0.0
  0
LINE
  5
6F7
100
AcDbEntity
  8
フラッシュバルブ
  6
CONTINUOUS
 62
     6
100
AcDbLine
 10
635.47751
 20
2652.98725
 30
0.0
 11
634.60419
 21
2654.49988
 31
0.0
  0
LINE
  5
6F8
100
AcDbEntity
  8
フラッシュバルブ
  6
CONTINUOUS
 62
     6
100
AcDbLine
 10
635.4775
 20
2663.99999
 30
0.0
 11
635.4775
 21
2676.79987
 31
0.0
  0
ARC
  5
6F9
100
AcDbEntity
  8
フラッシュバルブ
  6
CONTINUOUS
 62
     6
100
AcDbCircle
 10
598.00001
 20
2631.99985
 30
0.0
 40
40.5
100
AcDbArc
 50
346.1206
 51
17.0839
  0
ARC
  5
6FA
100
AcDbEntity
  8
フラッシュバルブ
  6
CONTINUOUS
 62
     6
100
AcDbCircle
 10
664.50001
 20
2615.568179
 30
0.0
 40
28.0
100
AcDbArc
 50
166.12064
 51
180.0
  0
ARC
  5
6FB
100
AcDbEntity
  8
フラッシュバルブ
  6
CONTINUOUS
 62
     6
100
AcDbCircle
 10
663.4775
 20
2652.12317
 30
0.0
 40
28.0
100
AcDbArc
 50
180.0
 51
197.0839
  0
ARC
  5
6FC
100
AcDbEntity
  8
フラッシュバルブ
  6
CONTINUOUS
 62
     6
100
AcDbCircle
 10
655.17588
 20
2743.71388
 30
0.0
 40
100.0
100
AcDbArc
 50
238.0043
 51
242.8656
  0
ARC
  5
6FD
100
AcDbEntity
  8
フラッシュバルブ
  6
CONTINUOUS
 62
     6
100
AcDbCircle
 10
603.25001
 20
2660.60129
 30
0.0
 40
2.0
100
AcDbArc
 50
180.0
 51
238.0043
  0
ARC
  5
6FE
100
AcDbEntity
  8
フラッシュバルブ
  6
CONTINUOUS
 62
     6
100
AcDbCircle
 10
594.82415
 20
2743.71388
 30
0.0
 40
100.0
100
AcDbArc
 50
297.1344
 51
301.9957
  0
ARC
  5
6FF
100
AcDbEntity
  8
フラッシュバルブ
  6
CONTINUOUS
 62
     6
100
AcDbCircle
 10
646.75001
 20
2660.60129
 30
0.0
 40
2.0
100
AcDbArc
 50
301.9957
 51
0.0
  0
ARC
  5
700
100
AcDbEntity
  8
フラッシュバルブ
  6
CONTINUOUS
 62
     6
100
AcDbCircle
 10
610.48007
 20
2656.49988
 30
0.0
 40
2.0
100
AcDbArc
 50
242.8656
 51
270.0
  0
ARC
  5
701
100
AcDbEntity
  8
フラッシュバルブ
  6
CONTINUOUS
 62
     6
100
AcDbCircle
 10
639.51995
 20
2656.49988
 30
0.0
 40
2.0
100
AcDbArc
 50
270.0007
 51
297.1344
  0
ARC
  5
702
100
AcDbEntity
  8
フラッシュバルブ
  6
CONTINUOUS
 62
     6
100
AcDbCircle
 10
621.296658
 20
2560.29984
 30
0.0
 40
2.0
100
AcDbArc
 50
0.0
 51
87.6201
  0
ARC
  5
703
100
AcDbEntity
  8
フラッシュバルブ
  6
CONTINUOUS
 62
     6
100
AcDbCircle
 10
621.296658
 20
2554.69986
 30
0.0
 40
2.0
100
AcDbArc
 50
272.3799
 51
0.0
  0
ARC
  5
704
100
AcDbEntity
  8
フラッシュバルブ
  6
CONTINUOUS
 62
     6
100
AcDbCircle
 10
634.0
 20
2539.49985
 30
0.0
 40
1.5
100
AcDbArc
 50
270.0
 51
90.0
  0
ARC
  5
705
100
AcDbEntity
  8
フラッシュバルブ
  6
CONTINUOUS
 62
     6
100
AcDbCircle
 10
616.0
 20
2539.49985
 30
0.0
 40
1.5
100
AcDbArc
 50
90.0
 51
270.0
  0
ARC
  5
706
100
AcDbEntity
  8
フラッシュバルブ
  6
CONTINUOUS
 62
     6
100
AcDbCircle
 10
631.5
 20
2547.99985
 30
0.0
 40
2.0
100
AcDbArc
 50
270.0
 51
0.0
  0
ARC
  5
707
100
AcDbEntity
  8
フラッシュバルブ
  6
CONTINUOUS
 62
     6
100
AcDbCircle
 10
618.5
 20
2547.99985
 30
0.0
 40
2.0
100
AcDbArc
 50
180.0
 51
270.0
  0
ARC
  5
708
100
AcDbEntity
  8
フラッシュバルブ
  6
CONTINUOUS
 62
     6
100
AcDbCircle
 10
613.203312
 20
2554.69986
 30
0.0
 40
2.0
100
AcDbArc
 50
180.0
 51
267.62
  0
ARC
  5
709
100
AcDbEntity
  8
フラッシュバルブ
  6
CONTINUOUS
 62
     6
100
AcDbCircle
 10
613.203312
 20
2560.29984
 30
0.0
 40
2.0
100
AcDbArc
 50
92.379883
 51
180.0
  0
LINE
  5
70A
100
AcDbEntity
  8
フラッシュバルブ
  6
CONTINUOUS
 62
     6
100
AcDbLine
 10
614.5225
 20
2652.1232
 30
0.0
 11
614.5225
 21
2654.49988
 31
0.0
  0
LINE
  5
70B
100
AcDbEntity
  8
フラッシュバルブ
  6
CONTINUOUS
 62
     6
100
AcDbLine
 10
614.52249
 20
2652.98725
 30
0.0
 11
615.39581
 21
2654.49988
 31
0.0
  0
ARC
  5
70C
100
AcDbEntity
  8
フラッシュバルブ
  6
CONTINUOUS
 62
     6
100
AcDbCircle
 10
610.48005
 20
2656.49988
 30
0.0
 40
2.0
100
AcDbArc
 50
242.8656
 51
269.9993
  0
LINE
  5
70D
100
AcDbEntity
  8
フラッシュバルブ
  6
CONTINUOUS
 62
     6
100
AcDbLine
 10
613.49999
 20
2615.568179
 30
0.0
 11
613.49999
 21
2609.99985
 31
0.0
  0
ARC
  5
70E
100
AcDbEntity
  8
フラッシュバルブ
  6
CONTINUOUS
 62
     6
100
AcDbCircle
 10
651.99999
 20
2631.99985
 30
0.0
 40
40.5
100
AcDbArc
 50
162.9161
 51
193.8794
  0
ARC
  5
70F
100
AcDbEntity
  8
フラッシュバルブ
  6
CONTINUOUS
 62
     6
100
AcDbCircle
 10
585.49999
 20
2615.568179
 30
0.0
 40
28.0
100
AcDbArc
 50
0.0
 51
13.87936
  0
ARC
  5
710
100
AcDbEntity
  8
フラッシュバルブ
  6
CONTINUOUS
 62
     6
100
AcDbCircle
 10
586.5225
 20
2652.12317
 30
0.0
 40
28.0
100
AcDbArc
 50
342.9161
 51
0.0
  0
CIRCLE
  5
711
100
AcDbEntity
  8
フラッシュバルブ
  6
CONTINUOUS
 62
     6
100
AcDbCircle
 10
625.0
 20
2631.999851
 30
0.0
 40
4.358896
  0
CIRCLE
  5
712
100
AcDbEntity
  8
フラッシュバルブ
  6
CONTINUOUS
 62
     6
100
AcDbCircle
 10
625.0
 20
2631.999851
 30
0.0
 40
7.499999
  0
LINE
  5
713
100
AcDbEntity
  8
フラッシュバルブ
  6
CONTINUOUS
 62
     6
100
AcDbLine
 10
635.499993
 20
2636.69028
 30
0.0
 11
635.499993
 21
2627.309422
 31
0.0
  0
LINE
  5
714
100
AcDbEntity
  8
フラッシュバルブ
  6
CONTINUOUS
 62
     6
100
AcDbLine
 10
626.187966
 20
2643.438326
 30
0.0
 11
634.312027
 21
2638.747897
 31
0.0
  0
LINE
  5
715
100
AcDbEntity
  8
フラッシュバルブ
  6
CONTINUOUS
 62
     6
100
AcDbLine
 10
615.687973
 20
2638.747897
 30
0.0
 11
623.812034
 21
2643.438326
 31
0.0
  0
LINE
  5
716
100
AcDbEntity
  8
フラッシュバルブ
  6
CONTINUOUS
 62
     6
100
AcDbLine
 10
614.500007
 20
2627.309422
 30
0.0
 11
614.500007
 21
2636.69028
 31
0.0
  0
LINE
  5
717
100
AcDbEntity
  8
フラッシュバルブ
  6
CONTINUOUS
 62
     6
100
AcDbLine
 10
623.812034
 20
2620.561376
 30
0.0
 11
615.687973
 21
2625.251805
 31
0.0
  0
LINE
  5
718
100
AcDbEntity
  8
フラッシュバルブ
  6
CONTINUOUS
 62
     6
100
AcDbLine
 10
634.312027
 20
2625.251805
 30
0.0
 11
626.187966
 21
2620.561376
 31
0.0
  0
ARC
  5
719
100
AcDbEntity
  8
フラッシュバルブ
  6
CONTINUOUS
 62
     6
100
AcDbCircle
 10
625.0
 20
2631.999851
 30
0.0
 40
11.499999
100
AcDbArc
 50
144.070689
 51
155.929311
  0
ARC
  5
71A
100
AcDbEntity
  8
フラッシュバルブ
  6
CONTINUOUS
 62
     6
100
AcDbCircle
 10
625.0
 20
2631.999851
 30
0.0
 40
11.499999
100
AcDbArc
 50
204.070689
 51
215.929311
  0
ARC
  5
71B
100
AcDbEntity
  8
フラッシュバルブ
  6
CONTINUOUS
 62
     6
100
AcDbCircle
 10
625.0
 20
2631.999851
 30
0.0
 40
11.499999
100
AcDbArc
 50
264.070689
 51
275.929311
  0
ARC
  5
71C
100
AcDbEntity
  8
フラッシュバルブ
  6
CONTINUOUS
 62
     6
100
AcDbCircle
 10
625.0
 20
2631.999851
 30
0.0
 40
11.499999
100
AcDbArc
 50
324.070689
 51
335.929311
  0
ARC
  5
71D
100
AcDbEntity
  8
フラッシュバルブ
  6
CONTINUOUS
 62
     6
100
AcDbCircle
 10
625.0
 20
2631.999851
 30
0.0
 40
11.499999
100
AcDbArc
 50
24.070689
 51
35.929311
  0
ARC
  5
71E
100
AcDbEntity
  8
フラッシュバルブ
  6
CONTINUOUS
 62
     6
100
AcDbCircle
 10
625.0
 20
2631.999851
 30
0.0
 40
11.499999
100
AcDbArc
 50
84.070689
 51
95.929311
  0
LINE
  5
71F
100
AcDbEntity
  8
フラッシュバルブ
  6
CONTINUOUS
 62
     6
100
AcDbLine
 10
620.69768
 20
2632.69986
 30
0.0
 11
629.30232
 21
2632.69986
 31
0.0
  0
LINE
  5
720
100
AcDbEntity
  8
フラッシュバルブ
  6
CONTINUOUS
 62
     6
100
AcDbLine
 10
620.69768
 20
2631.299842
 30
0.0
 11
629.30232
 21
2631.299842
 31
0.0
  0
CIRCLE
  5
721
100
AcDbEntity
  8
フラッシュバルブ
  6
CONTINUOUS
 62
     6
100
AcDbCircle
 10
625.0
 20
2588.99985
 30
0.0
 40
23.5
  0
CIRCLE
  5
722
100
AcDbEntity
  8
フラッシュバルブ
  6
CONTINUOUS
 62
     6
100
AcDbCircle
 10
625.0
 20
2588.99985
 30
0.0
 40
6.40002
  0
LINE
  5
723
100
AcDbEntity
  8
フラッシュバルブ
  6
CONTINUOUS
 62
     6
100
AcDbLine
 10
634.985609
 20
2594.15372
 30
0.0
 11
634.985609
 21
2583.84598
 31
0.0
  0
LINE
  5
724
100
AcDbEntity
  8
フラッシュバルブ
  6
CONTINUOUS
 62
     6
100
AcDbLine
 10
625.529422
 20
2600.224576
 30
0.0
 11
634.456187
 21
2595.070706
 31
0.0
  0
LINE
  5
725
100
AcDbEntity
  8
フラッシュバルブ
  6
CONTINUOUS
 62
     6
100
AcDbLine
 10
615.543813
 20
2595.070706
 30
0.0
 11
624.470578
 21
2600.224576
 31
0.0
  0
LINE
  5
726
100
AcDbEntity
  8
フラッシュバルブ
  6
CONTINUOUS
 62
     6
100
AcDbLine
 10
615.014391
 20
2583.84598
 30
0.0
 11
615.014391
 21
2594.15372
 31
0.0
  0
LINE
  5
727
100
AcDbEntity
  8
フラッシュバルブ
  6
CONTINUOUS
 62
     6
100
AcDbLine
 10
624.470578
 20
2577.775124
 30
0.0
 11
615.543813
 21
2582.928994
 31
0.0
  0
LINE
  5
728
100
AcDbEntity
  8
フラッシュバルブ
  6
CONTINUOUS
 62
     6
100
AcDbLine
 10
634.456187
 20
2582.928994
 30
0.0
 11
625.529422
 21
2577.775124
 31
0.0
  0
ARC
  5
729
100
AcDbEntity
  8
フラッシュバルブ
  6
CONTINUOUS
 62
     6
100
AcDbCircle
 10
625.0
 20
2588.99985
 30
0.0
 40
11.237204
100
AcDbArc
 50
87.299606
 51
92.700394
  0
ARC
  5
72A
100
AcDbEntity
  8
フラッシュバルブ
  6
CONTINUOUS
 62
     6
100
AcDbCircle
 10
625.0
 20
2588.99985
 30
0.0
 40
11.237204
100
AcDbArc
 50
147.299606
 51
152.700394
  0
ARC
  5
72B
100
AcDbEntity
  8
フラッシュバルブ
  6
CONTINUOUS
 62
     6
100
AcDbCircle
 10
625.0
 20
2588.99985
 30
0.0
 40
11.237204
100
AcDbArc
 50
207.299606
 51
212.700394
  0
ARC
  5
72C
100
AcDbEntity
  8
フラッシュバルブ
  6
CONTINUOUS
 62
     6
100
AcDbCircle
 10
625.0
 20
2588.99985
 30
0.0
 40
11.237204
100
AcDbArc
 50
267.299606
 51
272.700394
  0
ARC
  5
72D
100
AcDbEntity
  8
フラッシュバルブ
  6
CONTINUOUS
 62
     6
100
AcDbCircle
 10
625.0
 20
2588.99985
 30
0.0
 40
11.237204
100
AcDbArc
 50
327.299606
 51
332.700394
  0
ARC
  5
72E
100
AcDbEntity
  8
フラッシュバルブ
  6
CONTINUOUS
 62
     6
100
AcDbCircle
 10
625.0
 20
2588.99985
 30
0.0
 40
11.237204
100
AcDbArc
 50
27.299606
 51
32.700394
  0
CIRCLE
  5
72F
100
AcDbEntity
  8
フラッシュバルブ
  6
CONTINUOUS
 62
     6
100
AcDbCircle
 10
625.0
 20
2588.99985
 30
0.0
 40
8.5
  0
LINE
  5
730
100
AcDbEntity
  8
フラッシュバルブ
  6
CONTINUOUS
 62
     6
100
AcDbLine
 10
611.0
 20
2562.49985
 30
0.0
 11
611.0
 21
2570.125264
 31
0.0
  0
LINE
  5
731
100
AcDbEntity
  8
フラッシュバルブ
  6
CONTINUOUS
 62
     6
100
AcDbLine
 10
609.499984
 20
2552.69986
 30
0.0
 11
609.499984
 21
2562.29984
 31
0.0
  0
LINE
  5
732
100
AcDbEntity
  8
フラッシュバルブ
  6
CONTINUOUS
 62
     6
100
AcDbLine
 10
640.500016
 20
2552.69986
 30
0.0
 11
640.500016
 21
2562.29984
 31
0.0
  0
LINE
  5
733
100
AcDbEntity
  8
フラッシュバルブ
  6
CONTINUOUS
 62
     6
100
AcDbLine
 10
611.203312
 20
2560.29984
 30
0.0
 11
611.203312
 21
2554.69986
 31
0.0
  0
LINE
  5
734
100
AcDbEntity
  8
フラッシュバルブ
  6
CONTINUOUS
 62
     6
100
AcDbLine
 10
623.296658
 20
2560.29984
 30
0.0
 11
623.296658
 21
2554.69986
 31
0.0
  0
LINE
  5
735
100
AcDbEntity
  8
フラッシュバルブ
  6
CONTINUOUS
 62
     6
100
AcDbLine
 10
613.120262
 20
2562.298115
 30
0.0
 11
621.379709
 21
2562.298115
 31
0.0
  0
LINE
  5
736
100
AcDbEntity
  8
フラッシュバルブ
  6
CONTINUOUS
 62
     6
100
AcDbLine
 10
613.120258
 20
2552.701585
 30
0.0
 11
621.379709
 21
2552.701585
 31
0.0
  0
ARC
  5
737
100
AcDbEntity
  8
フラッシュバルブ
  6
CONTINUOUS
 62
     6
100
AcDbCircle
 10
636.796688
 20
2560.29984
 30
0.0
 40
2.0
100
AcDbArc
 50
0.0
 51
87.620117
  0
ARC
  5
738
100
AcDbEntity
  8
フラッシュバルブ
  6
CONTINUOUS
 62
     6
100
AcDbCircle
 10
628.703342
 20
2560.29984
 30
0.0
 40
2.0
100
AcDbArc
 50
92.3799
 51
180.0
  0
ARC
  5
739
100
AcDbEntity
  8
フラッシュバルブ
  6
CONTINUOUS
 62
     6
100
AcDbCircle
 10
636.796688
 20
2554.69986
 30
0.0
 40
2.0
100
AcDbArc
 50
272.38
 51
0.0
  0
ARC
  5
73A
100
AcDbEntity
  8
フラッシュバルブ
  6
CONTINUOUS
 62
     6
100
AcDbCircle
 10
628.703342
 20
2554.69986
 30
0.0
 40
2.0
100
AcDbArc
 50
180.0
 51
267.6201
  0
LINE
  5
73B
100
AcDbEntity
  8
フラッシュバルブ
  6
CONTINUOUS
 62
     6
100
AcDbLine
 10
638.796688
 20
2560.29984
 30
0.0
 11
638.796688
 21
2554.69986
 31
0.0
  0
LINE
  5
73C
100
AcDbEntity
  8
フラッシュバルブ
  6
CONTINUOUS
 62
     6
100
AcDbLine
 10
626.703342
 20
2560.29984
 30
0.0
 11
626.703342
 21
2554.69986
 31
0.0
  0
LINE
  5
73D
100
AcDbEntity
  8
フラッシュバルブ
  6
CONTINUOUS
 62
     6
100
AcDbLine
 10
636.879738
 20
2562.298115
 30
0.0
 11
628.620291
 21
2562.298115
 31
0.0
  0
LINE
  5
73E
100
AcDbEntity
  8
フラッシュバルブ
  6
CONTINUOUS
 62
     6
100
AcDbLine
 10
636.879742
 20
2552.701585
 30
0.0
 11
628.620291
 21
2552.701585
 31
0.0
  0
LINE
  5
73F
100
AcDbEntity
  8
フラッシュバルブ
  6
CONTINUOUS
 62
     6
100
AcDbLine
 10
618.650177
 20
2589.79985
 30
0.0
 11
631.349823
 21
2589.79985
 31
0.0
  0
LINE
  5
740
100
AcDbEntity
  8
フラッシュバルブ
  6
CONTINUOUS
 62
     6
100
AcDbLine
 10
618.650177
 20
2588.19985
 30
0.0
 11
631.349823
 21
2588.19985
 31
0.0
  0
LINE
  5
741
100
AcDbEntity
  8
フラッシュバルブ
  6
CONTINUOUS
 62
     6
100
AcDbLine
 10
582.5
 20
1701.000061
 30
0.0
 11
611.000061
 21
1701.000061
 31
0.0
  0
LINE
  5
742
100
AcDbEntity
  8
フラッシュバルブ
  6
CONTINUOUS
 62
     6
100
AcDbLine
 10
621.000061
 20
1701.000061
 30
0.0
 11
628.999939
 21
1701.000061
 31
0.0
  0
LINE
  5
743
100
AcDbEntity
  8
フラッシュバルブ
  6
CONTINUOUS
 62
     3
100
AcDbLine
 10
1708.810394
 20
1621.771729
 30
0.0
 11
1708.810394
 21
1880.454651
 31
0.0
  0
LINE
  5
744
100
AcDbEntity
  8
フラッシュバルブ
  6
CONTINUOUS
 62
     6
100
AcDbLine
 10
1708.810394
 20
1601.771698
 30
0.0
 11
1708.810394
 21
1609.771728
 31
0.0
  0
LINE
  5
745
100
AcDbEntity
  8
フラッシュバルブ
  6
CONTINUOUS
 62
     6
100
AcDbLine
 10
1708.810394
 20
1507.995758
 30
0.0
 11
1708.810394
 21
1591.771698
 31
0.0
  0
LINE
  5
746
100
AcDbEntity
  8
フラッシュバルブ
  6
CONTINUOUS
 62
     6
100
AcDbLine
 10
1005.0
 20
1701.000061
 30
0.0
 11
638.999939
 21
1701.000061
 31
0.0
  0
LINE
  5
747
100
AcDbEntity
  8
フラッシュバルブ
  6
CONTINUOUS
 62
     6
100
AcDbLine
 10
1815.31842
 20
1759.893951
 30
0.0
 11
1934.0
 21
1759.893951
 31
0.0
  0
TEXT
  5
748
100
AcDbEntity
  8
フラッシュバルブ
  6
CONTINUOUS
 62
     2
100
AcDbText
 10
1808.636841
 20
1763.394012
 30
0.0
 40
40.0
  1
ＰＪ
 41
0.861
  7
EXCADSTD
 72
     5
 11
1883.798041
 21
1763.394012
 31
0.0
100
AcDbText
  0
TEXT
  5
749
100
AcDbEntity
  8
フラッシュバルブ
  6
CONTINUOUS
 62
     6
100
AcDbText
 10
1884.522888
 20
1763.394012
 30
0.0
 40
40.0
  1
／ 
 41
0.9912
  7
EXCADSTD
 72
     5
 11
1922.282887
 21
1763.394012
 31
0.0
100
AcDbText
  0
TEXT
  5
74A
100
AcDbEntity
  8
フラッシュバルブ
  6
CONTINUOUS
 62
     2
100
AcDbText
 10
1875.312225
 20
1778.432465
 30
0.0
 40
25.0
  1
１
 41
0.9912
  7
EXCADSTD
 72
     5
 11
1898.912226
 21
1778.432465
 31
0.0
100
AcDbText
  0
TEXT
  5
74B
100
AcDbEntity
  8
フラッシュバルブ
  6
CONTINUOUS
 62
     2
100
AcDbText
 10
1910.720398
 20
1764.694824
 30
0.0
 40
25.0
  1
２
 41
0.9912
  7
EXCADSTD
 72
     5
 11
1934.320398
 21
1764.694824
 31
0.0
100
AcDbText
  0
LINE
  5
74C
100
AcDbEntity
  8
フラッシュバルブ
  6
CONTINUOUS
 62
     6
100
AcDbLine
 10
1817.810333
 20
1701.000061
 30
0.0
 11
1763.4
 21
1701.000061
 31
0.0
  0
LINE
  5
74D
100
AcDbEntity
  8
フラッシュバルブ
  6
CONTINUOUS
 62
     6
100
AcDbLine
 10
1751.4
 20
1701.000061
 30
0.0
 11
1743.4
 21
1701.000061
 31
0.0
  0
LINE
  5
74E
100
AcDbEntity
  8
フラッシュバルブ
  6
CONTINUOUS
 62
     6
100
AcDbLine
 10
616.5
 20
1746.000061
 30
0.0
 11
615.0
 21
1744.636461
 31
0.0
  0
LINE
  5
74F
100
AcDbEntity
  8
フラッシュバルブ
  6
CONTINUOUS
 62
     6
100
AcDbLine
 10
616.5
 20
1746.000061
 30
0.0
 11
633.5
 21
1746.000061
 31
0.0
  0
LINE
  5
750
100
AcDbEntity
  8
フラッシュバルブ
  6
CONTINUOUS
 62
     6
100
AcDbLine
 10
633.5
 20
1746.000061
 30
0.0
 11
635.0
 21
1744.636461
 31
0.0
  0
LINE
  5
751
100
AcDbEntity
  8
フラッシュバルブ
  6
CONTINUOUS
 62
     6
100
AcDbLine
 10
612.6237
 20
1732.364491
 30
0.0
 11
602.6881
 21
1730.252591
 31
0.0
  0
LINE
  5
752
100
AcDbEntity
  8
フラッシュバルブ
  6
CONTINUOUS
 62
     6
100
AcDbLine
 10
601.5
 20
1722.500061
 30
0.0
 11
601.5
 21
1728.785371
 31
0.0
  0
LINE
  5
753
100
AcDbEntity
  8
フラッシュバルブ
  6
CONTINUOUS
 62
     6
100
AcDbLine
 10
603.0
 20
1721.000061
 30
0.0
 11
647.0
 21
1721.000061
 31
0.0
  0
LINE
  5
754
100
AcDbEntity
  8
フラッシュバルブ
  6
CONTINUOUS
 62
     6
100
AcDbLine
 10
648.5
 20
1722.500061
 30
0.0
 11
648.5
 21
1728.785371
 31
0.0
  0
LINE
  5
755
100
AcDbEntity
  8
フラッシュバルブ
  6
CONTINUOUS
 62
     6
100
AcDbLine
 10
637.3763
 20
1732.364491
 30
0.0
 11
647.3119
 21
1730.252591
 31
0.0
  0
LINE
  5
756
100
AcDbEntity
  8
フラッシュバルブ
  6
CONTINUOUS
 62
     6
100
AcDbLine
 10
604.5
 20
1730.252591
 30
0.0
 11
645.5
 21
1730.252591
 31
0.0
  0
LINE
  5
757
100
AcDbEntity
  8
フラッシュバルブ
  6
CONTINUOUS
 62
     6
100
AcDbLine
 10
603.5
 20
1701.000061
 30
0.0
 11
603.5
 21
1721.000061
 31
0.0
  0
LINE
  5
758
100
AcDbEntity
  8
フラッシュバルブ
  6
CONTINUOUS
 62
     6
100
AcDbLine
 10
612.1
 20
1646.200064
 30
0.0
 11
637.9
 21
1646.200064
 31
0.0
  0
LINE
  5
759
100
AcDbEntity
  8
フラッシュバルブ
  6
CONTINUOUS
 62
     6
100
AcDbLine
 10
612.1
 20
1658.200061
 30
0.0
 11
637.9
 21
1658.200061
 31
0.0
  0
LINE
  5
75A
100
AcDbEntity
  8
フラッシュバルブ
  6
CONTINUOUS
 62
     6
100
AcDbLine
 10
613.0
 20
1661.500061
 30
0.0
 11
613.0
 21
1658.200061
 31
0.0
  0
LINE
  5
75B
100
AcDbEntity
  8
フラッシュバルブ
  6
CONTINUOUS
 62
     6
100
AcDbLine
 10
610.0
 20
1666.696211
 30
0.0
 11
610.0
 21
1673.000061
 31
0.0
  0
LINE
  5
75C
100
AcDbEntity
  8
フラッシュバルブ
  6
CONTINUOUS
 62
     6
100
AcDbLine
 10
637.0
 20
1661.500061
 30
0.0
 11
637.0
 21
1658.200061
 31
0.0
  0
LINE
  5
75D
100
AcDbEntity
  8
フラッシュバルブ
  6
CONTINUOUS
 62
     6
100
AcDbLine
 10
640.0
 20
1666.696211
 30
0.0
 11
640.0
 21
1673.000061
 31
0.0
  0
LINE
  5
75E
100
AcDbEntity
  8
フラッシュバルブ
  6
CONTINUOUS
 62
     6
100
AcDbLine
 10
618.6
 20
1747.200061
 30
0.0
 11
618.6
 21
1746.000061
 31
0.0
  0
LINE
  5
75F
100
AcDbEntity
  8
フラッシュバルブ
  6
CONTINUOUS
 62
     6
100
AcDbLine
 10
618.9
 20
1747.500061
 30
0.0
 11
618.6
 21
1747.200061
 31
0.0
  0
LINE
  5
760
100
AcDbEntity
  8
フラッシュバルブ
  6
CONTINUOUS
 62
     6
100
AcDbLine
 10
631.1
 20
1747.500061
 30
0.0
 11
618.9
 21
1747.500061
 31
0.0
  0
LINE
  5
761
100
AcDbEntity
  8
フラッシュバルブ
  6
CONTINUOUS
 62
     6
100
AcDbLine
 10
631.1
 20
1747.500061
 30
0.0
 11
631.4
 21
1747.200061
 31
0.0
  0
LINE
  5
762
100
AcDbEntity
  8
フラッシュバルブ
  6
CONTINUOUS
 62
     6
100
AcDbLine
 10
631.4
 20
1747.200061
 30
0.0
 11
631.4
 21
1746.000061
 31
0.0
  0
LINE
  5
763
100
AcDbEntity
  8
フラッシュバルブ
  6
CONTINUOUS
 62
     6
100
AcDbLine
 10
624.0
 20
1743.500061
 30
0.0
 11
624.0
 21
1737.735631
 31
0.0
  0
LINE
  5
764
100
AcDbEntity
  8
フラッシュバルブ
  6
CONTINUOUS
 62
     6
100
AcDbLine
 10
626.0
 20
1743.500061
 30
0.0
 11
626.0
 21
1737.735631
 31
0.0
  0
LINE
  5
765
100
AcDbEntity
  8
フラッシュバルブ
  6
CONTINUOUS
 62
     6
100
AcDbLine
 10
616.0
 20
1743.500061
 30
0.0
 11
616.0
 21
1737.735631
 31
0.0
  0
LINE
  5
766
100
AcDbEntity
  8
フラッシュバルブ
  6
CONTINUOUS
 62
     6
100
AcDbLine
 10
634.0
 20
1743.500061
 30
0.0
 11
634.0
 21
1737.735631
 31
0.0
  0
LINE
  5
767
100
AcDbEntity
  8
フラッシュバルブ
  6
CONTINUOUS
 62
     6
100
AcDbLine
 10
615.0
 20
1744.636461
 30
0.0
 11
615.0
 21
1735.298931
 31
0.0
  0
LINE
  5
768
100
AcDbEntity
  8
フラッシュバルブ
  6
CONTINUOUS
 62
     6
100
AcDbLine
 10
635.0
 20
1735.298931
 30
0.0
 11
635.0
 21
1744.636461
 31
0.0
  0
LINE
  5
769
100
AcDbEntity
  8
フラッシュバルブ
  6
CONTINUOUS
 62
     6
100
AcDbLine
 10
624.0
 20
1743.500061
 30
0.0
 11
626.0
 21
1743.500061
 31
0.0
  0
LINE
  5
76A
100
AcDbEntity
  8
フラッシュバルブ
  6
CONTINUOUS
 62
     6
100
AcDbLine
 10
624.0
 20
1737.735621
 30
0.0
 11
626.0
 21
1737.735631
 31
0.0
  0
LINE
  5
76B
100
AcDbEntity
  8
フラッシュバルブ
  6
CONTINUOUS
 62
     6
100
AcDbLine
 10
646.5225
 20
1719.552961
 30
0.0
 11
645.687
 21
1721.000081
 31
0.0
  0
LINE
  5
76C
100
AcDbEntity
  8
フラッシュバルブ
  6
CONTINUOUS
 62
     6
100
AcDbLine
 10
603.4775
 20
1719.552961
 30
0.0
 11
604.313
 21
1721.000081
 31
0.0
  0
LINE
  5
76D
100
AcDbEntity
  8
フラッシュバルブ
  6
CONTINUOUS
 62
     6
100
AcDbLine
 10
640.5
 20
1687.982181
 30
0.0
 11
640.5
 21
1674.017941
 31
0.0
  0
LINE
  5
76E
100
AcDbEntity
  8
フラッシュバルブ
  6
CONTINUOUS
 62
     6
100
AcDbLine
 10
609.5
 20
1674.017941
 30
0.0
 11
609.5
 21
1687.982181
 31
0.0
  0
LINE
  5
76F
100
AcDbEntity
  8
フラッシュバルブ
  6
CONTINUOUS
 62
     6
100
AcDbLine
 10
611.2033
 20
1671.067731
 30
0.0
 11
623.2967
 21
1664.085601
 31
0.0
  0
LINE
  5
770
100
AcDbEntity
  8
フラッシュバルブ
  6
CONTINUOUS
 62
     6
100
AcDbLine
 10
626.7033
 20
1664.085601
 30
0.0
 11
638.7967
 21
1671.067741
 31
0.0
  0
LINE
  5
771
100
AcDbEntity
  8
フラッシュバルブ
  6
CONTINUOUS
 62
     6
100
AcDbLine
 10
626.7033
 20
1697.914521
 30
0.0
 11
638.7967
 21
1690.932391
 31
0.0
  0
LINE
  5
772
100
AcDbEntity
  8
フラッシュバルブ
  6
CONTINUOUS
 62
     6
100
AcDbLine
 10
611.2033
 20
1690.932401
 30
0.0
 11
623.2967
 21
1697.914521
 31
0.0
  0
LINE
  5
773
100
AcDbEntity
  8
フラッシュバルブ
  6
CONTINUOUS
 62
     6
100
AcDbLine
 10
613.0
 20
1660.000061
 30
0.0
 11
637.0
 21
1660.000061
 31
0.0
  0
LINE
  5
774
100
AcDbEntity
  8
フラッシュバルブ
  6
CONTINUOUS
 62
     6
100
AcDbLine
 10
636.322
 20
1660.000041
 30
0.0
 11
637.0
 21
1661.174381
 31
0.0
  0
LINE
  5
775
100
AcDbEntity
  8
フラッシュバルブ
  6
CONTINUOUS
 62
     6
100
AcDbLine
 10
636.322
 20
1658.200061
 30
0.0
 11
636.322
 21
1660.000041
 31
0.0
  0
LINE
  5
776
100
AcDbEntity
  8
フラッシュバルブ
  6
CONTINUOUS
 62
     6
100
AcDbLine
 10
637.0
 20
1661.500061
 30
0.0
 11
613.0
 21
1661.500061
 31
0.0
  0
LINE
  5
777
100
AcDbEntity
  8
フラッシュバルブ
  6
CONTINUOUS
 62
     6
100
AcDbLine
 10
613.678
 20
1658.200061
 30
0.0
 11
613.678
 21
1660.000041
 31
0.0
  0
LINE
  5
778
100
AcDbEntity
  8
フラッシュバルブ
  6
CONTINUOUS
 62
     6
100
AcDbLine
 10
613.678
 20
1660.000041
 30
0.0
 11
613.0
 21
1661.174381
 31
0.0
  0
LINE
  5
779
100
AcDbEntity
  8
フラッシュバルブ
  6
CONTINUOUS
 62
     6
100
AcDbLine
 10
638.0
 20
1657.984381
 30
0.0
 11
638.0
 21
1646.415751
 31
0.0
  0
LINE
  5
77A
100
AcDbEntity
  8
フラッシュバルブ
  6
CONTINUOUS
 62
     6
100
AcDbLine
 10
612.0
 20
1657.984381
 30
0.0
 11
612.0
 21
1646.415751
 31
0.0
  0
ARC
  5
77B
100
AcDbEntity
  8
フラッシュバルブ
  6
CONTINUOUS
 62
     6
100
AcDbCircle
 10
638.0
 20
1735.298931
 30
0.0
 40
3.0
100
AcDbArc
 50
180.0
 51
258.0
  0
ARC
  5
77C
100
AcDbEntity
  8
フラッシュバルブ
  6
CONTINUOUS
 62
     6
100
AcDbCircle
 10
612.0
 20
1735.298931
 30
0.0
 40
3.0
100
AcDbArc
 50
282.0
 51
0.0
  0
ARC
  5
77D
100
AcDbEntity
  8
フラッシュバルブ
  6
CONTINUOUS
 62
     6
100
AcDbCircle
 10
603.0
 20
1728.785371
 30
0.0
 40
1.5
100
AcDbArc
 50
102.0003
 51
180.0
  0
ARC
  5
77E
100
AcDbEntity
  8
フラッシュバルブ
  6
CONTINUOUS
 62
     6
100
AcDbCircle
 10
647.0
 20
1722.500061
 30
0.0
 40
1.5
100
AcDbArc
 50
270.0
 51
0.0
  0
ARC
  5
77F
100
AcDbEntity
  8
フラッシュバルブ
  6
CONTINUOUS
 62
     6
100
AcDbCircle
 10
647.0
 20
1728.785371
 30
0.0
 40
1.5
100
AcDbArc
 50
0.0
 51
77.99969
  0
ARC
  5
780
100
AcDbEntity
  8
フラッシュバルブ
  6
CONTINUOUS
 62
     6
100
AcDbCircle
 10
624.7584
 20
1652.200061
 30
0.0
 40
14.00836
100
AcDbArc
 50
154.6393
 51
155.6117
  0
ARC
  5
781
100
AcDbEntity
  8
フラッシュバルブ
  6
CONTINUOUS
 62
     6
100
AcDbCircle
 10
616.0
 20
1666.696211
 30
0.0
 40
6.0
100
AcDbArc
 50
180.0
 51
240.0
  0
ARC
  5
782
100
AcDbEntity
  8
フラッシュバルブ
  6
CONTINUOUS
 62
     6
100
AcDbCircle
 10
625.2416
 20
1652.200061
 30
0.0
 40
14.00836
100
AcDbArc
 50
334.6393
 51
335.6117
  0
ARC
  5
783
100
AcDbEntity
  8
フラッシュバルブ
  6
CONTINUOUS
 62
     6
100
AcDbCircle
 10
634.0
 20
1666.696211
 30
0.0
 40
6.0
100
AcDbArc
 50
300.0
 51
0.0
  0
ARC
  5
784
100
AcDbEntity
  8
フラッシュバルブ
  6
CONTINUOUS
 62
     6
100
AcDbCircle
 10
658.0
 20
1679.291771
 30
0.0
 40
18.0
100
AcDbArc
 50
163.8765
 51
166.4638
  0
ARC
  5
785
100
AcDbEntity
  8
フラッシュバルブ
  6
CONTINUOUS
 62
     6
100
AcDbCircle
 10
625.0
 20
1701.000061
 30
0.0
 40
21.5
100
AcDbArc
 50
180.0
 51
213.338
  0
ARC
  5
786
100
AcDbEntity
  8
フラッシュバルブ
  6
CONTINUOUS
 62
     6
100
AcDbCircle
 10
620.0
 20
1738.916761
 30
0.0
 40
6.083333
100
AcDbArc
 50
48.88809
 51
131.1121
  0
ARC
  5
787
100
AcDbEntity
  8
フラッシュバルブ
  6
CONTINUOUS
 62
     6
100
AcDbCircle
 10
620.0
 20
1745.235661
 30
0.0
 40
8.5
100
AcDbArc
 50
241.9275
 51
298.0724
  0
ARC
  5
788
100
AcDbEntity
  8
フラッシュバルブ
  6
CONTINUOUS
 62
     6
100
AcDbCircle
 10
630.0
 20
1738.916761
 30
0.0
 40
6.083333
100
AcDbArc
 50
48.88794
 51
131.1119
  0
ARC
  5
789
100
AcDbEntity
  8
フラッシュバルブ
  6
CONTINUOUS
 62
     6
100
AcDbCircle
 10
630.0
 20
1745.235661
 30
0.0
 40
8.5
100
AcDbArc
 50
241.9276
 51
298.0725
  0
ARC
  5
78A
100
AcDbEntity
  8
フラッシュバルブ
  6
CONTINUOUS
 62
     6
100
AcDbCircle
 10
638.0
 20
1738.916761
 30
0.0
 40
6.083333
100
AcDbArc
 50
119.5479
 51
131.1121
  0
ARC
  5
78B
100
AcDbEntity
  8
フラッシュバルブ
  6
CONTINUOUS
 62
     6
100
AcDbCircle
 10
638.0
 20
1745.235661
 30
0.0
 40
8.5
100
AcDbArc
 50
241.9275
 51
249.3327
  0
ARC
  5
78C
100
AcDbEntity
  8
フラッシュバルブ
  6
CONTINUOUS
 62
     6
100
AcDbCircle
 10
612.0
 20
1738.916761
 30
0.0
 40
6.083333
100
AcDbArc
 50
48.88794
 51
60.45212
  0
ARC
  5
78D
100
AcDbEntity
  8
フラッシュバルブ
  6
CONTINUOUS
 62
     6
100
AcDbCircle
 10
612.0
 20
1745.235661
 30
0.0
 40
8.5
100
AcDbArc
 50
290.6673
 51
298.0725
  0
ARC
  5
78E
100
AcDbEntity
  8
フラッシュバルブ
  6
CONTINUOUS
 62
     6
100
AcDbCircle
 10
592.0
 20
1679.291771
 30
0.0
 40
18.0
100
AcDbArc
 50
13.53619
 51
33.33801
  0
CIRCLE
  5
78F
100
AcDbEntity
  8
フラッシュバルブ
  6
CONTINUOUS
 62
     6
100
AcDbCircle
 10
625.0
 20
1681.000061
 30
0.0
 40
10.5
  0
ARC
  5
790
100
AcDbEntity
  8
フラッシュバルブ
  6
CONTINUOUS
 62
     6
100
AcDbCircle
 10
625.0
 20
1681.000061
 30
0.0
 40
17.0
100
AcDbArc
 50
84.24966
 51
95.75049
  0
ARC
  5
791
100
AcDbEntity
  8
フラッシュバルブ
  6
CONTINUOUS
 62
     6
100
AcDbCircle
 10
625.0
 20
1681.000061
 30
0.0
 40
17.0
100
AcDbArc
 50
144.2496
 51
155.7505
  0
ARC
  5
792
100
AcDbEntity
  8
フラッシュバルブ
  6
CONTINUOUS
 62
     6
100
AcDbCircle
 10
625.0
 20
1681.000061
 30
0.0
 40
17.0
100
AcDbArc
 50
204.2496
 51
215.7505
  0
ARC
  5
793
100
AcDbEntity
  8
フラッシュバルブ
  6
CONTINUOUS
 62
     6
100
AcDbCircle
 10
625.0
 20
1681.000061
 30
0.0
 40
17.0
100
AcDbArc
 50
264.2496
 51
275.7505
  0
ARC
  5
794
100
AcDbEntity
  8
フラッシュバルブ
  6
CONTINUOUS
 62
     6
100
AcDbCircle
 10
625.0
 20
1681.000061
 30
0.0
 40
17.0
100
AcDbArc
 50
324.2496
 51
335.7505
  0
ARC
  5
795
100
AcDbEntity
  8
フラッシュバルブ
  6
CONTINUOUS
 62
     6
100
AcDbCircle
 10
625.0
 20
1681.000061
 30
0.0
 40
17.0
100
AcDbArc
 50
24.24963
 51
35.75049
  0
ARC
  5
796
100
AcDbEntity
  8
フラッシュバルブ
  6
CONTINUOUS
 62
     6
100
AcDbCircle
 10
603.0
 20
1722.500061
 30
0.0
 40
1.5
100
AcDbArc
 50
180.0
 51
270.0
  0
ARC
  5
797
100
AcDbEntity
  8
フラッシュバルブ
  6
CONTINUOUS
 62
     6
100
AcDbCircle
 10
625.2416
 20
1652.200061
 30
0.0
 40
14.00836
100
AcDbArc
 50
24.38831
 51
25.36072
  0
ARC
  5
798
100
AcDbEntity
  8
フラッシュバルブ
  6
CONTINUOUS
 62
     6
100
AcDbCircle
 10
624.7584
 20
1652.200061
 30
0.0
 40
14.00836
100
AcDbArc
 50
204.3883
 51
205.3607
  0
ARC
  5
799
100
AcDbEntity
  8
フラッシュバルブ
  6
CONTINUOUS
 62
     6
100
AcDbCircle
 10
618.5
 20
1655.457171
 30
0.0
 40
2.527199
100
AcDbArc
 50
75.61594
 51
104.3841
  0
ARC
  5
79A
100
AcDbEntity
  8
フラッシュバルブ
  6
CONTINUOUS
 62
     6
100
AcDbCircle
 10
619.3353
 20
1652.200061
 30
0.0
 40
5.889718
100
AcDbArc
 50
104.3842
 51
255.6158
  0
ARC
  5
79B
100
AcDbEntity
  8
フラッシュバルブ
  6
CONTINUOUS
 62
     6
100
AcDbCircle
 10
617.6647
 20
1652.200061
 30
0.0
 40
5.889718
100
AcDbArc
 50
284.3842
 51
75.61584
  0
ARC
  5
79C
100
AcDbEntity
  8
フラッシュバルブ
  6
CONTINUOUS
 62
     6
100
AcDbCircle
 10
631.5
 20
1648.942951
 30
0.0
 40
2.527195
100
AcDbArc
 50
255.6159
 51
284.3841
  0
ARC
  5
79D
100
AcDbEntity
  8
フラッシュバルブ
  6
CONTINUOUS
 62
     6
100
AcDbCircle
 10
631.5
 20
1655.457181
 30
0.0
 40
2.527195
100
AcDbArc
 50
75.61591
 51
104.3841
  0
ARC
  5
79E
100
AcDbEntity
  8
フラッシュバルブ
  6
CONTINUOUS
 62
     6
100
AcDbCircle
 10
632.3353
 20
1652.200061
 30
0.0
 40
5.88972
100
AcDbArc
 50
104.3842
 51
255.6158
  0
ARC
  5
79F
100
AcDbEntity
  8
フラッシュバルブ
  6
CONTINUOUS
 62
     6
100
AcDbCircle
 10
630.6647
 20
1652.200061
 30
0.0
 40
5.88972
100
AcDbArc
 50
284.3842
 51
75.61584
  0
LINE
  5
7A0
100
AcDbEntity
  8
フラッシュバルブ
  6
CONTINUOUS
 62
     6
100
AcDbLine
 10
617.06
 20
1553.01477
 30
0.0
 11
617.06
 21
1646.200064
 31
0.0
  0
LINE
  5
7A1
100
AcDbEntity
  8
フラッシュバルブ
  6
CONTINUOUS
 62
     6
100
AcDbLine
 10
632.94
 20
1553.01477
 30
0.0
 11
632.94
 21
1646.200064
 31
0.0
  0
ARC
  5
7A2
100
AcDbEntity
  8
フラッシュバルブ
  6
CONTINUOUS
 62
     6
100
AcDbCircle
 10
618.5
 20
1648.942951
 30
0.0
 40
2.527195
100
AcDbArc
 50
255.6159
 51
284.3841
  0
ARC
  5
7A3
100
AcDbEntity
  8
フラッシュバルブ
  6
CONTINUOUS
 62
     6
100
AcDbCircle
 10
625.0
 20
1701.000061
 30
0.0
 40
23.75
100
AcDbArc
 50
154.858749
 51
229.259693
  0
LINE
  5
7A4
100
AcDbEntity
  8
フラッシュバルブ
  6
CONTINUOUS
 62
     6
100
AcDbLine
 10
1720.810274
 20
1661.500061
 30
0.0
 11
1720.810274
 21
1658.200061
 31
0.0
  0
LINE
  5
7A5
100
AcDbEntity
  8
フラッシュバルブ
  6
CONTINUOUS
 62
     6
100
AcDbLine
 10
1720.132264
 20
1658.200061
 30
0.0
 11
1720.132264
 21
1660.000041
 31
0.0
  0
LINE
  5
7A6
100
AcDbEntity
  8
フラッシュバルブ
  6
CONTINUOUS
 62
     6
100
AcDbLine
 10
1720.810274
 20
1660.000061
 30
0.0
 11
1696.810274
 21
1660.000061
 31
0.0
  0
LINE
  5
7A7
100
AcDbEntity
  8
フラッシュバルブ
  6
CONTINUOUS
 62
     6
100
AcDbLine
 10
1720.132264
 20
1660.000041
 30
0.0
 11
1720.810274
 21
1661.174381
 31
0.0
  0
LINE
  5
7A8
100
AcDbEntity
  8
フラッシュバルブ
  6
CONTINUOUS
 62
     6
100
AcDbLine
 10
1696.810274
 20
1661.500061
 30
0.0
 11
1696.810274
 21
1658.200061
 31
0.0
  0
LINE
  5
7A9
100
AcDbEntity
  8
フラッシュバルブ
  6
CONTINUOUS
 62
     6
100
AcDbLine
 10
1697.488284
 20
1658.200061
 30
0.0
 11
1697.488284
 21
1660.000041
 31
0.0
  0
LINE
  5
7AA
100
AcDbEntity
  8
フラッシュバルブ
  6
CONTINUOUS
 62
     6
100
AcDbLine
 10
1697.488284
 20
1660.000041
 30
0.0
 11
1696.810274
 21
1661.174381
 31
0.0
  0
LINE
  5
7AB
100
AcDbEntity
  8
フラッシュバルブ
  6
CONTINUOUS
 62
     6
100
AcDbLine
 10
1741.310274
 20
1718.000061
 30
0.0
 11
1741.310274
 21
1720.500061
 31
0.0
  0
LINE
  5
7AC
100
AcDbEntity
  8
フラッシュバルブ
  6
CONTINUOUS
 62
     6
100
AcDbLine
 10
1762.310274
 20
1720.500061
 30
0.0
 11
1762.310274
 21
1717.477561
 31
0.0
  0
LINE
  5
7AD
100
AcDbEntity
  8
フラッシュバルブ
  6
CONTINUOUS
 62
     6
100
AcDbLine
 10
1745.810274
 20
1735.000061
 30
0.0
 11
1757.810274
 21
1735.000061
 31
0.0
  0
LINE
  5
7AE
100
AcDbEntity
  8
フラッシュバルブ
  6
CONTINUOUS
 62
     6
100
AcDbLine
 10
1759.310274
 20
1728.656911
 30
0.0
 11
1759.310274
 21
1733.500061
 31
0.0
  0
LINE
  5
7AF
100
AcDbEntity
  8
フラッシュバルブ
  6
CONTINUOUS
 62
     6
100
AcDbLine
 10
1741.187776
 20
1720.500061
 30
0.0
 11
1762.432774
 21
1720.500061
 31
0.0
  0
LINE
  5
7B0
100
AcDbEntity
  8
フラッシュバルブ
  6
CONTINUOUS
 62
     6
100
AcDbLine
 10
1744.310274
 20
1728.656911
 30
0.0
 11
1744.310274
 21
1733.500061
 31
0.0
  0
LINE
  5
7B1
100
AcDbEntity
  8
フラッシュバルブ
  6
CONTINUOUS
 62
     6
100
AcDbLine
 10
1752.510284
 20
1735.000061
 30
0.0
 11
1752.510284
 21
1735.975531
 31
0.0
  0
LINE
  5
7B2
100
AcDbEntity
  8
フラッシュバルブ
  6
CONTINUOUS
 62
     6
100
AcDbLine
 10
1751.110264
 20
1735.000061
 30
0.0
 11
1751.110264
 21
1735.975531
 31
0.0
  0
LINE
  5
7B3
100
AcDbEntity
  8
フラッシュバルブ
  6
CONTINUOUS
 62
     6
100
AcDbLine
 10
1721.710264
 20
1646.200061
 30
0.0
 11
1695.910274
 21
1646.200061
 31
0.0
  0
LINE
  5
7B4
100
AcDbEntity
  8
フラッシュバルブ
  6
CONTINUOUS
 62
     6
100
AcDbLine
 10
1721.710264
 20
1658.200061
 30
0.0
 11
1695.910274
 21
1658.200061
 31
0.0
  0
LINE
  5
7B5
100
AcDbEntity
  8
フラッシュバルブ
  6
CONTINUOUS
 62
     6
100
AcDbLine
 10
1720.810274
 20
1661.500061
 30
0.0
 11
1696.810274
 21
1661.500061
 31
0.0
  0
LINE
  5
7B6
100
AcDbEntity
  8
フラッシュバルブ
  6
CONTINUOUS
 62
     6
100
AcDbLine
 10
1797.810274
 20
1710.277561
 30
0.0
 11
1797.810274
 21
1691.722581
 31
0.0
  0
LINE
  5
7B7
100
AcDbEntity
  8
フラッシュバルブ
  6
CONTINUOUS
 62
     6
100
AcDbLine
 10
1783.810404
 20
1710.315561
 30
0.0
 11
1797.772254
 21
1710.315561
 31
0.0
  0
LINE
  5
7B8
100
AcDbEntity
  8
フラッシュバルブ
  6
CONTINUOUS
 62
     6
100
AcDbLine
 10
1796.610264
 20
1711.477561
 30
0.0
 11
1797.810274
 21
1710.277561
 31
0.0
  0
LINE
  5
7B9
100
AcDbEntity
  8
フラッシュバルブ
  6
CONTINUOUS
 62
     6
100
AcDbLine
 10
1797.810274
 20
1691.722581
 30
0.0
 11
1796.610264
 21
1690.522571
 31
0.0
  0
LINE
  5
7BA
100
AcDbEntity
  8
フラッシュバルブ
  6
CONTINUOUS
 62
     6
100
AcDbLine
 10
1772.797644
 20
1711.477561
 30
0.0
 11
1774.310274
 21
1710.604241
 31
0.0
  0
LINE
  5
7BB
100
AcDbEntity
  8
フラッシュバルブ
  6
CONTINUOUS
 62
     6
100
AcDbLine
 10
1783.810384
 20
1691.684561
 30
0.0
 11
1797.772254
 21
1691.684561
 31
0.0
  0
LINE
  5
7BC
100
AcDbEntity
  8
フラッシュバルブ
  6
CONTINUOUS
 62
     6
100
AcDbLine
 10
1796.610264
 20
1711.477561
 30
0.0
 11
1796.610264
 21
1690.522571
 31
0.0
  0
LINE
  5
7BD
100
AcDbEntity
  8
フラッシュバルブ
  6
CONTINUOUS
 62
     6
100
AcDbLine
 10
1771.933594
 20
1690.522571
 30
0.0
 11
1774.310274
 21
1690.522571
 31
0.0
  0
LINE
  5
7BE
100
AcDbEntity
  8
フラッシュバルブ
  6
CONTINUOUS
 62
     6
100
AcDbLine
 10
1780.411684
 20
1724.750061
 30
0.0
 11
1783.810394
 21
1724.750061
 31
0.0
  0
LINE
  5
7BF
100
AcDbEntity
  8
フラッシュバルブ
  6
CONTINUOUS
 62
     6
100
AcDbLine
 10
1779.310274
 20
1723.651881
 30
0.0
 11
1779.310274
 21
1678.348231
 31
0.0
  0
LINE
  5
7C0
100
AcDbEntity
  8
フラッシュバルブ
  6
CONTINUOUS
 62
     6
100
AcDbLine
 10
1780.411684
 20
1677.250061
 30
0.0
 11
1783.810394
 21
1677.250061
 31
0.0
  0
LINE
  5
7C1
100
AcDbEntity
  8
フラッシュバルブ
  6
CONTINUOUS
 62
     6
100
AcDbLine
 10
1774.310274
 20
1715.520001
 30
0.0
 11
1774.310274
 21
1686.480101
 31
0.0
  0
LINE
  5
7C2
100
AcDbEntity
  8
フラッシュバルブ
  6
CONTINUOUS
 62
     6
100
AcDbLine
 10
1796.610264
 20
1711.477561
 30
0.0
 11
1783.810414
 21
1711.477561
 31
0.0
  0
LINE
  5
7C3
100
AcDbEntity
  8
フラッシュバルブ
  6
CONTINUOUS
 62
     6
100
AcDbLine
 10
1681.633154
 20
1664.000061
 30
0.0
 11
1672.987394
 21
1664.000061
 31
0.0
  0
LINE
  5
7C4
100
AcDbEntity
  8
フラッシュバルブ
  6
CONTINUOUS
 62
     6
100
AcDbLine
 10
1672.310274
 20
1696.500061
 30
0.0
 11
1672.310274
 21
1665.500061
 31
0.0
  0
LINE
  5
7C5
100
AcDbEntity
  8
フラッシュバルブ
  6
CONTINUOUS
 62
     6
100
AcDbLine
 10
1682.310274
 20
1696.500061
 30
0.0
 11
1682.310274
 21
1665.500061
 31
0.0
  0
LINE
  5
7C6
100
AcDbEntity
  8
フラッシュバルブ
  6
CONTINUOUS
 62
     6
100
AcDbLine
 10
1682.110264
 20
1669.067721
 30
0.0
 11
1682.110264
 21
1665.085601
 31
0.0
  0
LINE
  5
7C7
100
AcDbEntity
  8
フラッシュバルブ
  6
CONTINUOUS
 62
     6
100
AcDbLine
 10
1672.510284
 20
1669.067721
 30
0.0
 11
1672.510284
 21
1665.085601
 31
0.0
  0
LINE
  5
7C8
100
AcDbEntity
  8
フラッシュバルブ
  6
CONTINUOUS
 62
     6
100
AcDbLine
 10
1673.510284
 20
1664.085601
 30
0.0
 11
1681.110264
 21
1664.085601
 31
0.0
  0
LINE
  5
7C9
100
AcDbEntity
  8
フラッシュバルブ
  6
CONTINUOUS
 62
     6
100
AcDbLine
 10
1665.810274
 20
1674.500061
 30
0.0
 11
1665.810274
 21
1687.500061
 31
0.0
  0
LINE
  5
7CA
100
AcDbEntity
  8
フラッシュバルブ
  6
CONTINUOUS
 62
     6
100
AcDbLine
 10
1674.510284
 20
1671.067721
 30
0.0
 11
1680.110264
 21
1671.067721
 31
0.0
  0
LINE
  5
7CB
100
AcDbEntity
  8
フラッシュバルブ
  6
CONTINUOUS
 62
     6
100
AcDbLine
 10
1674.613744
 20
1674.017941
 30
0.0
 11
1680.006804
 21
1674.017941
 31
0.0
  0
LINE
  5
7CC
100
AcDbEntity
  8
フラッシュバルブ
  6
CONTINUOUS
 62
     6
100
AcDbLine
 10
1721.186524
 20
1732.364491
 30
0.0
 11
1731.122164
 21
1730.252591
 31
0.0
  0
LINE
  5
7CD
100
AcDbEntity
  8
フラッシュバルブ
  6
CONTINUOUS
 62
     6
100
AcDbLine
 10
1714.910314
 20
1747.500061
 30
0.0
 11
1709.610324
 21
1747.500061
 31
0.0
  0
LINE
  5
7CE
100
AcDbEntity
  8
フラッシュバルブ
  6
CONTINUOUS
 62
     6
100
AcDbLine
 10
1709.610324
 20
1747.500061
 30
0.0
 11
1709.610324
 21
1746.000061
 31
0.0
  0
LINE
  5
7CF
100
AcDbEntity
  8
フラッシュバルブ
  6
CONTINUOUS
 62
     6
100
AcDbLine
 10
1713.964144
 20
1737.735631
 30
0.0
 11
1713.964144
 21
1743.500061
 31
0.0
  0
LINE
  5
7D0
100
AcDbEntity
  8
フラッシュバルブ
  6
CONTINUOUS
 62
     6
100
AcDbLine
 10
1714.893584
 20
1737.735631
 30
0.0
 11
1713.964144
 21
1737.735631
 31
0.0
  0
LINE
  5
7D1
100
AcDbEntity
  8
フラッシュバルブ
  6
CONTINUOUS
 62
     6
100
AcDbLine
 10
1714.893584
 20
1743.500061
 30
0.0
 11
1713.964144
 21
1743.500061
 31
0.0
  0
LINE
  5
7D2
100
AcDbEntity
  8
フラッシュバルブ
  6
CONTINUOUS
 62
     6
100
AcDbLine
 10
1714.893584
 20
1743.500061
 30
0.0
 11
1714.893584
 21
1737.735631
 31
0.0
  0
LINE
  5
7D3
100
AcDbEntity
  8
フラッシュバルブ
  6
CONTINUOUS
 62
     6
100
AcDbLine
 10
1687.310274
 20
1729.999881
 30
0.0
 11
1730.310274
 21
1729.999881
 31
0.0
  0
LINE
  5
7D4
100
AcDbEntity
  8
フラッシュバルブ
  6
CONTINUOUS
 62
     6
100
AcDbLine
 10
1730.810274
 20
1721.000061
 30
0.0
 11
1686.810274
 21
1721.000061
 31
0.0
  0
LINE
  5
7D5
100
AcDbEntity
  8
フラッシュバルブ
  6
CONTINUOUS
 62
     6
100
AcDbLine
 10
1715.210294
 20
1747.200061
 30
0.0
 11
1715.210294
 21
1746.000061
 31
0.0
  0
LINE
  5
7D6
100
AcDbEntity
  8
フラッシュバルブ
  6
CONTINUOUS
 62
     6
100
AcDbLine
 10
1681.633154
 20
1698.000061
 30
0.0
 11
1672.987394
 21
1698.000061
 31
0.0
  0
LINE
  5
7D7
100
AcDbEntity
  8
フラッシュバルブ
  6
CONTINUOUS
 62
     6
100
AcDbLine
 10
1660.810274
 20
1690.000061
 30
0.0
 11
1660.810274
 21
1672.000061
 31
0.0
  0
LINE
  5
7D8
100
AcDbEntity
  8
フラッシュバルブ
  6
CONTINUOUS
 62
     6
100
AcDbLine
 10
1660.810274
 20
1686.500061
 30
0.0
 11
1665.810274
 21
1686.500061
 31
0.0
  0
LINE
  5
7D9
100
AcDbEntity
  8
フラッシュバルブ
  6
CONTINUOUS
 62
     6
100
AcDbLine
 10
1660.810274
 20
1675.500061
 30
0.0
 11
1665.810274
 21
1675.500061
 31
0.0
  0
LINE
  5
7DA
100
AcDbEntity
  8
フラッシュバルブ
  6
CONTINUOUS
 62
     6
100
AcDbLine
 10
1657.810274
 20
1672.000061
 30
0.0
 11
1657.810274
 21
1690.000061
 31
0.0
  0
LINE
  5
7DB
100
AcDbEntity
  8
フラッシュバルブ
  6
CONTINUOUS
 62
     6
100
AcDbLine
 10
1667.810274
 20
1672.500061
 30
0.0
 11
1672.310274
 21
1672.500061
 31
0.0
  0
LINE
  5
7DC
100
AcDbEntity
  8
フラッシュバルブ
  6
CONTINUOUS
 62
     6
100
AcDbLine
 10
1667.810274
 20
1689.500061
 30
0.0
 11
1672.310274
 21
1689.500061
 31
0.0
  0
LINE
  5
7DD
100
AcDbEntity
  8
フラッシュバルブ
  6
CONTINUOUS
 62
     6
100
AcDbLine
 10
1717.310274
 20
1746.000061
 30
0.0
 11
1700.310274
 21
1746.000061
 31
0.0
  0
LINE
  5
7DE
100
AcDbEntity
  8
フラッシュバルブ
  6
CONTINUOUS
 62
     6
100
AcDbLine
 10
1708.010224
 20
1747.500061
 30
0.0
 11
1708.010224
 21
1746.000061
 31
0.0
  0
LINE
  5
7DF
100
AcDbEntity
  8
フラッシュバルブ
  6
CONTINUOUS
 62
     6
100
AcDbLine
 10
1702.410254
 20
1747.200061
 30
0.0
 11
1702.410254
 21
1746.000061
 31
0.0
  0
LINE
  5
7E0
100
AcDbEntity
  8
フラッシュバルブ
  6
CONTINUOUS
 62
     6
100
AcDbLine
 10
1702.710234
 20
1747.500061
 30
0.0
 11
1702.410254
 21
1747.200061
 31
0.0
  0
LINE
  5
7E1
100
AcDbEntity
  8
フラッシュバルブ
  6
CONTINUOUS
 62
     6
100
AcDbLine
 10
1702.710234
 20
1747.500061
 30
0.0
 11
1708.010224
 21
1747.500061
 31
0.0
  0
LINE
  5
7E2
100
AcDbEntity
  8
フラッシュバルブ
  6
CONTINUOUS
 62
     6
100
AcDbLine
 10
1714.910314
 20
1747.500061
 30
0.0
 11
1715.210294
 21
1747.200061
 31
0.0
  0
LINE
  5
7E3
100
AcDbEntity
  8
フラッシュバルブ
  6
CONTINUOUS
 62
     6
100
AcDbLine
 10
1717.310274
 20
1746.000061
 30
0.0
 11
1720.060274
 21
1743.500061
 31
0.0
  0
LINE
  5
7E4
100
AcDbEntity
  8
フラッシュバルブ
  6
CONTINUOUS
 62
     6
100
AcDbLine
 10
1720.060274
 20
1737.735631
 30
0.0
 11
1720.060274
 21
1743.500061
 31
0.0
  0
LINE
  5
7E5
100
AcDbEntity
  8
フラッシュバルブ
  6
CONTINUOUS
 62
     6
100
AcDbLine
 10
1732.310274
 20
1722.500061
 30
0.0
 11
1732.310274
 21
1728.785371
 31
0.0
  0
LINE
  5
7E6
100
AcDbEntity
  8
フラッシュバルブ
  6
CONTINUOUS
 62
     6
100
AcDbLine
 10
1700.310274
 20
1746.000061
 30
0.0
 11
1697.560274
 21
1743.500061
 31
0.0
  0
LINE
  5
7E7
100
AcDbEntity
  8
フラッシュバルブ
  6
CONTINUOUS
 62
     6
100
AcDbLine
 10
1697.560274
 20
1737.735631
 30
0.0
 11
1697.560274
 21
1743.500061
 31
0.0
  0
LINE
  5
7E8
100
AcDbEntity
  8
フラッシュバルブ
  6
CONTINUOUS
 62
     6
100
AcDbLine
 10
1696.433994
 20
1732.364491
 30
0.0
 11
1686.498384
 21
1730.252591
 31
0.0
  0
LINE
  5
7E9
100
AcDbEntity
  8
フラッシュバルブ
  6
CONTINUOUS
 62
     6
100
AcDbLine
 10
1685.310274
 20
1722.500061
 30
0.0
 11
1685.310274
 21
1728.785371
 31
0.0
  0
LINE
  5
7EA
100
AcDbEntity
  8
フラッシュバルブ
  6
CONTINUOUS
 62
     6
100
AcDbLine
 10
1735.378603
 20
1689.500061
 30
0.0
 11
1729.810274
 21
1689.500061
 31
0.0
  0
LINE
  5
7EB
100
AcDbEntity
  8
フラッシュバルブ
  6
CONTINUOUS
 62
     6
100
AcDbLine
 10
1685.090244
 20
1695.000061
 30
0.0
 11
1685.090244
 21
1695.350431
 31
0.0
  0
LINE
  5
7EC
100
AcDbEntity
  8
フラッシュバルブ
  6
CONTINUOUS
 62
     6
100
AcDbLine
 10
1682.310274
 20
1695.000061
 30
0.0
 11
1683.251524
 21
1695.000061
 31
0.0
  0
LINE
  5
7ED
100
AcDbEntity
  8
フラッシュバルブ
  6
CONTINUOUS
 62
     6
100
AcDbLine
 10
1685.090244
 20
1695.000061
 30
0.0
 11
1683.810274
 21
1694.261061
 31
0.0
  0
LINE
  5
7EE
100
AcDbEntity
  8
フラッシュバルブ
  6
CONTINUOUS
 62
     6
100
AcDbLine
 10
1683.810274
 20
1694.261061
 30
0.0
 11
1682.310274
 21
1694.261061
 31
0.0
  0
LINE
  5
7EF
100
AcDbEntity
  8
フラッシュバルブ
  6
CONTINUOUS
 62
     6
100
AcDbLine
 10
1685.090244
 20
1667.000061
 30
0.0
 11
1683.810274
 21
1667.739061
 31
0.0
  0
LINE
  5
7F0
100
AcDbEntity
  8
フラッシュバルブ
  6
CONTINUOUS
 62
     6
100
AcDbLine
 10
1683.810274
 20
1695.031381
 30
0.0
 11
1683.810274
 21
1667.000061
 31
0.0
  0
LINE
  5
7F1
100
AcDbEntity
  8
フラッシュバルブ
  6
CONTINUOUS
 62
     6
100
AcDbLine
 10
1683.810274
 20
1667.739061
 30
0.0
 11
1682.310274
 21
1667.739061
 31
0.0
  0
LINE
  5
7F2
100
AcDbEntity
  8
フラッシュバルブ
  6
CONTINUOUS
 62
     6
100
AcDbLine
 10
1682.310274
 20
1667.000061
 30
0.0
 11
1689.863104
 21
1667.000061
 31
0.0
  0
LINE
  5
7F3
100
AcDbEntity
  8
フラッシュバルブ
  6
CONTINUOUS
 62
     6
100
AcDbLine
 10
1723.810274
 20
1666.696211
 30
0.0
 11
1723.810274
 21
1683.500061
 31
0.0
  0
LINE
  5
7F4
100
AcDbEntity
  8
フラッシュバルブ
  6
CONTINUOUS
 62
     6
100
AcDbLine
 10
1687.310274
 20
1707.000061
 30
0.0
 11
1687.310274
 21
1721.000061
 31
0.0
  0
LINE
  5
7F5
100
AcDbEntity
  8
フラッシュバルブ
  6
CONTINUOUS
 62
     6
100
AcDbLine
 10
1687.310274
 20
1719.591931
 30
0.0
 11
1688.123264
 21
1721.000081
 31
0.0
  0
LINE
  5
7F6
100
AcDbEntity
  8
フラッシュバルブ
  6
CONTINUOUS
 62
     6
100
AcDbLine
 10
1730.310274
 20
1719.591931
 30
0.0
 11
1729.497286
 21
1721.000081
 31
0.0
  0
LINE
  5
7F7
100
AcDbEntity
  8
フラッシュバルブ
  6
CONTINUOUS
 62
     6
100
AcDbLine
 10
1730.310274
 20
1721.000061
 30
0.0
 11
1730.310274
 21
1718.000061
 31
0.0
  0
LINE
  5
7F8
100
AcDbEntity
  8
フラッシュバルブ
  6
CONTINUOUS
 62
     6
100
AcDbLine
 10
1674.613744
 20
1687.982181
 30
0.0
 11
1680.006804
 21
1687.982181
 31
0.0
  0
LINE
  5
7F9
100
AcDbEntity
  8
フラッシュバルブ
  6
CONTINUOUS
 62
     6
100
AcDbLine
 10
1674.510284
 20
1690.932401
 30
0.0
 11
1680.110264
 21
1690.932401
 31
0.0
  0
LINE
  5
7FA
100
AcDbEntity
  8
フラッシュバルブ
  6
CONTINUOUS
 62
     6
100
AcDbLine
 10
1672.510284
 20
1692.932401
 30
0.0
 11
1672.510284
 21
1696.914521
 31
0.0
  0
LINE
  5
7FB
100
AcDbEntity
  8
フラッシュバルブ
  6
CONTINUOUS
 62
     6
100
AcDbLine
 10
1673.510284
 20
1697.914521
 30
0.0
 11
1681.110264
 21
1697.914521
 31
0.0
  0
LINE
  5
7FC
100
AcDbEntity
  8
フラッシュバルブ
  6
CONTINUOUS
 62
     6
100
AcDbLine
 10
1682.110264
 20
1692.932401
 30
0.0
 11
1682.110264
 21
1696.914521
 31
0.0
  0
LINE
  5
7FD
100
AcDbEntity
  8
フラッシュバルブ
  6
CONTINUOUS
 62
     6
100
AcDbLine
 10
1702.726964
 20
1743.500061
 30
0.0
 11
1703.656404
 21
1743.500061
 31
0.0
  0
LINE
  5
7FE
100
AcDbEntity
  8
フラッシュバルブ
  6
CONTINUOUS
 62
     6
100
AcDbLine
 10
1702.726964
 20
1737.735631
 30
0.0
 11
1703.656404
 21
1737.735631
 31
0.0
  0
LINE
  5
7FF
100
AcDbEntity
  8
フラッシュバルブ
  6
CONTINUOUS
 62
     6
100
AcDbLine
 10
1703.656404
 20
1737.735631
 30
0.0
 11
1703.656404
 21
1743.500061
 31
0.0
  0
LINE
  5
800
100
AcDbEntity
  8
フラッシュバルブ
  6
CONTINUOUS
 62
     6
100
AcDbLine
 10
1702.726964
 20
1743.500061
 30
0.0
 11
1702.726964
 21
1737.735631
 31
0.0
  0
LINE
  5
801
100
AcDbEntity
  8
フラッシュバルブ
  6
CONTINUOUS
 62
     6
100
AcDbLine
 10
1772.797644
 20
1690.522561
 30
0.0
 11
1774.310274
 21
1691.395881
 31
0.0
  0
LINE
  5
802
100
AcDbEntity
  8
フラッシュバルブ
  6
CONTINUOUS
 62
     6
100
AcDbLine
 10
1774.310274
 20
1711.477561
 30
0.0
 11
1768.310274
 21
1711.477561
 31
0.0
  0
LINE
  5
803
100
AcDbEntity
  8
フラッシュバルブ
  6
CONTINUOUS
 62
     6
100
AcDbLine
 10
1783.810384
 20
1690.522571
 30
0.0
 11
1796.610264
 21
1690.522571
 31
0.0
  0
ARC
  5
804
100
AcDbEntity
  8
フラッシュバルブ
  6
CONTINUOUS
 62
     6
100
AcDbCircle
 10
1699.810274
 20
1666.696211
 30
0.0
 40
6.0
100
AcDbArc
 50
205.2725
 51
240.0
  0
ARC
  5
805
100
AcDbEntity
  8
フラッシュバルブ
  6
CONTINUOUS
 62
     6
100
AcDbCircle
 10
1717.810274
 20
1666.696211
 30
0.0
 40
6.0
100
AcDbArc
 50
300.0
 51
0.0
  0
ARC
  5
806
100
AcDbEntity
  8
フラッシュバルブ
  6
CONTINUOUS
 62
     6
100
AcDbCircle
 10
1689.863104
 20
1662.000061
 30
0.0
 40
5.0
100
AcDbArc
 50
25.27237
 51
90.0
  0
ARC
  5
807
100
AcDbEntity
  8
フラッシュバルブ
  6
CONTINUOUS
 62
     6
100
AcDbCircle
 10
1735.810274
 20
1718.000061
 30
0.0
 40
5.5
100
AcDbArc
 50
180.0
 51
0.0
  0
ARC
  5
808
100
AcDbEntity
  8
フラッシュバルブ
  6
CONTINUOUS
 62
     6
100
AcDbCircle
 10
1751.810274
 20
1728.000061
 30
0.0
 40
40.5
100
AcDbArc
 50
256.1206
 51
287.0839
  0
ARC
  5
809
100
AcDbEntity
  8
フラッシュバルブ
  6
CONTINUOUS
 62
     6
100
AcDbCircle
 10
1735.378603
 20
1661.500061
 30
0.0
 40
28.0
100
AcDbArc
 50
76.12064
 51
90.0
  0
ARC
  5
80A
100
AcDbEntity
  8
フラッシュバルブ
  6
CONTINUOUS
 62
     6
100
AcDbCircle
 10
1757.810274
 20
1733.500061
 30
0.0
 40
1.5
100
AcDbArc
 50
0.0
 51
90.0
  0
ARC
  5
80B
100
AcDbEntity
  8
フラッシュバルブ
  6
CONTINUOUS
 62
     6
100
AcDbCircle
 10
1759.310274
 20
1723.000061
 30
0.0
 40
4.0
100
AcDbArc
 50
321.3178
 51
70.52875
  0
ARC
  5
80C
100
AcDbEntity
  8
フラッシュバルブ
  6
CONTINUOUS
 62
     6
100
AcDbCircle
 10
1761.310274
 20
1728.656911
 30
0.0
 40
2.0
100
AcDbArc
 50
180.0
 51
250.5288
  0
ARC
  5
80D
100
AcDbEntity
  8
フラッシュバルブ
  6
CONTINUOUS
 62
     6
100
AcDbCircle
 10
1745.810274
 20
1733.500061
 30
0.0
 40
1.5
100
AcDbArc
 50
90.0
 51
180.0
  0
ARC
  5
80E
100
AcDbEntity
  8
フラッシュバルブ
  6
CONTINUOUS
 62
     6
100
AcDbCircle
 10
1744.310274
 20
1723.000061
 30
0.0
 40
4.0
100
AcDbArc
 50
109.4713
 51
218.6822
  0
ARC
  5
80F
100
AcDbEntity
  8
フラッシュバルブ
  6
CONTINUOUS
 62
     6
100
AcDbCircle
 10
1751.810274
 20
1726.000061
 30
0.0
 40
10.0
100
AcDbArc
 50
64.15808
 51
85.98602
  0
ARC
  5
810
100
AcDbEntity
  8
フラッシュバルブ
  6
CONTINUOUS
 62
     6
100
AcDbCircle
 10
1751.810274
 20
1726.000061
 30
0.0
 40
10.0
100
AcDbArc
 50
94.01398
 51
115.8419
  0
ARC
  5
811
100
AcDbEntity
  8
フラッシュバルブ
  6
CONTINUOUS
 62
     6
100
AcDbCircle
 10
1708.568634
 20
1652.200061
 30
0.0
 40
14.00836
100
AcDbArc
 50
154.6393
 51
205.3607
  0
ARC
  5
812
100
AcDbEntity
  8
フラッシュバルブ
  6
CONTINUOUS
 62
     6
100
AcDbCircle
 10
1709.051914
 20
1652.200061
 30
0.0
 40
14.00836
100
AcDbArc
 50
334.6393
 51
25.36072
  0
ARC
  5
813
100
AcDbEntity
  8
フラッシュバルブ
  6
CONTINUOUS
 62
     6
100
AcDbCircle
 10
1720.068604
 20
1647.87482
 30
0.0
 40
1.459078
100
AcDbArc
 50
217.2828
 51
322.7173
  0
ARC
  5
814
100
AcDbEntity
  8
フラッシュバルブ
  6
CONTINUOUS
 62
     6
100
AcDbCircle
 10
1720.068604
 20
1656.525301
 30
0.0
 40
1.459078
100
AcDbArc
 50
37.28275
 51
142.7173
  0
ARC
  5
815
100
AcDbEntity
  8
フラッシュバルブ
  6
CONTINUOUS
 62
     6
100
AcDbCircle
 10
1714.387364
 20
1652.200061
 30
0.0
 40
8.599416
100
AcDbArc
 50
322.7173
 51
37.28268
  0
ARC
  5
816
100
AcDbEntity
  8
フラッシュバルブ
  6
CONTINUOUS
 62
     6
100
AcDbCircle
 10
1725.749854
 20
1652.200061
 30
0.0
 40
8.599416
100
AcDbArc
 50
142.7173
 51
217.2827
  0
ARC
  5
817
100
AcDbEntity
  8
フラッシュバルブ
  6
CONTINUOUS
 62
     6
100
AcDbCircle
 10
1711.754424
 20
1652.200061
 30
0.0
 40
2.892159
100
AcDbArc
 50
358.9791
 51
1.020874
  0
ARC
  5
818
100
AcDbEntity
  8
フラッシュバルブ
  6
CONTINUOUS
 62
     6
100
AcDbCircle
 10
1708.810274
 20
1652.147601
 30
0.0
 40
5.836777
100
AcDbArc
 50
1.020874
 51
178.9792
  0
ARC
  5
819
100
AcDbEntity
  8
フラッシュバルブ
  6
CONTINUOUS
 62
     6
100
AcDbCircle
 10
1708.810274
 20
1652.252521
 30
0.0
 40
5.836777
100
AcDbArc
 50
181.0208
 51
358.9791
  0
ARC
  5
81A
100
AcDbEntity
  8
フラッシュバルブ
  6
CONTINUOUS
 62
     6
100
AcDbCircle
 10
1771.933594
 20
1662.522571
 30
0.0
 40
28.0
100
AcDbArc
 50
90.0
 51
107.0839
  0
ARC
  5
81B
100
AcDbEntity
  8
フラッシュバルブ
  6
CONTINUOUS
 62
     6
100
AcDbCircle
 10
1863.524274
 20
1670.824191
 30
0.0
 40
100.0
100
AcDbArc
 50
148.0043
 51
152.8656
  0
ARC
  5
81C
100
AcDbEntity
  8
フラッシュバルブ
  6
CONTINUOUS
 62
     6
100
AcDbCircle
 10
1780.411684
 20
1722.750061
 30
0.0
 40
2.0
100
AcDbArc
 50
90.0
 51
148.0043
  0
ARC
  5
81D
100
AcDbEntity
  8
フラッシュバルブ
  6
CONTINUOUS
 62
     6
100
AcDbCircle
 10
1863.524274
 20
1731.175921
 30
0.0
 40
100.0
100
AcDbArc
 50
207.1344
 51
211.9957
  0
ARC
  5
81E
100
AcDbEntity
  8
フラッシュバルブ
  6
CONTINUOUS
 62
     6
100
AcDbCircle
 10
1780.411684
 20
1679.250061
 30
0.0
 40
2.0
100
AcDbArc
 50
211.9957
 51
270.0
  0
ARC
  5
81F
100
AcDbEntity
  8
フラッシュバルブ
  6
CONTINUOUS
 62
     6
100
AcDbCircle
 10
1776.310274
 20
1715.520001
 30
0.0
 40
2.0
100
AcDbArc
 50
152.8656
 51
180.0
  0
ARC
  5
820
100
AcDbEntity
  8
フラッシュバルブ
  6
CONTINUOUS
 62
     6
100
AcDbCircle
 10
1776.310274
 20
1686.480121
 30
0.0
 40
2.0
100
AcDbArc
 50
180.0007
 51
207.1344
  0
ARC
  5
821
100
AcDbEntity
  8
フラッシュバルブ
  6
CONTINUOUS
 62
     6
100
AcDbCircle
 10
1768.310274
 20
1717.477561
 30
0.0
 40
6.0
100
AcDbArc
 50
180.0
 51
270.0
  0
ARC
  5
822
100
AcDbEntity
  8
フラッシュバルブ
  6
CONTINUOUS
 62
     6
100
AcDbCircle
 10
1748.494844
 20
1723.500061
 30
0.0
 40
1.375
100
AcDbArc
 50
135.0506
 51
224.9494
  0
ARC
  5
823
100
AcDbEntity
  8
フラッシュバルブ
  6
CONTINUOUS
 62
     6
100
AcDbCircle
 10
1751.810274
 20
1720.190481
 30
0.0
 40
6.059581
100
AcDbArc
 50
44.9494
 51
135.0505
  0
ARC
  5
824
100
AcDbEntity
  8
フラッシュバルブ
  6
CONTINUOUS
 62
     6
100
AcDbCircle
 10
1751.810274
 20
1726.809641
 30
0.0
 40
6.059581
100
AcDbArc
 50
224.9495
 51
315.0506
  0
ARC
  5
825
100
AcDbEntity
  8
フラッシュバルブ
  6
CONTINUOUS
 62
     6
100
AcDbCircle
 10
1742.717012
 20
1721.922661
 30
0.0
 40
1.172602
100
AcDbArc
 50
253.2524
 51
286.7476
  0
ARC
  5
826
100
AcDbEntity
  8
フラッシュバルブ
  6
CONTINUOUS
 62
     6
100
AcDbCircle
 10
1742.717012
 20
1725.077461
 30
0.0
 40
1.172602
100
AcDbArc
 50
73.25247
 51
106.7475
  0
ARC
  5
827
100
AcDbEntity
  8
フラッシュバルブ
  6
CONTINUOUS
 62
     6
100
AcDbCircle
 10
1743.191683
 20
1723.500061
 30
0.0
 40
2.81987
100
AcDbArc
 50
106.7474
 51
137.2599
  0
ARC
  5
828
100
AcDbEntity
  8
フラッシュバルブ
  6
CONTINUOUS
 62
     6
100
AcDbCircle
 10
1742.242342
 20
1723.500061
 30
0.0
 40
2.81987
100
AcDbArc
 50
286.7474
 51
73.25259
  0
ARC
  5
829
100
AcDbEntity
  8
フラッシュバルブ
  6
CONTINUOUS
 62
     6
100
AcDbCircle
 10
1743.191683
 20
1723.500061
 30
0.0
 40
2.81987
100
AcDbArc
 50
174.5721
 51
253.2526
  0
ARC
  5
82A
100
AcDbEntity
  8
フラッシュバルブ
  6
CONTINUOUS
 62
     6
100
AcDbCircle
 10
1742.310274
 20
1728.656911
 30
0.0
 40
2.0
100
AcDbArc
 50
289.4711
 51
0.0
  0
ARC
  5
82B
100
AcDbEntity
  8
フラッシュバルブ
  6
CONTINUOUS
 62
     6
100
AcDbCircle
 10
1674.310274
 20
1665.500061
 30
0.0
 40
2.0
100
AcDbArc
 50
180.0
 51
228.5903
  0
ARC
  5
82C
100
AcDbEntity
  8
フラッシュバルブ
  6
CONTINUOUS
 62
     6
100
AcDbCircle
 10
1680.310274
 20
1665.500061
 30
0.0
 40
2.0
100
AcDbArc
 50
311.4097
 51
0.0
  0
ARC
  5
82D
100
AcDbEntity
  8
フラッシュバルブ
  6
CONTINUOUS
 62
     6
100
AcDbCircle
 10
1673.510284
 20
1665.085601
 30
0.0
 40
1.0
100
AcDbArc
 50
180.0
 51
270.0
  0
ARC
  5
82E
100
AcDbEntity
  8
フラッシュバルブ
  6
CONTINUOUS
 62
     6
100
AcDbCircle
 10
1681.110264
 20
1665.085601
 30
0.0
 40
1.0
100
AcDbArc
 50
270.0
 51
0.0
  0
ARC
  5
82F
100
AcDbEntity
  8
フラッシュバルブ
  6
CONTINUOUS
 62
     6
100
AcDbCircle
 10
1680.110264
 20
1669.067721
 30
0.0
 40
2.0
100
AcDbArc
 50
0.0
 51
90.0
  0
ARC
  5
830
100
AcDbEntity
  8
フラッシュバルブ
  6
CONTINUOUS
 62
     6
100
AcDbCircle
 10
1674.510284
 20
1669.067721
 30
0.0
 40
2.0
100
AcDbArc
 50
90.0
 51
180.0
  0
ARC
  5
831
100
AcDbEntity
  8
フラッシュバルブ
  6
CONTINUOUS
 62
     6
100
AcDbCircle
 10
1680.006804
 20
1676.017941
 30
0.0
 40
2.0
100
AcDbArc
 50
270.0
 51
357.6201
  0
ARC
  5
832
100
AcDbEntity
  8
フラッシュバルブ
  6
CONTINUOUS
 62
     6
100
AcDbCircle
 10
1560.133474
 20
1681.000061
 30
0.0
 40
121.9769
100
AcDbArc
 50
357.6201
 51
2.379944
  0
ARC
  5
833
100
AcDbEntity
  8
フラッシュバルブ
  6
CONTINUOUS
 62
     6
100
AcDbCircle
 10
1674.613744
 20
1676.017941
 30
0.0
 40
2.0
100
AcDbArc
 50
182.3799
 51
270.0
  0
ARC
  5
834
100
AcDbEntity
  8
フラッシュバルブ
  6
CONTINUOUS
 62
     6
100
AcDbCircle
 10
1794.487124
 20
1681.000061
 30
0.0
 40
121.9769
100
AcDbArc
 50
177.6201
 51
182.3799
  0
ARC
  5
835
100
AcDbEntity
  8
フラッシュバルブ
  6
CONTINUOUS
 62
     6
100
AcDbCircle
 10
1708.810274
 20
1737.859311
 30
0.0
 40
7.640748
100
AcDbArc
 50
47.58264
 51
132.4172
  0
ARC
  5
836
100
AcDbEntity
  8
フラッシュバルブ
  6
CONTINUOUS
 62
     6
100
AcDbCircle
 10
1708.810274
 20
1744.520361
 30
0.0
 40
8.520332
100
AcDbArc
 50
232.7791
 51
307.2211
  0
ARC
  5
837
100
AcDbEntity
  8
フラッシュバルブ
  6
CONTINUOUS
 62
     6
100
AcDbCircle
 10
1711.109834
 20
1735.850751
 30
0.0
 40
11.68415
100
AcDbArc
 50
40.09857
 51
53.14877
  0
ARC
  5
838
100
AcDbEntity
  8
フラッシュバルブ
  6
CONTINUOUS
 62
     6
100
AcDbCircle
 10
1717.217654
 20
1744.000061
 30
0.0
 40
1.5
100
AcDbArc
 50
53.14868
 51
83.73279
  0
ARC
  5
839
100
AcDbEntity
  8
フラッシュバルブ
  6
CONTINUOUS
 62
     6
100
AcDbCircle
 10
1717.725834
 20
1742.510961
 30
0.0
 40
3.0
100
AcDbArc
 50
96.59277
 51
160.7487
  0
ARC
  5
83A
100
AcDbEntity
  8
フラッシュバルブ
  6
CONTINUOUS
 62
     6
100
AcDbCircle
 10
1717.615754
 20
1738.996561
 30
0.0
 40
3.0
100
AcDbArc
 50
204.8529
 51
265.1772
  0
ARC
  5
83B
100
AcDbEntity
  8
フラッシュバルブ
  6
CONTINUOUS
 62
     6
100
AcDbCircle
 10
1717.217654
 20
1737.500061
 30
0.0
 40
1.5
100
AcDbArc
 50
270.0
 51
306.8513
  0
ARC
  5
83C
100
AcDbEntity
  8
フラッシュバルブ
  6
CONTINUOUS
 62
     6
100
AcDbCircle
 10
1711.109834
 20
1745.649361
 30
0.0
 40
11.68415
100
AcDbArc
 50
306.8512
 51
319.9014
  0
ARC
  5
83D
100
AcDbEntity
  8
フラッシュバルブ
  6
CONTINUOUS
 62
     6
100
AcDbCircle
 10
1721.810274
 20
1735.298931
 30
0.0
 40
3.0
100
AcDbArc
 50
125.6853
 51
258.0
  0
ARC
  5
83E
100
AcDbEntity
  8
フラッシュバルブ
  6
CONTINUOUS
 62
     6
100
AcDbCircle
 10
1680.310274
 20
1696.500061
 30
0.0
 40
2.0
100
AcDbArc
 50
0.0
 51
48.59036
  0
ARC
  5
83F
100
AcDbEntity
  8
フラッシュバルブ
  6
CONTINUOUS
 62
     6
100
AcDbCircle
 10
1674.310274
 20
1696.500061
 30
0.0
 40
2.0
100
AcDbArc
 50
131.4096
 51
180.0
  0
ARC
  5
840
100
AcDbEntity
  8
フラッシュバルブ
  6
CONTINUOUS
 62
     6
100
AcDbCircle
 10
1659.310274
 20
1672.000061
 30
0.0
 40
1.5
100
AcDbArc
 50
180.0
 51
0.0
  0
ARC
  5
841
100
AcDbEntity
  8
フラッシュバルブ
  6
CONTINUOUS
 62
     6
100
AcDbCircle
 10
1659.310274
 20
1690.000061
 30
0.0
 40
1.5
100
AcDbArc
 50
0.0
 51
180.0
  0
ARC
  5
842
100
AcDbEntity
  8
フラッシュバルブ
  6
CONTINUOUS
 62
     6
100
AcDbCircle
 10
1667.810274
 20
1674.500061
 30
0.0
 40
2.0
100
AcDbArc
 50
180.0
 51
270.0
  0
ARC
  5
843
100
AcDbEntity
  8
フラッシュバルブ
  6
CONTINUOUS
 62
     6
100
AcDbCircle
 10
1730.810274
 20
1728.785371
 30
0.0
 40
1.5
100
AcDbArc
 50
0.0
 51
77.99973
  0
ARC
  5
844
100
AcDbEntity
  8
フラッシュバルブ
  6
CONTINUOUS
 62
     6
100
AcDbCircle
 10
1730.810274
 20
1722.500061
 30
0.0
 40
1.5
100
AcDbArc
 50
270.0
 51
0.0
  0
ARC
  5
845
100
AcDbEntity
  8
フラッシュバルブ
  6
CONTINUOUS
 62
     6
100
AcDbCircle
 10
1695.810274
 20
1735.298931
 30
0.0
 40
3.0
100
AcDbArc
 50
282.0
 51
54.31467
  0
ARC
  5
846
100
AcDbEntity
  8
フラッシュバルブ
  6
CONTINUOUS
 62
     6
100
AcDbCircle
 10
1686.810274
 20
1728.785371
 30
0.0
 40
1.5
100
AcDbArc
 50
102.0003
 51
180.0
  0
ARC
  5
847
100
AcDbEntity
  8
フラッシュバルブ
  6
CONTINUOUS
 62
     6
100
AcDbCircle
 10
1729.810274
 20
1683.500061
 30
0.0
 40
6.0
100
AcDbArc
 50
90.0
 51
180.0
  0
ARC
  5
848
100
AcDbEntity
  8
フラッシュバルブ
  6
CONTINUOUS
 62
     6
100
AcDbCircle
 10
1683.251524
 20
1700.000061
 30
0.0
 40
5.0
100
AcDbArc
 50
270.0
 51
15.31653
  0
ARC
  5
849
100
AcDbEntity
  8
フラッシュバルブ
  6
CONTINUOUS
 62
     6
100
AcDbCircle
 10
1708.810274
 20
1707.000061
 30
0.0
 40
21.5
100
AcDbArc
 50
180.0
 51
195.3165
  0
ARC
  5
84A
100
AcDbEntity
  8
フラッシュバルブ
  6
CONTINUOUS
 62
     6
100
AcDbCircle
 10
1691.870694
 20
1652.200061
 30
0.0
 40
8.599416
100
AcDbArc
 50
322.7173
 51
37.28265
  0
ARC
  5
84B
100
AcDbEntity
  8
フラッシュバルブ
  6
CONTINUOUS
 62
     6
100
AcDbCircle
 10
1697.551944
 20
1656.525301
 30
0.0
 40
1.459078
100
AcDbArc
 50
37.28278
 51
142.7172
  0
ARC
  5
84C
100
AcDbEntity
  8
フラッシュバルブ
  6
CONTINUOUS
 62
     6
100
AcDbCircle
 10
1703.233184
 20
1652.200061
 30
0.0
 40
8.599416
100
AcDbArc
 50
142.7173
 51
217.2827
  0
ARC
  5
84D
100
AcDbEntity
  8
フラッシュバルブ
  6
CONTINUOUS
 62
     6
100
AcDbCircle
 10
1697.551944
 20
1647.87482
 30
0.0
 40
1.459078
100
AcDbArc
 50
217.2827
 51
322.7172
  0
ARC
  5
84E
100
AcDbEntity
  8
フラッシュバルブ
  6
CONTINUOUS
 62
     6
100
AcDbCircle
 10
1705.866124
 20
1652.200061
 30
0.0
 40
2.892159
100
AcDbArc
 50
178.9791
 51
181.0209
  0
ARC
  5
84F
100
AcDbEntity
  8
フラッシュバルブ
  6
CONTINUOUS
 62
     6
100
AcDbCircle
 10
1667.810274
 20
1687.500061
 30
0.0
 40
2.0
100
AcDbArc
 50
90.0
 51
180.0
  0
ARC
  5
850
100
AcDbEntity
  8
フラッシュバルブ
  6
CONTINUOUS
 62
     6
100
AcDbCircle
 10
1674.613744
 20
1685.982181
 30
0.0
 40
2.0
100
AcDbArc
 50
90.0
 51
177.62
  0
ARC
  5
851
100
AcDbEntity
  8
フラッシュバルブ
  6
CONTINUOUS
 62
     6
100
AcDbCircle
 10
1680.006804
 20
1685.982181
 30
0.0
 40
2.0
100
AcDbArc
 50
2.379883
 51
90.0
  0
ARC
  5
852
100
AcDbEntity
  8
フラッシュバルブ
  6
CONTINUOUS
 62
     6
100
AcDbCircle
 10
1674.510284
 20
1692.932401
 30
0.0
 40
2.0
100
AcDbArc
 50
180.0
 51
270.0
  0
ARC
  5
853
100
AcDbEntity
  8
フラッシュバルブ
  6
CONTINUOUS
 62
     6
100
AcDbCircle
 10
1673.510284
 20
1696.914521
 30
0.0
 40
1.0
100
AcDbArc
 50
90.0
 51
180.0
  0
ARC
  5
854
100
AcDbEntity
  8
フラッシュバルブ
  6
CONTINUOUS
 62
     6
100
AcDbCircle
 10
1681.110264
 20
1696.914521
 30
0.0
 40
1.0
100
AcDbArc
 50
0.0
 51
90.0
  0
ARC
  5
855
100
AcDbEntity
  8
フラッシュバルブ
  6
CONTINUOUS
 62
     6
100
AcDbCircle
 10
1680.110264
 20
1692.932401
 30
0.0
 40
2.0
100
AcDbArc
 50
270.0
 51
0.0
  0
ARC
  5
856
100
AcDbEntity
  8
フラッシュバルブ
  6
CONTINUOUS
 62
     6
100
AcDbCircle
 10
1699.894714
 20
1742.510961
 30
0.0
 40
3.0
100
AcDbArc
 50
19.25128
 51
83.40723
  0
ARC
  5
857
100
AcDbEntity
  8
フラッシュバルブ
  6
CONTINUOUS
 62
     6
100
AcDbCircle
 10
1700.004794
 20
1738.996561
 30
0.0
 40
3.0
100
AcDbArc
 50
274.8228
 51
335.1471
  0
ARC
  5
858
100
AcDbEntity
  8
フラッシュバルブ
  6
CONTINUOUS
 62
     6
100
AcDbCircle
 10
1700.402894
 20
1737.500061
 30
0.0
 40
1.5
100
AcDbArc
 50
233.1487
 51
270.0
  0
ARC
  5
859
100
AcDbEntity
  8
フラッシュバルブ
  6
CONTINUOUS
 62
     6
100
AcDbCircle
 10
1706.510714
 20
1745.649361
 30
0.0
 40
11.68415
100
AcDbArc
 50
220.0986
 51
233.1488
  0
ARC
  5
85A
100
AcDbEntity
  8
フラッシュバルブ
  6
CONTINUOUS
 62
     6
100
AcDbCircle
 10
1706.510714
 20
1735.850751
 30
0.0
 40
11.68415
100
AcDbArc
 50
126.8512
 51
139.9014
  0
ARC
  5
85B
100
AcDbEntity
  8
フラッシュバルブ
  6
CONTINUOUS
 62
     6
100
AcDbCircle
 10
1700.402894
 20
1744.000061
 30
0.0
 40
1.5
100
AcDbArc
 50
96.26727
 51
126.8513
  0
ARC
  5
85C
100
AcDbEntity
  8
フラッシュバルブ
  6
CONTINUOUS
 62
     6
100
AcDbCircle
 10
1686.810274
 20
1722.500061
 30
0.0
 40
1.5
100
AcDbArc
 50
180.0
 51
270.0
  0
ARC
  5
85D
100
AcDbEntity
  8
フラッシュバルブ
  6
CONTINUOUS
 62
     6
100
AcDbCircle
 10
1760.428864
 20
1723.500061
 30
0.0
 40
2.81987
100
AcDbArc
 50
42.74008
 51
73.25259
  0
ARC
  5
85E
100
AcDbEntity
  8
フラッシュバルブ
  6
CONTINUOUS
 62
     6
100
AcDbCircle
 10
1760.428864
 20
1723.500061
 30
0.0
 40
2.81987
100
AcDbArc
 50
286.7474
 51
5.427887
  0
ARC
  5
85F
100
AcDbEntity
  8
フラッシュバルブ
  6
CONTINUOUS
 62
     6
100
AcDbCircle
 10
1760.903534
 20
1721.922661
 30
0.0
 40
1.172602
100
AcDbArc
 50
253.2525
 51
286.7475
  0
ARC
  5
860
100
AcDbEntity
  8
フラッシュバルブ
  6
CONTINUOUS
 62
     6
100
AcDbCircle
 10
1761.378204
 20
1723.500061
 30
0.0
 40
2.81987
100
AcDbArc
 50
106.7474
 51
253.2526
  0
ARC
  5
861
100
AcDbEntity
  8
フラッシュバルブ
  6
CONTINUOUS
 62
     6
100
AcDbCircle
 10
1760.903534
 20
1725.077461
 30
0.0
 40
1.172602
100
AcDbArc
 50
73.25247
 51
106.7475
  0
ARC
  5
862
100
AcDbEntity
  8
フラッシュバルブ
  6
CONTINUOUS
 62
     6
100
AcDbCircle
 10
1755.125704
 20
1723.500061
 30
0.0
 40
1.375
100
AcDbArc
 50
315.0506
 51
44.94943
  0
LINE
  5
863
100
AcDbEntity
  8
フラッシュバルブ
  6
CONTINUOUS
 62
     6
100
AcDbLine
 10
1716.750274
 20
1553.000122
 30
0.0
 11
1716.750274
 21
1646.200061
 31
0.0
  0
LINE
  5
864
100
AcDbEntity
  8
フラッシュバルブ
  6
CONTINUOUS
 62
     6
100
AcDbLine
 10
1700.870274
 20
1553.000122
 30
0.0
 11
1700.870274
 21
1646.200061
 31
0.0
  0
ARC
  5
865
100
AcDbEntity
  8
フラッシュバルブ
  6
CONTINUOUS
 62
     6
100
AcDbCircle
 10
658.0
 20
1679.291771
 30
0.0
 40
18.0
100
AcDbArc
 50
146.66199
 51
166.46381
  0
ARC
  5
866
100
AcDbEntity
  8
フラッシュバルブ
  6
CONTINUOUS
 62
     6
100
AcDbCircle
 10
625.0
 20
1701.000061
 30
0.0
 40
21.5
100
AcDbArc
 50
326.662
 51
0.0
  0
LINE
  5
867
100
AcDbEntity
  8
フラッシュバルブ
  6
CONTINUOUS
 62
     6
100
AcDbLine
 10
646.5
 20
1701.000061
 30
0.0
 11
646.5
 21
1721.000061
 31
0.0
  0
ARC
  5
868
100
AcDbEntity
  8
フラッシュバルブ
  6
CONTINUOUS
 62
     6
100
AcDbCircle
 10
625.0
 20
1701.000061
 30
0.0
 40
23.75
100
AcDbArc
 50
310.740307
 51
25.141251
  0
TEXT
  5
869
100
AcDbEntity
  8
フラッシュバルブ
  6
CONTINUOUS
 62
     2
100
AcDbText
 10
1450.793805
 20
1769.472504
 30
0.0
 40
40.0
  1
ＪＵ６Ａ
 41
0.819
  7
EXCADSTD
 72
     5
 11
1606.793805
 21
1769.472504
 31
0.0
100
AcDbText
  0
LINE
  5
86A
100
AcDbEntity
  8
フラッシュバルブ
  6
CONTINUOUS
 62
     6
100
AcDbLine
 10
1456.131268
 20
1765.972443
 30
0.0
 11
1598.331268
 21
1765.972443
 31
0.0
  0
LINE
  5
86B
100
AcDbEntity
  8
フラッシュバルブ
  6
CONTINUOUS
 62
     6
100
AcDbLine
 10
1731.4
 20
1701.000061
 30
0.0
 11
1696.0
 21
1701.000061
 31
0.0
  0
TEXT
  5
86C
100
AcDbEntity
  8
寸法
  6
CONTINUOUS
 62
     2
100
AcDbText
 10
901.5
 20
1553.997894
 30
0.0
 40
40.0
  1
１７５
 50
90.0
 41
0.833
  7
EXCADSTD
 72
     5
 11
901.5
 21
1672.997894
 31
0.0
100
AcDbText
  0
LINE
  5
86D
100
AcDbEntity
  8
寸法
  6
CONTINUOUS
 62
     3
100
AcDbLine
 10
905.0
 20
1701.000061
 30
0.0
 11
905.0
 21
1525.995727
 31
0.0
  0
LINE
  5
86E
100
AcDbEntity
  8
寸法
  6
CONTINUOUS
 62
     3
100
AcDbLine
 10
910.833333
 20
1666.000061
 30
0.0
 11
905.0
 21
1701.000061
 31
0.0
  0
LINE
  5
86F
100
AcDbEntity
  8
寸法
  6
CONTINUOUS
 62
     3
100
AcDbLine
 10
905.0
 20
1701.000061
 30
0.0
 11
899.166667
 21
1666.000061
 31
0.0
  0
LINE
  5
870
100
AcDbEntity
  8
寸法
  6
CONTINUOUS
 62
     3
100
AcDbLine
 10
899.166667
 20
1560.995727
 30
0.0
 11
905.0
 21
1525.995727
 31
0.0
  0
LINE
  5
871
100
AcDbEntity
  8
寸法
  6
CONTINUOUS
 62
     3
100
AcDbLine
 10
905.0
 20
1525.995727
 30
0.0
 11
910.833333
 21
1560.995727
 31
0.0
  0
TEXT
  5
872
100
AcDbEntity
  8
寸法
  6
CONTINUOUS
 62
     2
100
AcDbText
 10
981.5
 20
1075.500031
 30
0.0
 40
40.0
  1
１０９５
 50
90.0
 41
0.819
  7
EXCADSTD
 72
     5
 11
981.5
 21
1231.50003
 31
0.0
100
AcDbText
  0
LINE
  5
873
100
AcDbEntity
  8
寸法
  6
CONTINUOUS
 62
     3
100
AcDbLine
 10
985.0
 20
1701.000061
 30
0.0
 11
985.0
 21
606.0
 31
0.0
  0
LINE
  5
874
100
AcDbEntity
  8
寸法
  6
CONTINUOUS
 62
     3
100
AcDbLine
 10
990.833333
 20
1666.000061
 30
0.0
 11
985.0
 21
1701.000061
 31
0.0
  0
LINE
  5
875
100
AcDbEntity
  8
寸法
  6
CONTINUOUS
 62
     3
100
AcDbLine
 10
985.0
 20
1701.000061
 30
0.0
 11
979.166667
 21
1666.000061
 31
0.0
  0
LINE
  5
876
100
AcDbEntity
  8
寸法
  6
CONTINUOUS
 62
     3
100
AcDbLine
 10
979.166667
 20
641.0
 30
0.0
 11
985.0
 21
606.0
 31
0.0
  0
LINE
  5
877
100
AcDbEntity
  8
寸法
  6
CONTINUOUS
 62
     3
100
AcDbLine
 10
985.0
 20
606.0
 30
0.0
 11
990.833333
 21
641.0
 31
0.0
  0
TEXT
  5
878
100
AcDbEntity
  8
寸法
  6
CONTINUOUS
 62
     2
100
AcDbText
 10
1614.310471
 20
493.5
 30
0.0
 40
40.0
  1
２２０
 41
0.833
  7
EXCADSTD
 72
     5
 11
1733.31047
 21
493.5
 31
0.0
100
AcDbText
  0
LINE
  5
879
100
AcDbEntity
  8
寸法
  6
CONTINUOUS
 62
     3
100
AcDbLine
 10
1563.810547
 20
490.0
 30
0.0
 11
1783.810394
 21
490.0
 31
0.0
  0
LINE
  5
87A
100
AcDbEntity
  8
寸法
  6
CONTINUOUS
 62
     3
100
AcDbLine
 10
1598.810547
 20
495.833333
 30
0.0
 11
1563.810547
 21
490.0
 31
0.0
  0
LINE
  5
87B
100
AcDbEntity
  8
寸法
  6
CONTINUOUS
 62
     3
100
AcDbLine
 10
1563.810547
 20
490.0
 30
0.0
 11
1598.810547
 21
484.166667
 31
0.0
  0
LINE
  5
87C
100
AcDbEntity
  8
寸法
  6
CONTINUOUS
 62
     3
100
AcDbLine
 10
1748.810394
 20
484.166667
 30
0.0
 11
1783.810394
 21
490.0
 31
0.0
  0
LINE
  5
87D
100
AcDbEntity
  8
寸法
  6
CONTINUOUS
 62
     3
100
AcDbLine
 10
1783.810394
 20
490.0
 30
0.0
 11
1748.810394
 21
495.833333
 31
0.0
  0
LINE
  5
87E
100
AcDbEntity
  8
器具明細表_
  6
CONTINUOUS
 62
     6
100
AcDbLine
 10
1249.0
 20
2408.000305
 30
0.0
 11
1949.0
 21
2408.000305
 31
0.0
  0
LINE
  5
87F
100
AcDbEntity
  8
器具明細表_
  6
CONTINUOUS
 62
     6
100
AcDbLine
 10
1249.0
 20
2473.000305
 30
0.0
 11
1949.0
 21
2473.000305
 31
0.0
  0
LINE
  5
880
100
AcDbEntity
  8
器具明細表_
  6
CONTINUOUS
 62
     6
100
AcDbLine
 10
1249.0
 20
2538.0
 30
0.0
 11
1949.0
 21
2538.0
 31
0.0
  0
LINE
  5
881
100
AcDbEntity
  8
器具明細表_
  6
CONTINUOUS
 62
     6
100
AcDbLine
 10
1249.0
 20
2603.0
 30
0.0
 11
1949.0
 21
2603.0
 31
0.0
  0
LINE
  5
882
100
AcDbEntity
  8
器具明細表_
  6
CONTINUOUS
 62
     6
100
AcDbLine
 10
1249.0
 20
2668.0
 30
0.0
 11
1949.0
 21
2668.0
 31
0.0
  0
LINE
  5
883
100
AcDbEntity
  8
器具明細表_
  6
CONTINUOUS
 62
     6
100
AcDbLine
 10
1249.0
 20
2733.0
 30
0.0
 11
1949.0
 21
2733.0
 31
0.0
  0
LINE
  5
884
100
AcDbEntity
  8
器具明細表_
  6
CONTINUOUS
 62
     6
100
AcDbLine
 10
1249.0
 20
2733.0
 30
0.0
 11
1249.0
 21
2408.000305
 31
0.0
  0
LINE
  5
885
100
AcDbEntity
  8
器具明細表_
  6
CONTINUOUS
 62
     6
100
AcDbLine
 10
1579.0
 20
2733.0
 30
0.0
 11
1579.0
 21
2408.000305
 31
0.0
  0
LINE
  5
886
100
AcDbEntity
  8
器具明細表_
  6
CONTINUOUS
 62
     6
100
AcDbLine
 10
1859.0
 20
2733.0
 30
0.0
 11
1859.0
 21
2408.000305
 31
0.0
  0
LINE
  5
887
100
AcDbEntity
  8
器具明細表_
  6
CONTINUOUS
 62
     6
100
AcDbLine
 10
1949.0
 20
2733.0
 30
0.0
 11
1949.0
 21
2408.000305
 31
0.0
  0
TEXT
  5
888
100
AcDbEntity
  8
器具明細表_
  6
CONTINUOUS
 62
     2
100
AcDbText
 10
1266.050781
 20
2745.004394
 30
0.0
 40
60.0
  1
器　具　明　細
 41
0.91
  7
EXCADSTD
 72
     5
 11
1721.050781
 21
2745.004394
 31
0.0
100
AcDbText
  0
TEXT
  5
889
100
AcDbEntity
  8
器具明細表_
  6
CONTINUOUS
 62
     2
100
AcDbText
 10
1299.400391
 20
2673.0
 30
0.0
 40
55.0
  1
品　　番
 41
0.859091
  7
EXCADSTD
 72
     5
 11
1524.400391
 21
2673.0
 31
0.0
100
AcDbText
  0
TEXT
  5
88A
100
AcDbEntity
  8
器具明細表_
  6
CONTINUOUS
 62
     2
100
AcDbText
 10
1864.0
 20
2673.0
 30
0.0
 40
55.0
  1
個数
 41
0.664364
  7
EXCADSTD
 72
     5
 11
1943.7442
 21
2673.0
 31
0.0
100
AcDbText
  0
TEXT
  5
88B
100
AcDbEntity
  8
器具明細表_
  6
CONTINUOUS
 62
     2
100
AcDbText
 10
1629.01709
 20
2673.0
 30
0.0
 40
55.0
  1
品　　名
 41
0.687273
  7
EXCADSTD
 72
     5
 11
1809.01709
 21
2673.0
 31
0.0
100
AcDbText
  0
TEXT
  5
88C
100
AcDbEntity
  8
器具明細表_
  6
CONTINUOUS
 62
     2
100
AcDbText
 10
1582.918457
 20
2478.779114
 30
0.0
 40
50.0
  1
スパッド
 41
0.6552
  7
EXCADSTD
 72
     5
 11
1738.918457
 21
2478.779114
 31
0.0
100
AcDbText
  0
TEXT
  5
88D
100
AcDbEntity
  8
器具明細表_
  6
CONTINUOUS
 62
     2
100
AcDbText
 10
1251.983856
 20
2610.480469
 30
0.0
 40
50.0
  1
Ｕ３２３Ｃ
 41
0.64848
  7
EXCADSTD
 72
     5
 11
1444.983856
 21
2610.480469
 31
0.0
100
AcDbText
  0
TEXT
  5
88E
100
AcDbEntity
  8
器具明細表_
  6
CONTINUOUS
 62
     2
100
AcDbText
 10
1884.0
 20
2546.613281
 30
0.0
 40
47.5
  1
１
 41
0.834695
  7
EXCADSTD
 72
     5
 11
1921.759998
 21
2546.613281
 31
0.0
100
AcDbText
  0
TEXT
  5
88F
100
AcDbEntity
  8
器具明細表_
  6
CONTINUOUS
 62
     2
100
AcDbText
 10
1884.0
 20
2480.466126
 30
0.0
 40
47.5
  1
１
 41
0.834695
  7
EXCADSTD
 72
     5
 11
1921.759998
 21
2480.466126
 31
0.0
100
AcDbText
  0
TEXT
  5
890
100
AcDbEntity
  8
器具明細表_
  6
CONTINUOUS
 62
     2
100
AcDbText
 10
1884.0
 20
2416.381653
 30
0.0
 40
47.5
  1
１
 41
0.834695
  7
EXCADSTD
 72
     5
 11
1921.759998
 21
2416.381653
 31
0.0
100
AcDbText
  0
TEXT
  5
891
100
AcDbEntity
  8
器具明細表_
  6
CONTINUOUS
 62
     2
100
AcDbText
 10
1251.983856
 20
2480.479858
 30
0.0
 40
50.0
  1
ＮＵ２
 41
0.6664
  7
EXCADSTD
 72
     5
 11
1370.983856
 21
2480.479858
 31
0.0
100
AcDbText
  0
TEXT
  5
892
100
AcDbEntity
  8
器具明細表_
  6
CONTINUOUS
 62
     2
100
AcDbText
 10
1582.918457
 20
2608.0
 30
0.0
 40
50.0
  1
小便器
 41
0.6664
  7
EXCADSTD
 72
     5
 11
1701.918457
 21
2608.0
 31
0.0
100
AcDbText
  0
TEXT
  5
893
100
AcDbEntity
  8
器具明細表_
  6
CONTINUOUS
 62
     2
100
AcDbText
 10
1884.0
 20
2611.981934
 30
0.0
 40
47.5
  1
１
 41
0.834695
  7
EXCADSTD
 72
     5
 11
1921.759998
 21
2611.981934
 31
0.0
100
AcDbText
  0
INSERT
  5
894
100
AcDbEntity
  8
器具明細表_
  6
CONTINUOUS
 62
     0
100
AcDbBlockReference
  2
NC510LSK
 10
1351.534424
 20
2817.388184
 30
0.0
 41
10.0
 42
10.0
  0
TEXT
  5
895
100
AcDbEntity
  8
器具明細表_
  6
CONTINUOUS
 62
     2
100
AcDbText
 10
1251.983856
 20
2415.479858
 30
0.0
 40
50.0
  1
ＮＵ９ＡＶ
 41
0.64848
  7
EXCADSTD
 72
     5
 11
1444.983856
 21
2415.479858
 31
0.0
100
AcDbText
  0
TEXT
  5
896
100
AcDbEntity
  8
器具明細表_
  6
CONTINUOUS
 62
     2
100
AcDbText
 10
1582.918457
 20
2413.779114
 30
0.0
 40
50.0
  1
樹脂製床フランジ
 41
0.5901
  7
EXCADSTD
 72
     5
 11
1863.918474
 21
2413.779114
 31
0.0
100
AcDbText
  0
TEXT
  5
897
100
AcDbEntity
  8
器具明細表_
  6
CONTINUOUS
 62
     2
100
AcDbText
 10
1582.918457
 20
2543.0
 30
0.0
 40
50.0
  1
小便器洗浄弁
 41
0.644
  7
EXCADSTD
 72
     5
 11
1812.918456
 21
2543.0
 31
0.0
100
AcDbText
  0
TEXT
  5
898
100
AcDbEntity
  8
器具明細表_
  6
CONTINUOUS
 62
     2
100
AcDbText
 10
1251.983856
 20
2545.480469
 30
0.0
 40
50.0
  1
ＪＵ６Ａ
 41
0.6552
  7
EXCADSTD
 72
     5
 11
1407.983856
 21
2545.480469
 31
0.0
100
AcDbText
  0
TEXT
  5
899
100
AcDbEntity
  8
器具明細表_
  6
CONTINUOUS
 62
     6
100
AcDbText
 10
1450.437384
 20
2229.209106
 30
0.0
 40
17.5
  1
２
 41
0.96
  7
EXCADSTD
 72
     5
 11
1466.437384
 21
2229.209106
 31
0.0
100
AcDbText
  0
TEXT
  5
89A
100
AcDbEntity
  8
器具明細表_
  6
CONTINUOUS
 62
     2
100
AcDbText
 10
1237.391876
 20
2196.279388
 30
0.0
 40
45.0
  1
　　ｆ／ｃｍ｝）確保してください。
 41
0.709333
  7
EXCADSTD
 72
     5
 11
1883.391868
 21
2196.279388
 31
0.0
100
AcDbText
  0
TEXT
  5
89B
100
AcDbEntity
  8
器具明細表_
  6
CONTINUOUS
 62
     2
100
AcDbText
 10
1237.391876
 20
2346.279388
 30
0.0
 40
45.0
  1
注：給水には最低必要水圧０.０７ＭＰａ
 41
0.697591
  7
EXCADSTD
 72
     5
 11
1940.391867
 21
2346.279388
 31
0.0
100
AcDbText
  0
TEXT
  5
89C
100
AcDbEntity
  8
器具明細表_
  6
CONTINUOUS
 62
     2
100
AcDbText
 10
1237.391876
 20
2296.279388
 30
0.0
 40
45.0
  1
　　｛０.７Ｋｇｆ／ ｃｍ}（流動時）、
 41
0.685474
  7
EXCADSTD
 72
     5
 11
1921.391868
 21
2296.279388
 31
0.0
100
AcDbText
  0
TEXT
  5
89D
100
AcDbEntity
  8
器具明細表_
  6
CONTINUOUS
 62
     6
100
AcDbText
 10
1656.524316
 20
2330.528845
 30
0.0
 40
17.5
  1
２
 41
0.96
  7
EXCADSTD
 72
     5
 11
1672.524316
 21
2330.528845
 31
0.0
100
AcDbText
  0
TEXT
  5
89E
100
AcDbEntity
  8
器具明細表_
  6
CONTINUOUS
 62
     2
100
AcDbText
 10
1237.391876
 20
2246.279388
 30
0.0
 40
45.0
  1
　　（最高水圧０.７５ＭＰａ｛７.６ｋｇ
 41
0.659596
  7
EXCADSTD
 72
     5
 11
1930.891894
 21
2246.279388
 31
0.0
100
AcDbText
  0
ENDSEC
  0
SECTION
  2
OBJECTS
  0
DICTIONARY
  5
19
100
AcDbDictionary
  3
ACAD_GROUP
350
1A
  3
ACAD_MLINESTYLE
350
1B
  0
DICTIONARY
  5
1A
102
{ACAD_REACTORS
330
19
102
}
100
AcDbDictionary
  0
DICTIONARY
  5
1B
102
{ACAD_REACTORS
330
19
102
}
100
AcDbDictionary
  3
STANDARD
350
1C
  0
MLINESTYLE
  5
1C
102
{ACAD_REACTORS
330
1B
102
}
100
AcDbMlineStyle
  2
Standard
 70
     0
  3

 62
     0
 51
90.0
 52
90.0
 71
     2
 49
0.5
 62
   256
  6
ByLayer
 49
-0.5
 62
   256
  6
ByLayer
  0
ENDSEC
  0
EOF
