  0
SECTION
  2
HEADER
  9
$ACADVER
  1
AC1014
  9
$ACADMAINTVER
 70
     0
  9
$DWGCODEPAGE
  3
ANSI_932
  9
$INSBASE
 10
0.0
 20
0.0
 30
0.0
  9
$EXTMIN
 10
-2.1
 20
11.5
 30
0.0
  9
$EXTMAX
 10
199.9
 20
291.5
 30
0.0
  9
$LIMMIN
 10
0.0
 20
0.0
  9
$LIMMAX
 10
210.0
 20
297.0
  9
$ORTHOMODE
 70
     0
  9
$REGENMODE
 70
     1
  9
$FILLMODE
 70
     1
  9
$QTEXTMODE
 70
     0
  9
$MIRRTEXT
 70
     1
  9
$DRAGMODE
 70
     2
  9
$LTSCALE
 40
1.0
  9
$OSMODE
 70
     0
  9
$ATTMODE
 70
     1
  9
$TEXTSIZE
 40
0.2
  9
$TRACEWID
 40
0.05
  9
$TEXTSTYLE
  7
STANDARD
  9
$CLAYER
  8
洗面器
  9
$CELTYPE
  6
CONTINUOUS
  9
$CECOLOR
 62
   256
  9
$CELTSCALE
 40
1.0
  9
$DELOBJ
 70
     1
  9
$DISPSILH
 70
     0
  9
$DIMSCALE
 40
1.0
  9
$DIMASZ
 40
0.18
  9
$DIMEXO
 40
0.0625
  9
$DIMDLI
 40
0.38
  9
$DIMRND
 40
0.0
  9
$DIMDLE
 40
0.0
  9
$DIMEXE
 40
0.18
  9
$DIMTP
 40
0.0
  9
$DIMTM
 40
0.0
  9
$DIMTXT
 40
0.18
  9
$DIMCEN
 40
0.09
  9
$DIMTSZ
 40
0.0
  9
$DIMTOL
 70
     0
  9
$DIMLIM
 70
     0
  9
$DIMTIH
 70
     1
  9
$DIMTOH
 70
     1
  9
$DIMSE1
 70
     0
  9
$DIMSE2
 70
     0
  9
$DIMTAD
 70
     0
  9
$DIMZIN
 70
     0
  9
$DIMBLK
  1

  9
$DIMASO
 70
     1
  9
$DIMSHO
 70
     1
  9
$DIMPOST
  1

  9
$DIMAPOST
  1

  9
$DIMALT
 70
     0
  9
$DIMALTD
 70
     2
  9
$DIMALTF
 40
25.4
  9
$DIMLFAC
 40
1.0
  9
$DIMTOFL
 70
     0
  9
$DIMTVP
 40
0.0
  9
$DIMTIX
 70
     0
  9
$DIMSOXD
 70
     0
  9
$DIMSAH
 70
     0
  9
$DIMBLK1
  1

  9
$DIMBLK2
  1

  9
$DIMSTYLE
  2
STANDARD
  9
$DIMCLRD
 70
     0
  9
$DIMCLRE
 70
     0
  9
$DIMCLRT
 70
     0
  9
$DIMTFAC
 40
1.0
  9
$DIMGAP
 40
0.09
  9
$DIMJUST
 70
     0
  9
$DIMSD1
 70
     0
  9
$DIMSD2
 70
     0
  9
$DIMTOLJ
 70
     1
  9
$DIMTZIN
 70
     0
  9
$DIMALTZ
 70
     0
  9
$DIMALTTZ
 70
     0
  9
$DIMFIT
 70
     3
  9
$DIMUPT
 70
     0
  9
$DIMUNIT
 70
     2
  9
$DIMDEC
 70
     4
  9
$DIMTDEC
 70
     4
  9
$DIMALTU
 70
     2
  9
$DIMALTTD
 70
     2
  9
$DIMTXSTY
  7
STANDARD
  9
$DIMAUNIT
 70
     0
  9
$LUNITS
 70
     2
  9
$LUPREC
 70
     4
  9
$SKETCHINC
 40
0.1
  9
$FILLETRAD
 40
0.0
  9
$AUNITS
 70
     0
  9
$AUPREC
 70
     0
  9
$MENU
  1
acad
  9
$ELEVATION
 40
0.0
  9
$PELEVATION
 40
0.0
  9
$THICKNESS
 40
0.0
  9
$LIMCHECK
 70
     0
  9
$BLIPMODE
 70
     1
  9
$CHAMFERA
 40
0.0
  9
$CHAMFERB
 40
0.0
  9
$CHAMFERC
 40
0.0
  9
$CHAMFERD
 40
0.0
  9
$SKPOLY
 70
     0
  9
$TDCREATE
 40
2456674.401463831
  9
$TDUPDATE
 40
2456674.401463831
  9
$TDINDWG
 40
0.0000000000
  9
$TDUSRTIMER
 40
0.0000000000
  9
$USRTIMER
 70
     1
  9
$ANGBASE
 50
0.0
  9
$ANGDIR
 70
     0
  9
$PDMODE
 70
     0
  9
$PDSIZE
 40
0.0
  9
$PLINEWID
 40
0.0
  9
$COORDS
 70
     1
  9
$SPLFRAME
 70
     0
  9
$SPLINETYPE
 70
     6
  9
$SPLINESEGS
 70
     8
  9
$ATTDIA
 70
     0
  9
$ATTREQ
 70
     1
  9
$HANDLING
 70
     1
  9
$HANDSEED
  5
2E8
  9
$SURFTAB1
 70
     6
  9
$SURFTAB2
 70
     6
  9
$SURFTYPE
 70
     6
  9
$SURFU
 70
     6
  9
$SURFV
 70
     6
  9
$UCSNAME
  2

  9
$UCSORG
 10
0.0
 20
0.0
 30
0.0
  9
$UCSXDIR
 10
1.0
 20
0.0
 30
0.0
  9
$UCSYDIR
 10
0.0
 20
1.0
 30
0.0
  9
$PUCSNAME
  2

  9
$PUCSORG
 10
0.0
 20
0.0
 30
0.0
  9
$PUCSXDIR
 10
1.0
 20
0.0
 30
0.0
  9
$PUCSYDIR
 10
0.0
 20
1.0
 30
0.0
  9
$USERI1
 70
     0
  9
$USERI2
 70
     0
  9
$USERI3
 70
     0
  9
$USERI4
 70
     0
  9
$USERI5
 70
     0
  9
$USERR1
 40
0.0
  9
$USERR2
 40
0.0
  9
$USERR3
 40
0.0
  9
$USERR4
 40
0.0
  9
$USERR5
 40
0.0
  9
$WORLDVIEW
 70
     1
  9
$SHADEDGE
 70
     3
  9
$SHADEDIF
 70
    70
  9
$TILEMODE
 70
     1
  9
$MAXACTVP
 70
    16
  9
$PINSBASE
 10
0.0
 20
0.0
 30
0.0
  9
$PLIMCHECK
 70
     0
  9
$PEXTMIN
 10
1.000000E+20
 20
1.000000E+20
 30
1.000000E+20
  9
$PEXTMAX
 10
-1.000000E+20
 20
-1.000000E+20
 30
-1.000000E+20
  9
$PLIMMIN
 10
0.0
 20
0.0
  9
$PLIMMAX
 10
12.0
 20
9.0
  9
$UNITMODE
 70
     0
  9
$VISRETAIN
 70
     0
  9
$PLINEGEN
 70
     1
  9
$PSLTSCALE
 70
     0
  9
$TREEDEPTH
 70
  3020
  9
$PICKSTYLE
 70
     1
  9
$CMLSTYLE
  2
Standard
  9
$CMLJUST
 70
     0
  9
$CMLSCALE
 40
1.0
  9
$PROXYGRAPHICS
 70
     0
  9
$MEASUREMENT
 70
     0
  0
ENDSEC
  0
SECTION
  2
CLASSES
  0
CLASS
  1
LWPOLYLINE
  2
AcDbPolyline
  3
"AutoCAD"
 90
        0
280
     0
281
     1
  0
CLASS
  1
IMAGE
  2
AcDbRasterImage
  3
ISM
 90
      127
280
     0
281
     1
  0
CLASS
  1
OLE2FRAME
  2
AcDbOle2Frame
  3
""
 90
        0
280
     0
281
     1
  0
CLASS
  1
HATCH
  2
AcDbHatch
  3
"ACAD_SEDONA"
 90
        0
280
     0
281
     1
  0
CLASS
  1
DICTIONARYVAR
  2
AcDbDictionaryVar
  3
"AutoCAD"
 90
        0
280
     0
281
     0
  0
CLASS
  1
RASTERVARIABLES
  2
AcDbRasterVariables
  3
ISM
 90
        0
280
     0
281
     0
  0
CLASS
  1
IMAGEDEF
  2
AcDbRasterImageDef
  3
ISM
 90
        0
280
     0
281
     0
  0
CLASS
  1
IMAGEDEF_REACTOR
  2
AcDbRasterImageDefReactor
  3
ISM
 90
        1
280
     0
281
     0
  0
CLASS
  1
IDBUFFER
  2
AcDbIdBuffer
  3
"Acad"
 90
        0
280
     0
281
     0
  0
CLASS
  1
SPATIAL_FILTER
  2
AcDbSpatialFilter
  3
"Acad"
 90
        0
280
     0
281
     0
  0
CLASS
  1
XRECORD
  2
AcDbXrecord
  3
"<Built In>"
 90
        0
280
     0
281
     0
  0
CLASS
  1
SORTENTSTABLE
  2
AcDbSortentsTable
  3
"AutoCAD"
 90
        0
280
     0
281
     0
  0
CLASS
  1
LAYER_INDEX
  2
AcDbLayerIndex
  3
"Acad"
 90
        0
280
     0
281
     0
  0
CLASS
  1
SPATIAL_INDEX
  2
AcDbSpatialIndex
  3
"Acad"
 90
        0
280
     0
281
     0
  0
CLASS
  1
OBJECT_PTR
  2
CAseDLPNTableRecord
  3
"ASE-LPNTableRecord"
 90
        1
280
     0
281
     0
  0
CLASS
  1
LAYOUT
  2
AcDbLayout
  3
"AutoCAD 2000"
 90
        1
280
     0
281
     0
  0
CLASS
  1
PLOTSETTINGS
  2
AcDbPlotSettings
  3
"AutoCAD 2000"
 90
        1
280
     0
281
     0
  0
CLASS
  1
ACDBDICTIONARYWDFLT
  2
AcDbDictionaryWithDefault
  3
"AutoCAD 2000"
 90
        1
280
     0
281
     0
  0
CLASS
  1
ACDBPLACEHOLDER
  2
AcDbPlaceHolder
  3
"AutoCAD 2000"
 90
        1
280
     0
281
     0
  0
CLASS
  1
VBA_PROJECT
  2
AcDbVbaProject
  3
"acadvba"
 90
        1
280
     0
281
     0
  0
CLASS
  1
WIPEOUT
  2
AcDbWipeout
  3
WipeOut|AutoCAD Express Tool|expresstools@autodesk.com
 90
      127
280
     0
281
     1
  0
CLASS
  1
WIPEOUTVARIABLES
  2
AcDbWipeoutVariables
  3
WipeOut|AutoCAD Express Tool|expresstools@autodesk.com
 90
        0
280
     0
281
     0
  0
CLASS
  1
RTEXT
  2
RText
  3
RText|AutoCAD Express Tool|expresstools@autodesk.com
 90
        0
280
     0
281
     1
  0
CLASS
  1
ARCALIGNEDTEXT
  2
AcDbArcAlignedText
  3
ATEXT|AutoCAD Express Tool|expresstools@autodesk.com
 90
        0
280
     0
281
     1
  0
ENDSEC
  0
SECTION
  2
TABLES
  0
TABLE
  2
VPORT
  5
7
100
AcDbSymbolTable
 70
     1
  0
VPORT
  5
15
100
AcDbSymbolTableRecord
100
AcDbViewportTableRecord
  2
*ACTIVE
 70
     0
 10
0.0
 20
0.0
 11
1.0
 21
1.0
 12
989.0
 22
1515.0
 13
0.0
 23
0.0
 14
1.0
 24
1.0
 15
0.0
 25
0.0
 16
0.0
 26
0.0
 36
1.0
 17
0.0
 27
0.0
 37
0.0
 40
2800.0
 41
1.722533
 42
50.0
 43
0.0
 44
0.0
 50
0.0
 51
0.0
 71
     0
 72
   100
 73
     1
 74
     1
 75
     0
 76
     0
 77
     0
 78
     0
  0
ENDTAB
  0
TABLE
  2
LTYPE
  5
4
100
AcDbSymbolTable
 70
     9
  0
LTYPE
  5
11
100
AcDbSymbolTableRecord
100
AcDbLinetypeTableRecord
  2
BYBLOCK
 70
    64
  3

 72
    65
 73
     0
 40
0.0
  0
LTYPE
  5
12
100
AcDbSymbolTableRecord
100
AcDbLinetypeTableRecord
  2
BYLAYER
 70
    64
  3

 72
    65
 73
     0
 40
0.0
  0
LTYPE
  5
13
100
AcDbSymbolTableRecord
100
AcDbLinetypeTableRecord
  2
CONTINUOUS
 70
    64
  3
実線
 72
    65
 73
     0
 40
0.0
  0
LTYPE
  5
1D
100
AcDbSymbolTableRecord
100
AcDbLinetypeTableRecord
  2
EXLTYPE1
 70
    64
  3
破線
 72
    65
 73
     2
 40
3.0
 49
2.0
 74
     0
 49
-1.0
 74
     0
  0
LTYPE
  5
1E
100
AcDbSymbolTableRecord
100
AcDbLinetypeTableRecord
  2
EXLTYPE2
 70
    64
  3
点線
 72
    65
 73
     2
 40
2.0
 49
1.0
 74
     0
 49
-1.0
 74
     0
  0
LTYPE
  5
1F
100
AcDbSymbolTableRecord
100
AcDbLinetypeTableRecord
  2
EXLTYPE3
 70
    64
  3
一点鎖線
 72
    65
 73
     4
 40
10.0
 49
7.0
 74
     0
 49
-1.0
 74
     0
 49
1.0
 74
     0
 49
-1.0
 74
     0
  0
LTYPE
  5
20
100
AcDbSymbolTableRecord
100
AcDbLinetypeTableRecord
  2
EXLTYPE4
 70
    64
  3
二点鎖線
 72
    65
 73
     6
 40
12.0
 49
7.0
 74
     0
 49
-1.0
 74
     0
 49
1.0
 74
     0
 49
-1.0
 74
     0
 49
1.0
 74
     0
 49
-1.0
 74
     0
  0
LTYPE
  5
21
100
AcDbSymbolTableRecord
100
AcDbLinetypeTableRecord
  2
EXLTYPE5
 70
    64
  3
三点鎖線
 72
    65
 73
     8
 40
37.0
 49
30.0
 74
     0
 49
-1.0
 74
     0
 49
1.0
 74
     0
 49
-1.0
 74
     0
 49
1.0
 74
     0
 49
-1.0
 74
     0
 49
1.0
 74
     0
 49
-1.0
 74
     0
  0
LTYPE
  5
22
100
AcDbSymbolTableRecord
100
AcDbLinetypeTableRecord
  2
EXLTYPE6
 70
    64
  3
四点鎖線
 72
    65
 73
    10
 40
39.0
 49
30.0
 74
     0
 49
-1.0
 74
     0
 49
1.0
 74
     0
 49
-1.0
 74
     0
 49
1.0
 74
     0
 49
-1.0
 74
     0
 49
1.0
 74
     0
 49
-1.0
 74
     0
 49
1.0
 74
     0
 49
-1.0
 74
     0
  0
ENDTAB
  0
TABLE
  2
LAYER
  5
2
100
AcDbSymbolTable
 70
     7
  0
LAYER
  5
14
100
AcDbSymbolTableRecord
100
AcDbLayerTableRecord
  2
0
 70
     0
 62
     7
  6
CONTINUOUS
  0
LAYER
  5
25
100
AcDbSymbolTableRecord
100
AcDbLayerTableRecord
  2
枠
 70
    64
 62
     7
  6
CONTINUOUS
  0
LAYER
  5
26
100
AcDbSymbolTableRecord
100
AcDbLayerTableRecord
  2
洗面器
 70
    64
 62
     7
  6
CONTINUOUS
  0
LAYER
  5
27
100
AcDbSymbolTableRecord
100
AcDbLayerTableRecord
  2
水栓
 70
    64
 62
     7
  6
CONTINUOUS
  0
LAYER
  5
28
100
AcDbSymbolTableRecord
100
AcDbLayerTableRecord
  2
トラップ
 70
    64
 62
     7
  6
CONTINUOUS
  0
LAYER
  5
29
100
AcDbSymbolTableRecord
100
AcDbLayerTableRecord
  2
寸法
 70
    64
 62
     7
  6
CONTINUOUS
  0
LAYER
  5
2A
100
AcDbSymbolTableRecord
100
AcDbLayerTableRecord
  2
器具明細表
 70
    64
 62
     7
  6
CONTINUOUS
  0
ENDTAB
  0
TABLE
  2
STYLE
  5
3
100
AcDbSymbolTable
 70
     4
  0
STYLE
  5
17
100
AcDbSymbolTableRecord
100
AcDbTextStyleTableRecord
  2
STANDARD
 70
     0
 40
0.0
 41
1.0
 50
0.0
 71
     0
 42
0.0
  3
monotxt
  4
extfont
  0
STYLE
  5
23
100
AcDbSymbolTableRecord
100
AcDbTextStyleTableRecord
  2
EXCADSTD
 70
    64
 40
0.0
 41
1.0
 50
0.0
 71
     0
 42
0.2
  3
monotxt
  4
extfont
  0
STYLE
  5
24
100
AcDbSymbolTableRecord
100
AcDbTextStyleTableRecord
  2
EXCADVERT
 70
    68
 40
0.0
 41
1.0
 50
0.0
 71
     0
 42
0.286885
  3
monotxt
  4
extfont
  0
STYLE
  5
B1
100
AcDbSymbolTableRecord
100
AcDbTextStyleTableRecord
  2
EXCADTTF1
 70
    64
 40
0.0
 41
1.0
 50
0.0
 71
     0
 42
0.2
  3
MS Gothic.ttf
  4

1001
ACAD
1000
MS Gothic
1071
    32817
  0
ENDTAB
  0
TABLE
  2
VIEW
  5
5
100
AcDbSymbolTable
 70
     0
  0
ENDTAB
  0
TABLE
  2
UCS
  5
6
100
AcDbSymbolTable
 70
     0
  0
ENDTAB
  0
TABLE
  2
APPID
  5
8
100
AcDbSymbolTable
 70
     1
  0
APPID
  5
16
100
AcDbSymbolTableRecord
100
AcDbRegAppTableRecord
  2
ACAD
 70
     0
  0
ENDTAB
  0
TABLE
  2
DIMSTYLE
  5
9
100
AcDbSymbolTable
 70
     1
  0
DIMSTYLE
105
18
100
AcDbSymbolTableRecord
100
AcDbDimStyleTableRecord
  2
STANDARD
 70
     0
  3

  4

  5

  6

  7

 40
1.0
 41
0.18
 42
0.0625
 43
0.38
 44
0.18
 45
0.0
 46
0.0
 47
0.0
 48
0.0
 71
     0
 72
     0
 73
     1
 74
     1
 75
     0
 76
     0
 77
     0
 78
     0
140
0.18
141
0.09
142
0.0
143
25.4
144
1.0
145
0.0
146
1.0
147
0.09
170
     0
171
     2
172
     1
173
     0
174
     0
175
     0
176
     0
177
     0
178
     0
270
     2
271
     4
272
     4
273
     2
274
     2
275
     0
280
     0
281
     0
282
     0
283
     1
284
     0
285
     0
286
     0
287
     0
288
     0
340
17
  0
ENDTAB
  0
TABLE
  2
BLOCK_RECORD
  5
1
100
AcDbSymbolTable
 70
    14
  0
BLOCK_RECORD
  5
A
100
AcDbSymbolTableRecord
100
AcDbBlockTableRecord
  2
*MODEL_SPACE
  0
BLOCK_RECORD
  5
B
100
AcDbSymbolTableRecord
100
AcDbBlockTableRecord
  2
*PAPER_SPACE
  0
BLOCK_RECORD
  5
2B
100
AcDbSymbolTableRecord
100
AcDbBlockTableRecord
  2
_EX_NORM
  0
BLOCK_RECORD
  5
2C
100
AcDbSymbolTableRecord
100
AcDbBlockTableRecord
  2
_EX_BNORM
  0
BLOCK_RECORD
  5
2D
100
AcDbSymbolTableRecord
100
AcDbBlockTableRecord
  2
_EX_BCIR
  0
BLOCK_RECORD
  5
2E
100
AcDbSymbolTableRecord
100
AcDbBlockTableRecord
  2
_EX_RCIVIL
  0
BLOCK_RECORD
  5
2F
100
AcDbSymbolTableRecord
100
AcDbBlockTableRecord
  2
_EX_SLANT
  0
BLOCK_RECORD
  5
30
100
AcDbSymbolTableRecord
100
AcDbBlockTableRecord
  2
_EX_NONE
  0
BLOCK_RECORD
  5
31
100
AcDbSymbolTableRecord
100
AcDbBlockTableRecord
  2
_EX_CIVIL
  0
BLOCK_RECORD
  5
32
100
AcDbSymbolTableRecord
100
AcDbBlockTableRecord
  2
_EX_WCIR
  0
BLOCK_RECORD
  5
33
100
AcDbSymbolTableRecord
100
AcDbBlockTableRecord
  2
_EX_WCIR2
  0
BLOCK_RECORD
  5
34
100
AcDbSymbolTableRecord
100
AcDbBlockTableRecord
  2
_EX_WNORM
  0
BLOCK_RECORD
  5
35
100
AcDbSymbolTableRecord
100
AcDbBlockTableRecord
  2
_EX_NNORM
  0
BLOCK_RECORD
  5
36
100
AcDbSymbolTableRecord
100
AcDbBlockTableRecord
  2
_EX_BBOX
  0
BLOCK_RECORD
  5
37
100
AcDbSymbolTableRecord
100
AcDbBlockTableRecord
  2
_EX_WBOX
  0
BLOCK_RECORD
  5
38
100
AcDbSymbolTableRecord
100
AcDbBlockTableRecord
  2
_EX_INTEGRAL
  0
ENDTAB
  0
ENDSEC
  0
SECTION
  2
BLOCKS
  0
BLOCK
  5
D
100
AcDbEntity
  8
0
100
AcDbBlockBegin
  2
*MODEL_SPACE
 70
     0
 10
0.0
 20
0.0
 30
0.0
  3
*MODEL_SPACE
  1

  0
ENDBLK
  5
E
100
AcDbEntity
  8
0
100
AcDbBlockEnd
  0
BLOCK
  5
F
100
AcDbEntity
 67
     1
  8
0
100
AcDbBlockBegin
  2
*PAPER_SPACE
 70
     0
 10
0.0
 20
0.0
 30
0.0
  3
*PAPER_SPACE
  1

  0
ENDBLK
  5
10
100
AcDbEntity
 67
     1
  8
0
100
AcDbBlockEnd
  0
BLOCK
  5
39
100
AcDbEntity
  8
0
100
AcDbBlockBegin
  2
_EX_NORM
 70
     0
 10
0.0
 20
0.0
 30
0.0
  3
_EX_NORM
  1

  0
LINE
  5
3A
100
AcDbEntity
  8
0
  6
CONTINUOUS
 62
     0
100
AcDbLine
 10
0.0
 20
0.0
 30
0.0
 11
-1.0
 21
0.0
 31
0.0
  0
LINE
  5
3B
100
AcDbEntity
  8
0
  6
CONTINUOUS
 62
     0
100
AcDbLine
 10
0.0
 20
0.0
 30
0.0
 11
-1.0
 21
0.166667
 31
0.0
  0
LINE
  5
3C
100
AcDbEntity
  8
0
  6
CONTINUOUS
 62
     0
100
AcDbLine
 10
0.0
 20
0.0
 30
0.0
 11
-1.0
 21
-0.166667
 31
0.0
  0
ENDBLK
  5
3D
100
AcDbEntity
  8
0
100
AcDbBlockEnd
  0
BLOCK
  5
3E
100
AcDbEntity
  8
0
100
AcDbBlockBegin
  2
_EX_BNORM
 70
     0
 10
0.0
 20
0.0
 30
0.0
  3
_EX_BNORM
  1

  0
LINE
  5
3F
100
AcDbEntity
  8
0
  6
CONTINUOUS
 62
     0
100
AcDbLine
 10
0.0
 20
0.0
 30
0.0
 11
-1.0
 21
0.0
 31
0.0
  0
LINE
  5
40
100
AcDbEntity
  8
0
  6
CONTINUOUS
 62
     0
100
AcDbLine
 10
0.0
 20
0.0
 30
0.0
 11
-1.0
 21
0.166667
 31
0.0
  0
LINE
  5
41
100
AcDbEntity
  8
0
  6
CONTINUOUS
 62
     0
100
AcDbLine
 10
0.0
 20
0.0
 30
0.0
 11
-1.0
 21
-0.166667
 31
0.0
  0
LINE
  5
42
100
AcDbEntity
  8
0
  6
CONTINUOUS
 62
     0
100
AcDbLine
 10
0.0
 20
0.0
 30
0.0
 11
-1.0
 21
0.083333
 31
0.0
  0
LINE
  5
43
100
AcDbEntity
  8
0
  6
CONTINUOUS
 62
     0
100
AcDbLine
 10
0.0
 20
0.0
 30
0.0
 11
-1.0
 21
-0.083333
 31
0.0
  0
LINE
  5
44
100
AcDbEntity
  8
0
  6
CONTINUOUS
 62
     0
100
AcDbLine
 10
-1.0
 20
0.166667
 30
0.0
 11
-1.0
 21
-0.166667
 31
0.0
  0
ENDBLK
  5
45
100
AcDbEntity
  8
0
100
AcDbBlockEnd
  0
BLOCK
  5
46
100
AcDbEntity
  8
0
100
AcDbBlockBegin
  2
_EX_BCIR
 70
     0
 10
0.0
 20
0.0
 30
0.0
  3
_EX_BCIR
  1

  0
LINE
  5
47
100
AcDbEntity
  8
0
  6
CONTINUOUS
 62
     0
100
AcDbLine
 10
0.0
 20
0.0
 30
0.0
 11
-1.0
 21
0.0
 31
0.0
  0
CIRCLE
  5
48
100
AcDbEntity
  8
0
  6
CONTINUOUS
 62
     0
100
AcDbCircle
 10
0.0
 20
0.0
 30
0.0
 40
0.5
  0
CIRCLE
  5
49
100
AcDbEntity
  8
0
  6
CONTINUOUS
 62
     0
100
AcDbCircle
 10
0.0
 20
0.0
 30
0.0
 40
0.25
  0
ENDBLK
  5
4A
100
AcDbEntity
  8
0
100
AcDbBlockEnd
  0
BLOCK
  5
4B
100
AcDbEntity
  8
0
100
AcDbBlockBegin
  2
_EX_RCIVIL
 70
     0
 10
0.0
 20
0.0
 30
0.0
  3
_EX_RCIVIL
  1

  0
LINE
  5
4C
100
AcDbEntity
  8
0
  6
CONTINUOUS
 62
     0
100
AcDbLine
 10
0.0
 20
0.0
 30
0.0
 11
-1.0
 21
0.0
 31
0.0
  0
LINE
  5
4D
100
AcDbEntity
  8
0
  6
CONTINUOUS
 62
     0
100
AcDbLine
 10
-1.0
 20
-0.25
 30
0.0
 11
0.0
 21
-0.25
 31
0.0
  0
LINE
  5
4E
100
AcDbEntity
  8
0
  6
CONTINUOUS
 62
     0
100
AcDbLine
 10
-1.0
 20
-0.125
 30
0.0
 11
0.0
 21
-0.125
 31
0.0
  0
ENDBLK
  5
4F
100
AcDbEntity
  8
0
100
AcDbBlockEnd
  0
BLOCK
  5
50
100
AcDbEntity
  8
0
100
AcDbBlockBegin
  2
_EX_SLANT
 70
     0
 10
0.0
 20
0.0
 30
0.0
  3
_EX_SLANT
  1

  0
LINE
  5
51
100
AcDbEntity
  8
0
  6
CONTINUOUS
 62
     0
100
AcDbLine
 10
0.0
 20
0.0
 30
0.0
 11
-1.0
 21
0.0
 31
0.0
  0
LINE
  5
52
100
AcDbEntity
  8
0
  6
CONTINUOUS
 62
     0
100
AcDbLine
 10
0.707107
 20
0.707107
 30
0.0
 11
-0.707107
 21
-0.707107
 31
0.0
  0
ENDBLK
  5
53
100
AcDbEntity
  8
0
100
AcDbBlockEnd
  0
BLOCK
  5
54
100
AcDbEntity
  8
0
100
AcDbBlockBegin
  2
_EX_NONE
 70
     0
 10
0.0
 20
0.0
 30
0.0
  3
_EX_NONE
  1

  0
LINE
  5
55
100
AcDbEntity
  8
0
  6
CONTINUOUS
 62
     0
100
AcDbLine
 10
0.0
 20
0.0
 30
0.0
 11
-1.0
 21
0.0
 31
0.0
  0
ENDBLK
  5
56
100
AcDbEntity
  8
0
100
AcDbBlockEnd
  0
BLOCK
  5
57
100
AcDbEntity
  8
0
100
AcDbBlockBegin
  2
_EX_CIVIL
 70
     0
 10
0.0
 20
0.0
 30
0.0
  3
_EX_CIVIL
  1

  0
LINE
  5
58
100
AcDbEntity
  8
0
  6
CONTINUOUS
 62
     0
100
AcDbLine
 10
0.0
 20
0.0
 30
0.0
 11
-1.0
 21
0.0
 31
0.0
  0
LINE
  5
59
100
AcDbEntity
  8
0
  6
CONTINUOUS
 62
     0
100
AcDbLine
 10
-1.0
 20
0.25
 30
0.0
 11
0.0
 21
0.25
 31
0.0
  0
LINE
  5
5A
100
AcDbEntity
  8
0
  6
CONTINUOUS
 62
     0
100
AcDbLine
 10
-1.0
 20
0.125
 30
0.0
 11
0.0
 21
0.125
 31
0.0
  0
ENDBLK
  5
5B
100
AcDbEntity
  8
0
100
AcDbBlockEnd
  0
BLOCK
  5
5C
100
AcDbEntity
  8
0
100
AcDbBlockBegin
  2
_EX_WCIR
 70
     0
 10
0.0
 20
0.0
 30
0.0
  3
_EX_WCIR
  1

  0
LINE
  5
5D
100
AcDbEntity
  8
0
  6
CONTINUOUS
 62
     0
100
AcDbLine
 10
0.0
 20
0.0
 30
0.0
 11
-1.0
 21
0.0
 31
0.0
  0
CIRCLE
  5
5E
100
AcDbEntity
  8
0
  6
CONTINUOUS
 62
     0
100
AcDbCircle
 10
0.0
 20
0.0
 30
0.0
 40
0.5
  0
ENDBLK
  5
5F
100
AcDbEntity
  8
0
100
AcDbBlockEnd
  0
BLOCK
  5
60
100
AcDbEntity
  8
0
100
AcDbBlockBegin
  2
_EX_WCIR2
 70
     0
 10
0.0
 20
0.0
 30
0.0
  3
_EX_WCIR2
  1

  0
LINE
  5
61
100
AcDbEntity
  8
0
  6
CONTINUOUS
 62
     0
100
AcDbLine
 10
-0.5
 20
0.0
 30
0.0
 11
-1.0
 21
0.0
 31
0.0
  0
CIRCLE
  5
62
100
AcDbEntity
  8
0
  6
CONTINUOUS
 62
     0
100
AcDbCircle
 10
0.0
 20
0.0
 30
0.0
 40
0.5
  0
ENDBLK
  5
63
100
AcDbEntity
  8
0
100
AcDbBlockEnd
  0
BLOCK
  5
64
100
AcDbEntity
  8
0
100
AcDbBlockBegin
  2
_EX_WNORM
 70
     0
 10
0.0
 20
0.0
 30
0.0
  3
_EX_WNORM
  1

  0
LINE
  5
65
100
AcDbEntity
  8
0
  6
CONTINUOUS
 62
     0
100
AcDbLine
 10
-1.0
 20
0.0
 30
0.0
 11
-1.0
 21
0.0
 31
0.0
  0
LINE
  5
66
100
AcDbEntity
  8
0
  6
CONTINUOUS
 62
     0
100
AcDbLine
 10
0.0
 20
0.0
 30
0.0
 11
-1.0
 21
0.166667
 31
0.0
  0
LINE
  5
67
100
AcDbEntity
  8
0
  6
CONTINUOUS
 62
     0
100
AcDbLine
 10
0.0
 20
0.0
 30
0.0
 11
-1.0
 21
-0.166667
 31
0.0
  0
LINE
  5
68
100
AcDbEntity
  8
0
  6
CONTINUOUS
 62
     0
100
AcDbLine
 10
-1.0
 20
0.166667
 30
0.0
 11
-1.0
 21
-0.166667
 31
0.0
  0
ENDBLK
  5
69
100
AcDbEntity
  8
0
100
AcDbBlockEnd
  0
BLOCK
  5
6A
100
AcDbEntity
  8
0
100
AcDbBlockBegin
  2
_EX_NNORM
 70
     0
 10
0.0
 20
0.0
 30
0.0
  3
_EX_NNORM
  1

  0
LINE
  5
6B
100
AcDbEntity
  8
0
  6
CONTINUOUS
 62
     0
100
AcDbLine
 10
0.0
 20
0.0
 30
0.0
 11
-1.0
 21
0.0
 31
0.0
  0
LINE
  5
6C
100
AcDbEntity
  8
0
  6
CONTINUOUS
 62
     0
100
AcDbLine
 10
0.0
 20
0.0
 30
0.0
 11
-1.0
 21
0.166667
 31
0.0
  0
LINE
  5
6D
100
AcDbEntity
  8
0
  6
CONTINUOUS
 62
     0
100
AcDbLine
 10
0.0
 20
0.0
 30
0.0
 11
-1.0
 21
-0.166667
 31
0.0
  0
LINE
  5
6E
100
AcDbEntity
  8
0
  6
CONTINUOUS
 62
     0
100
AcDbLine
 10
-1.0
 20
0.166667
 30
0.0
 11
-1.0
 21
-0.166667
 31
0.0
  0
ENDBLK
  5
6F
100
AcDbEntity
  8
0
100
AcDbBlockEnd
  0
BLOCK
  5
70
100
AcDbEntity
  8
0
100
AcDbBlockBegin
  2
_EX_BBOX
 70
     0
 10
0.0
 20
0.0
 30
0.0
  3
_EX_BBOX
  1

  0
LINE
  5
71
100
AcDbEntity
  8
0
  6
CONTINUOUS
 62
     0
100
AcDbLine
 10
0.0
 20
0.0
 30
0.0
 11
-1.0
 21
0.0
 31
0.0
  0
LINE
  5
72
100
AcDbEntity
  8
0
  6
CONTINUOUS
 62
     0
100
AcDbLine
 10
-0.5
 20
0.5
 30
0.0
 11
0.5
 21
0.5
 31
0.0
  0
LINE
  5
73
100
AcDbEntity
  8
0
  6
CONTINUOUS
 62
     0
100
AcDbLine
 10
0.5
 20
0.5
 30
0.0
 11
0.5
 21
-0.5
 31
0.0
  0
LINE
  5
74
100
AcDbEntity
  8
0
  6
CONTINUOUS
 62
     0
100
AcDbLine
 10
0.5
 20
-0.5
 30
0.0
 11
-0.5
 21
-0.5
 31
0.0
  0
LINE
  5
75
100
AcDbEntity
  8
0
  6
CONTINUOUS
 62
     0
100
AcDbLine
 10
-0.5
 20
-0.5
 30
0.0
 11
-0.5
 21
0.5
 31
0.0
  0
LINE
  5
76
100
AcDbEntity
  8
0
  6
CONTINUOUS
 62
     0
100
AcDbLine
 10
-0.25
 20
0.25
 30
0.0
 11
0.25
 21
0.25
 31
0.0
  0
LINE
  5
77
100
AcDbEntity
  8
0
  6
CONTINUOUS
 62
     0
100
AcDbLine
 10
0.25
 20
0.25
 30
0.0
 11
0.25
 21
-0.25
 31
0.0
  0
LINE
  5
78
100
AcDbEntity
  8
0
  6
CONTINUOUS
 62
     0
100
AcDbLine
 10
0.25
 20
-0.25
 30
0.0
 11
-0.25
 21
-0.25
 31
0.0
  0
LINE
  5
79
100
AcDbEntity
  8
0
  6
CONTINUOUS
 62
     0
100
AcDbLine
 10
-0.25
 20
-0.25
 30
0.0
 11
-0.25
 21
0.25
 31
0.0
  0
ENDBLK
  5
7A
100
AcDbEntity
  8
0
100
AcDbBlockEnd
  0
BLOCK
  5
7B
100
AcDbEntity
  8
0
100
AcDbBlockBegin
  2
_EX_WBOX
 70
     0
 10
0.0
 20
0.0
 30
0.0
  3
_EX_WBOX
  1

  0
LINE
  5
7C
100
AcDbEntity
  8
0
  6
CONTINUOUS
 62
     0
100
AcDbLine
 10
-0.5
 20
0.0
 30
0.0
 11
-1.0
 21
0.0
 31
0.0
  0
LINE
  5
7D
100
AcDbEntity
  8
0
  6
CONTINUOUS
 62
     0
100
AcDbLine
 10
-0.5
 20
0.5
 30
0.0
 11
0.5
 21
0.5
 31
0.0
  0
LINE
  5
7E
100
AcDbEntity
  8
0
  6
CONTINUOUS
 62
     0
100
AcDbLine
 10
0.5
 20
0.5
 30
0.0
 11
0.5
 21
-0.5
 31
0.0
  0
LINE
  5
7F
100
AcDbEntity
  8
0
  6
CONTINUOUS
 62
     0
100
AcDbLine
 10
0.5
 20
-0.5
 30
0.0
 11
-0.5
 21
-0.5
 31
0.0
  0
LINE
  5
80
100
AcDbEntity
  8
0
  6
CONTINUOUS
 62
     0
100
AcDbLine
 10
-0.5
 20
-0.5
 30
0.0
 11
-0.5
 21
0.5
 31
0.0
  0
ENDBLK
  5
81
100
AcDbEntity
  8
0
100
AcDbBlockEnd
  0
BLOCK
  5
82
100
AcDbEntity
  8
0
100
AcDbBlockBegin
  2
_EX_INTEGRAL
 70
     0
 10
0.0
 20
0.0
 30
0.0
  3
_EX_INTEGRAL
  1

  0
LINE
  5
83
100
AcDbEntity
  8
0
  6
CONTINUOUS
 62
     0
100
AcDbLine
 10
0.0
 20
0.0
 30
0.0
 11
-1.0
 21
0.0
 31
0.0
  0
ARC
  5
84
100
AcDbEntity
  8
0
  6
CONTINUOUS
 62
     0
100
AcDbCircle
 10
0.542115
 20
0.164992
 30
0.0
 40
0.56667
100
AcDbArc
 50
73.07249
 51
196.927513
  0
ARC
  5
85
100
AcDbEntity
  8
0
  6
CONTINUOUS
 62
     0
100
AcDbCircle
 10
-0.542115
 20
-0.164992
 30
0.0
 40
0.56667
100
AcDbArc
 50
253.072487
 51
16.927513
  0
ENDBLK
  5
86
100
AcDbEntity
  8
0
100
AcDbBlockEnd
  0
ENDSEC
  0
SECTION
  2
ENTITIES
  0
TEXT
  5
87
100
AcDbEntity
  8
枠
  6
CONTINUOUS
 62
     2
100
AcDbText
 10
840.25
 20
243.75
 30
0.0
 40
62.5
  1
隅付小形手洗器
 41
0.9744
  7
EXCADSTD
 72
     5
 11
1347.75
 21
243.75
 31
0.0
100
AcDbText
  0
TEXT
  5
88
100
AcDbEntity
  8
枠
  6
CONTINUOUS
 62
     2
100
AcDbText
 10
1458.0
 20
243.75
 30
0.0
 40
62.5
  1
Ｌ９１
 41
0.83552
  7
EXCADSTD
 72
     5
 11
1644.5
 21
243.75
 31
0.0
100
AcDbText
  0
LINE
  5
89
100
AcDbEntity
  8
枠
  6
CONTINUOUS
 62
     7
100
AcDbLine
 10
179.0
 20
115.0
 30
0.0
 11
1999.0
 21
115.0
 31
0.0
  0
LINE
  5
8A
100
AcDbEntity
  8
枠
  6
CONTINUOUS
 62
     7
100
AcDbLine
 10
1999.0
 20
115.0
 30
0.0
 11
1999.0
 21
2915.0
 31
0.0
  0
LINE
  5
8B
100
AcDbEntity
  8
枠
  6
CONTINUOUS
 62
     7
100
AcDbLine
 10
179.0
 20
115.0
 30
0.0
 11
179.0
 21
2915.0
 31
0.0
  0
LINE
  5
8C
100
AcDbEntity
  8
枠
  6
CONTINUOUS
 62
     7
100
AcDbLine
 10
179.0
 20
2915.0
 30
0.0
 11
1999.0
 21
2915.0
 31
0.0
  0
LINE
  5
8D
100
AcDbEntity
  8
枠
  6
CONTINUOUS
 62
     7
100
AcDbLine
 10
179.0
 20
335.0
 30
0.0
 11
1999.0
 21
335.0
 31
0.0
  0
LINE
  5
8E
100
AcDbEntity
  8
枠
  6
CONTINUOUS
 62
     6
100
AcDbLine
 10
1999.0
 20
215.0
 30
0.0
 11
749.0
 21
215.0
 31
0.0
  0
LINE
  5
8F
100
AcDbEntity
  8
枠
  6
CONTINUOUS
 62
     6
100
AcDbLine
 10
1859.0
 20
335.0
 30
0.0
 11
1859.0
 21
215.0
 31
0.0
  0
LINE
  5
90
100
AcDbEntity
  8
枠
  6
CONTINUOUS
 62
     6
100
AcDbLine
 10
1809.0
 20
335.0
 30
0.0
 11
1809.0
 21
215.0
 31
0.0
  0
LINE
  5
91
100
AcDbEntity
  8
枠
  6
CONTINUOUS
 62
     6
100
AcDbLine
 10
1439.0
 20
335.0
 30
0.0
 11
1439.0
 21
115.0
 31
0.0
  0
LINE
  5
92
100
AcDbEntity
  8
枠
  6
CONTINUOUS
 62
     6
100
AcDbLine
 10
1389.0
 20
335.0
 30
0.0
 11
1389.0
 21
115.0
 31
0.0
  0
LINE
  5
93
100
AcDbEntity
  8
枠
  6
CONTINUOUS
 62
     6
100
AcDbLine
 10
799.0
 20
335.0
 30
0.0
 11
799.0
 21
215.0
 31
0.0
  0
LINE
  5
94
100
AcDbEntity
  8
枠
  6
CONTINUOUS
 62
     6
100
AcDbLine
 10
749.0
 20
335.0
 30
0.0
 11
749.0
 21
115.0
 31
0.0
  0
LINE
  5
95
100
AcDbEntity
  8
枠
  6
CONTINUOUS
 62
     6
100
AcDbLine
 10
619.0
 20
335.0
 30
0.0
 11
619.0
 21
115.0
 31
0.0
  0
LINE
  5
96
100
AcDbEntity
  8
枠
  6
CONTINUOUS
 62
     6
100
AcDbLine
 10
489.0
 20
335.0
 30
0.0
 11
489.0
 21
115.0
 31
0.0
  0
LINE
  5
97
100
AcDbEntity
  8
枠
  6
CONTINUOUS
 62
     6
100
AcDbLine
 10
334.0
 20
335.0
 30
0.0
 11
334.0
 21
115.0
 31
0.0
  0
LINE
  5
98
100
AcDbEntity
  8
枠
  6
CONTINUOUS
 62
     6
100
AcDbLine
 10
179.0
 20
285.0
 30
0.0
 11
749.0
 21
285.0
 31
0.0
  0
LINE
  5
99
100
AcDbEntity
  8
枠
  6
CONTINUOUS
 62
     6
100
AcDbLine
 10
1891.653809
 20
238.00293
 30
0.0
 11
1968.993897
 21
316.699829
 31
0.0
  0
LINE
  5
9A
100
AcDbEntity
  8
枠
  6
EXLTYPE2
 62
     6
100
AcDbLine
 10
179.0
 20
1515.0
 30
0.0
 11
-21.0
 21
1515.0
 31
0.0
  0
TEXT
  5
9B
100
AcDbEntity
  8
枠
  6
CONTINUOUS
 62
     2
100
AcDbText
 10
1889.537109
 20
282.722778
 30
0.0
 40
30.0
  1
１
 41
0.826
  7
EXCADSTD
 72
     5
 11
1913.13711
 21
282.722778
 31
0.0
100
AcDbText
  0
TEXT
  5
9C
100
AcDbEntity
  8
枠
  6
CONTINUOUS
 62
     2
100
AcDbText
 10
1930.279297
 20
238.348846
 30
0.0
 40
30.0
  1
１０
 41
0.791
  7
EXCADSTD
 72
     5
 11
1982.067198
 21
238.348846
 31
0.0
100
AcDbText
  0
TEXT
  5
9D
100
AcDbEntity
  8
枠
  6
CONTINUOUS
 62
     2
100
AcDbText
 10
201.5
 20
288.75
 30
0.0
 40
42.5
  1
製図
 41
1.087059
  7
EXCADSTD
 72
     5
 11
302.326
 21
288.75
 31
0.0
100
AcDbText
  0
TEXT
  5
9E
100
AcDbEntity
  8
枠
  6
CONTINUOUS
 62
     2
100
AcDbText
 10
356.5
 20
288.75
 30
0.0
 40
42.5
  1
写図
 41
1.087059
  7
EXCADSTD
 72
     5
 11
457.326
 21
288.75
 31
0.0
100
AcDbText
  0
TEXT
  5
9F
100
AcDbEntity
  8
枠
  6
CONTINUOUS
 62
     2
100
AcDbText
 10
506.5
 20
288.75
 30
0.0
 40
42.5
  1
検図
 41
0.938824
  7
EXCADSTD
 72
     5
 11
593.577
 21
288.75
 31
0.0
100
AcDbText
  0
TEXT
  5
A0
100
AcDbEntity
  8
枠
  6
CONTINUOUS
 62
     2
100
AcDbText
 10
636.5
 20
288.75
 30
0.0
 40
42.5
  1
承認
 41
0.938824
  7
EXCADSTD
 72
     5
 11
723.577
 21
288.75
 31
0.0
100
AcDbText
  0
TEXT
  5
A1
100
AcDbEntity
  8
枠
  6
CONTINUOUS
 62
     2
100
AcDbText
 10
752.75
 20
278.75
 30
0.0
 40
42.5
  1
品
 41
0.84
  7
EXCADSTD
 72
     5
 11
786.75
 21
278.75
 31
0.0
100
AcDbText
  0
TEXT
  5
A2
100
AcDbEntity
  8
枠
  6
CONTINUOUS
 62
     2
100
AcDbText
 10
752.75
 20
228.75
 30
0.0
 40
42.5
  1
名
 41
0.84
  7
EXCADSTD
 72
     5
 11
786.75
 21
228.75
 31
0.0
100
AcDbText
  0
TEXT
  5
A3
100
AcDbEntity
  8
枠
  6
CONTINUOUS
 62
     2
100
AcDbText
 10
1392.75
 20
278.75
 30
0.0
 40
42.5
  1
品
 41
0.84
  7
EXCADSTD
 72
     5
 11
1426.75
 21
278.75
 31
0.0
100
AcDbText
  0
TEXT
  5
A4
100
AcDbEntity
  8
枠
  6
CONTINUOUS
 62
     2
100
AcDbText
 10
1392.75
 20
228.75
 30
0.0
 40
42.5
  1
番
 41
0.84
  7
EXCADSTD
 72
     5
 11
1426.75
 21
228.75
 31
0.0
100
AcDbText
  0
TEXT
  5
A5
100
AcDbEntity
  8
枠
  6
CONTINUOUS
 62
     2
100
AcDbText
 10
1812.75
 20
278.75
 30
0.0
 40
42.5
  1
尺
 41
0.84
  7
EXCADSTD
 72
     5
 11
1846.75
 21
278.75
 31
0.0
100
AcDbText
  0
TEXT
  5
A6
100
AcDbEntity
  8
枠
  6
CONTINUOUS
 62
     2
100
AcDbText
 10
1812.75
 20
228.75
 30
0.0
 40
42.5
  1
度
 41
0.84
  7
EXCADSTD
 72
     5
 11
1846.75
 21
228.75
 31
0.0
100
AcDbText
  0
TEXT
  5
A7
100
AcDbEntity
  8
枠
  6
CONTINUOUS
 62
     2
100
AcDbText
 10
1392.75
 20
165.75
 30
0.0
 40
42.5
  1
図
 41
0.84
  7
EXCADSTD
 72
     5
 11
1426.75
 21
165.75
 31
0.0
100
AcDbText
  0
TEXT
  5
A8
100
AcDbEntity
  8
枠
  6
CONTINUOUS
 62
     2
100
AcDbText
 10
1392.75
 20
122.75
 30
0.0
 40
42.5
  1
番
 41
0.84
  7
EXCADSTD
 72
     5
 11
1426.75
 21
122.75
 31
0.0
100
AcDbText
  0
TEXT
  5
A9
100
AcDbEntity
  8
枠
  6
CONTINUOUS
 62
     7
100
AcDbText
 10
1453.25
 20
130.75
 30
0.0
 40
70.0
  1
Ｌ００９１０１５
 41
0.795
  7
EXCADSTD
 72
     5
 11
1983.25
 21
130.75
 31
0.0
100
AcDbText
  0
LINE
  5
AA
100
AcDbEntity
  8
枠
  6
EXLTYPE2
 62
     6
100
AcDbLine
 10
179.0
 20
165.0
 30
0.0
 11
489.0
 21
165.0
 31
0.0
  0
CIRCLE
  5
AB
100
AcDbEntity
  8
枠
  6
CONTINUOUS
 62
     6
100
AcDbCircle
 10
229.0
 20
140.0
 30
0.0
 40
1.0
  0
CIRCLE
  5
AC
100
AcDbEntity
  8
枠
  6
CONTINUOUS
 62
     6
100
AcDbCircle
 10
279.0
 20
140.0
 30
0.0
 40
1.0
  0
CIRCLE
  5
AD
100
AcDbEntity
  8
枠
  6
CONTINUOUS
 62
     6
100
AcDbCircle
 10
384.0
 20
140.0
 30
0.0
 40
1.0
  0
CIRCLE
  5
AE
100
AcDbEntity
  8
枠
  6
CONTINUOUS
 62
     6
100
AcDbCircle
 10
434.0
 20
140.0
 30
0.0
 40
1.0
  0
TEXT
  5
AF
100
AcDbEntity
  8
枠
  6
CONTINUOUS
 62
     6
100
AcDbText
 10
205.5
 20
200.0
 30
0.0
 40
50.0
  1
間瀬
 41
0.8568
  7
EXCADSTD
 72
     5
 11
298.9932
 21
200.0
 31
0.0
100
AcDbText
  0
TEXT
  5
B0
100
AcDbEntity
  8
枠
  6
CONTINUOUS
 62
     6
100
AcDbText
 10
635.0
 20
200.0
 30
0.0
 40
50.0
  1
古林
 41
0.8568
  7
EXCADSTD
 72
     5
 11
728.4932
 21
200.0
 31
0.0
100
AcDbText
  0
TEXT
  5
B2
100
AcDbEntity
  8
枠
  6
CONTINUOUS
 62
     2
100
AcDbText
 10
769.0
 20
135.0
 30
0.0
 40
45.0
  1
ジャニス工業株式会社
  7
EXCADTTF1
 72
     5
 11
1369.0
 21
135.0
 31
0.0
100
AcDbText
  0
TEXT
  5
B3
100
AcDbEntity
  8
枠
  6
CONTINUOUS
 62
     6
100
AcDbText
 10
181.044116
 20
126.950073
 30
0.0
 40
25.0
  1
２１
 41
0.75768
  7
EXCADSTD
 72
     5
 11
222.382775
 21
126.950073
 31
0.0
100
AcDbText
  0
TEXT
  5
B4
100
AcDbEntity
  8
枠
  6
CONTINUOUS
 62
     6
100
AcDbText
 10
289.044116
 20
126.950073
 30
0.0
 40
25.0
  1
２６
 41
0.75768
  7
EXCADSTD
 72
     5
 11
330.382775
 21
126.950073
 31
0.0
100
AcDbText
  0
TEXT
  5
B5
100
AcDbEntity
  8
枠
  6
CONTINUOUS
 62
     6
100
AcDbText
 10
242.144116
 20
126.950073
 30
0.0
 40
25.0
  1
６
 41
0.89208
  7
EXCADSTD
 72
     5
 11
263.384116
 21
126.950073
 31
0.0
100
AcDbText
  0
TEXT
  5
B6
100
AcDbEntity
  8
洗面器
  6
CONTINUOUS
 62
     2
100
AcDbText
 10
877.191925
 20
1937.000696
 30
0.0
 40
40.0
  1
２３５
 50
90.0
 41
0.833
  7
EXCADSTD
 72
     5
 11
877.191925
 21
2056.000695
 31
0.0
100
AcDbText
  0
LINE
  5
B7
100
AcDbEntity
  8
洗面器
  6
CONTINUOUS
 62
     3
100
AcDbLine
 10
880.691925
 20
2114.0
 30
0.0
 11
880.691925
 21
1879.001391
 31
0.0
  0
LINE
  5
B8
100
AcDbEntity
  8
洗面器
  6
CONTINUOUS
 62
     3
100
AcDbLine
 10
886.525258
 20
2079.0
 30
0.0
 11
880.691925
 21
2114.0
 31
0.0
  0
LINE
  5
B9
100
AcDbEntity
  8
洗面器
  6
CONTINUOUS
 62
     3
100
AcDbLine
 10
880.691925
 20
2114.0
 30
0.0
 11
874.858592
 21
2079.0
 31
0.0
  0
LINE
  5
BA
100
AcDbEntity
  8
洗面器
  6
CONTINUOUS
 62
     3
100
AcDbLine
 10
874.858592
 20
1914.001391
 30
0.0
 11
880.691925
 21
1879.001391
 31
0.0
  0
LINE
  5
BB
100
AcDbEntity
  8
洗面器
  6
CONTINUOUS
 62
     3
100
AcDbLine
 10
880.691925
 20
1879.001391
 30
0.0
 11
886.525258
 21
1914.001391
 31
0.0
  0
TEXT
  5
BC
100
AcDbEntity
  8
洗面器
  6
CONTINUOUS
 62
     2
100
AcDbText
 10
937.191925
 20
1937.001391
 30
0.0
 40
40.0
  1
１８０
 50
90.0
 41
0.833
  7
EXCADSTD
 72
     5
 11
937.191925
 21
2056.001391
 31
0.0
100
AcDbText
  0
LINE
  5
BD
100
AcDbEntity
  8
洗面器
  6
CONTINUOUS
 62
     3
100
AcDbLine
 10
940.691925
 20
2086.501391
 30
0.0
 11
940.691925
 21
1906.501391
 31
0.0
  0
LINE
  5
BE
100
AcDbEntity
  8
洗面器
  6
CONTINUOUS
 62
     3
100
AcDbLine
 10
946.525258
 20
2051.501391
 30
0.0
 11
940.691925
 21
2086.501391
 31
0.0
  0
LINE
  5
BF
100
AcDbEntity
  8
洗面器
  6
CONTINUOUS
 62
     3
100
AcDbLine
 10
940.691925
 20
2086.501391
 30
0.0
 11
934.858592
 21
2051.501391
 31
0.0
  0
LINE
  5
C0
100
AcDbEntity
  8
洗面器
  6
CONTINUOUS
 62
     3
100
AcDbLine
 10
934.858592
 20
1941.501391
 30
0.0
 11
940.691925
 21
1906.501391
 31
0.0
  0
LINE
  5
C1
100
AcDbEntity
  8
洗面器
  6
CONTINUOUS
 62
     3
100
AcDbLine
 10
940.691925
 20
1906.501391
 30
0.0
 11
946.525258
 21
1941.501391
 31
0.0
  0
TEXT
  5
C2
100
AcDbEntity
  8
洗面器
  6
CONTINUOUS
 62
     2
100
AcDbText
 10
1329.191925
 20
2033.000704
 30
0.0
 40
40.0
  1
８０
 50
90.0
 41
0.861
  7
EXCADSTD
 72
     5
 11
1329.191925
 21
2108.161904
 31
0.0
100
AcDbText
  0
LINE
  5
C3
100
AcDbEntity
  8
洗面器
  6
CONTINUOUS
 62
     3
100
AcDbLine
 10
1332.691925
 20
1989.001407
 30
0.0
 11
1332.691925
 21
2159.0
 31
0.0
  0
LINE
  5
C4
100
AcDbEntity
  8
洗面器
  6
CONTINUOUS
 62
     3
100
AcDbLine
 10
1338.525258
 20
1999.001407
 30
0.0
 11
1332.691925
 21
2034.001407
 31
0.0
  0
LINE
  5
C5
100
AcDbEntity
  8
洗面器
  6
CONTINUOUS
 62
     3
100
AcDbLine
 10
1332.691925
 20
2034.001407
 30
0.0
 11
1326.858592
 21
1999.001407
 31
0.0
  0
LINE
  5
C6
100
AcDbEntity
  8
洗面器
  6
CONTINUOUS
 62
     3
100
AcDbLine
 10
1326.858592
 20
2149.0
 30
0.0
 11
1332.691925
 21
2114.0
 31
0.0
  0
LINE
  5
C7
100
AcDbEntity
  8
洗面器
  6
CONTINUOUS
 62
     3
100
AcDbLine
 10
1332.691925
 20
2114.0
 30
0.0
 11
1338.525258
 21
2149.0
 31
0.0
  0
TEXT
  5
C8
100
AcDbEntity
  8
洗面器
  6
CONTINUOUS
 62
     2
100
AcDbText
 10
1329.191925
 20
1336.499992
 30
0.0
 40
40.0
  1
３０
 50
90.0
 41
0.861
  7
EXCADSTD
 72
     5
 11
1329.191925
 21
1411.661192
 31
0.0
100
AcDbText
  0
LINE
  5
C9
100
AcDbEntity
  8
洗面器
  6
CONTINUOUS
 62
     3
100
AcDbLine
 10
1332.691925
 20
1402.53252
 30
0.0
 11
1332.691925
 21
1234.999984
 31
0.0
  0
LINE
  5
CA
100
AcDbEntity
  8
洗面器
  6
CONTINUOUS
 62
     3
100
AcDbLine
 10
1326.858592
 20
1345.0
 30
0.0
 11
1332.691925
 21
1310.0
 31
0.0
  0
LINE
  5
CB
100
AcDbEntity
  8
洗面器
  6
CONTINUOUS
 62
     3
100
AcDbLine
 10
1332.691925
 20
1310.0
 30
0.0
 11
1338.525258
 21
1345.0
 31
0.0
  0
LINE
  5
CC
100
AcDbEntity
  8
洗面器
  6
CONTINUOUS
 62
     3
100
AcDbLine
 10
1338.525258
 20
1244.999984
 30
0.0
 11
1332.691925
 21
1279.999984
 31
0.0
  0
LINE
  5
CD
100
AcDbEntity
  8
洗面器
  6
CONTINUOUS
 62
     3
100
AcDbLine
 10
1332.691925
 20
1279.999984
 30
0.0
 11
1326.858592
 21
1244.999984
 31
0.0
  0
TEXT
  5
CE
100
AcDbEntity
  8
洗面器
  6
CONTINUOUS
 62
     2
100
AcDbText
 10
937.191925
 20
1334.100014
 30
0.0
 40
40.0
  1
５０
 50
90.0
 41
0.861
  7
EXCADSTD
 72
     5
 11
937.191925
 21
1409.261214
 31
0.0
100
AcDbText
  0
TEXT
  5
CF
100
AcDbEntity
  8
洗面器
  6
CONTINUOUS
 62
     2
100
AcDbText
 10
937.191925
 20
1128.0
 30
0.0
 40
40.0
  1
１４５
 50
90.0
 41
0.833
  7
EXCADSTD
 72
     5
 11
937.191925
 21
1247.0
 31
0.0
100
AcDbText
  0
LINE
  5
D0
100
AcDbEntity
  8
洗面器
  6
CONTINUOUS
 62
     3
100
AcDbLine
 10
940.691925
 20
1260.0
 30
0.0
 11
940.691925
 21
1115.0
 31
0.0
  0
LINE
  5
D1
100
AcDbEntity
  8
洗面器
  6
CONTINUOUS
 62
     3
100
AcDbLine
 10
946.525258
 20
1225.0
 30
0.0
 11
940.691925
 21
1260.0
 31
0.0
  0
LINE
  5
D2
100
AcDbEntity
  8
洗面器
  6
CONTINUOUS
 62
     3
100
AcDbLine
 10
940.691925
 20
1260.0
 30
0.0
 11
934.858592
 21
1225.0
 31
0.0
  0
LINE
  5
D3
100
AcDbEntity
  8
洗面器
  6
CONTINUOUS
 62
     3
100
AcDbLine
 10
934.858592
 20
1150.0
 30
0.0
 11
940.691925
 21
1115.0
 31
0.0
  0
LINE
  5
D4
100
AcDbEntity
  8
洗面器
  6
CONTINUOUS
 62
     3
100
AcDbLine
 10
940.691925
 20
1115.0
 30
0.0
 11
946.525258
 21
1150.0
 31
0.0
  0
LEADER
  5
D5
100
AcDbEntity
  8
洗面器
  6
CONTINUOUS
 62
     6
100
AcDbLeader
  3
STANDARD
 73
     3
 74
     1
 75
     0
 40
0.0
 76
     2
 10
1157.505115
 20
1283.75
 30
0.0
 10
938.8337
 20
1410.0
 30
0.0
 77
     6
1001
ACAD
1000
DSTYLE
1002
{
1070
    41
1040
35.0
1070
     5
1000
_EX_NORM
1070
     6
1000
_EX_NORM
1070
     7
1000
_EX_NORM
1070
   341
1005
2B
1002
}
  0
LINE
  5
D6
100
AcDbEntity
  8
洗面器
  6
CONTINUOUS
 62
     3
100
AcDbLine
 10
940.691925
 20
1310.000029
 30
0.0
 11
949.750592
 21
1343.807433
 31
0.0
  0
LINE
  5
D7
100
AcDbEntity
  8
洗面器
  6
CONTINUOUS
 62
     3
100
AcDbLine
 10
940.691925
 20
1310.000029
 30
0.0
 11
931.633258
 21
1343.807433
 31
0.0
  0
LINE
  5
D8
100
AcDbEntity
  8
洗面器
  6
CONTINUOUS
 62
     7
100
AcDbLine
 10
1021.000122
 20
1260.0
 30
0.0
 11
1244.000153
 21
1260.0
 31
0.0
  0
ARC
  5
D9
100
AcDbEntity
  8
洗面器
  6
CONTINUOUS
 62
     7
100
AcDbCircle
 10
1021.000122
 20
1248.00003
 30
0.0
 40
11.999998
100
AcDbArc
 50
90.0
 51
180.0
  0
ARC
  5
DA
100
AcDbEntity
  8
洗面器
  6
CONTINUOUS
 62
     7
100
AcDbCircle
 10
1215.384277
 20
1265.0
 30
0.0
 40
5.0
100
AcDbArc
 50
270.0
 51
355.42627
  0
ARC
  5
DB
100
AcDbEntity
  8
洗面器
  6
CONTINUOUS
 62
     7
100
AcDbCircle
 10
1231.385864
 20
1301.99997
 30
0.0
 40
8.0
100
AcDbArc
 50
90.0
 51
175.426041
  0
ARC
  5
DC
100
AcDbEntity
  8
洗面器
  6
CONTINUOUS
 62
     7
100
AcDbCircle
 10
1014.0
 20
1235.0
 30
0.0
 40
5.0
100
AcDbArc
 50
180.0
 51
270.0
  0
ARC
  5
DD
100
AcDbEntity
  8
洗面器
  6
CONTINUOUS
 62
     7
100
AcDbCircle
 10
1103.837952
 20
1298.00003
 30
0.0
 40
11.999998
100
AcDbArc
 50
90.0
 51
168.690216
  0
ARC
  5
DE
100
AcDbEntity
  8
洗面器
  6
CONTINUOUS
 62
     7
100
AcDbCircle
 10
1079.901184
 20
1265.0
 30
0.0
 40
5.0
100
AcDbArc
 50
270.0
 51
348.69043
  0
LINE
  5
DF
100
AcDbEntity
  8
洗面器
  6
CONTINUOUS
 62
     7
100
AcDbLine
 10
1223.411316
 20
1302.637939
 30
0.0
 11
1220.368256
 21
1264.601288
 31
0.0
  0
LINE
  5
E0
100
AcDbEntity
  8
洗面器
  6
CONTINUOUS
 62
     7
100
AcDbLine
 10
1092.070984
 20
1300.353546
 30
0.0
 11
1084.803986
 21
1264.01947
 31
0.0
  0
LINE
  5
E1
100
AcDbEntity
  8
洗面器
  6
CONTINUOUS
 62
     7
100
AcDbLine
 10
1103.837952
 20
1310.0
 30
0.0
 11
1244.000305
 21
1310.0
 31
0.0
  0
LINE
  5
E2
100
AcDbEntity
  8
洗面器
  6
CONTINUOUS
 62
     7
100
AcDbLine
 10
1014.0
 20
1230.0
 30
0.0
 11
1244.0
 21
1230.0
 31
0.0
  0
LINE
  5
E3
100
AcDbEntity
  8
洗面器
  6
CONTINUOUS
 62
     7
100
AcDbLine
 10
1009.000153
 20
1248.00003
 30
0.0
 11
1009.0
 21
1235.0
 31
0.0
  0
LINE
  5
E4
100
AcDbEntity
  8
洗面器
  6
EXLTYPE2
 62
     2
100
AcDbLine
 10
1117.999634
 20
1115.0
 30
0.0
 11
1149.999756
 21
1115.0
 31
0.0
  0
LINE
  5
E5
100
AcDbEntity
  8
洗面器
  6
EXLTYPE2
 62
     2
100
AcDbLine
 10
1117.999786
 20
1140.0
 30
0.0
 11
1117.999634
 21
1115.0
 31
0.0
  0
LINE
  5
E6
100
AcDbEntity
  8
洗面器
  6
EXLTYPE2
 62
     2
100
AcDbLine
 10
1149.999908
 20
1140.0
 30
0.0
 11
1149.999756
 21
1115.0
 31
0.0
  0
LINE
  5
E7
100
AcDbEntity
  8
洗面器
  6
CONTINUOUS
 62
     7
100
AcDbLine
 10
1108.999695
 20
1140.0
 30
0.0
 11
1158.999695
 21
1140.0
 31
0.0
  0
CIRCLE
  5
E8
100
AcDbEntity
  8
洗面器
  6
CONTINUOUS
 62
     6
100
AcDbCircle
 10
1164.000305
 20
1280.0
 30
0.0
 40
7.5
  0
ARC
  5
E9
100
AcDbEntity
  8
洗面器
  6
CONTINUOUS
 62
     6
100
AcDbCircle
 10
1258.970093
 20
1306.925812
 30
0.0
 40
30.0
100
AcDbArc
 50
276.178467
 51
296.165039
  0
ARC
  5
EA
100
AcDbEntity
  8
洗面器
  6
CONTINUOUS
 62
     6
100
AcDbCircle
 10
1258.970093
 20
1253.074188
 30
0.0
 40
30.0
100
AcDbArc
 50
63.834961
 51
83.821533
  0
ARC
  5
EB
100
AcDbEntity
  8
洗面器
  6
CONTINUOUS
 62
     6
100
AcDbCircle
 10
1222.716736
 20
1280.0
 30
0.0
 40
7.517859
100
AcDbArc
 50
93.950073
 51
256.904785
  0
LINE
  5
EC
100
AcDbEntity
  8
洗面器
  6
CONTINUOUS
 62
     6
100
AcDbLine
 10
1244.000305
 20
1282.899933
 30
0.0
 11
1262.198853
 21
1282.899933
 31
0.0
  0
LINE
  5
ED
100
AcDbEntity
  8
洗面器
  6
CONTINUOUS
 62
     6
100
AcDbLine
 10
1244.000305
 20
1277.100067
 30
0.0
 11
1262.198853
 21
1277.100067
 31
0.0
  0
ARC
  5
EE
100
AcDbEntity
  8
洗面器
  6
CONTINUOUS
 62
     7
100
AcDbCircle
 10
1228.10141
 20
1225.0
 30
0.0
 40
5.0
100
AcDbArc
 50
90.0
 51
170.507492
  0
ARC
  5
EF
100
AcDbEntity
  8
洗面器
  6
CONTINUOUS
 62
     7
100
AcDbCircle
 10
1017.452301
 20
1225.0
 30
0.0
 40
5.0
100
AcDbArc
 50
14.744898
 51
90.0
  0
ARC
  5
F0
100
AcDbEntity
  8
洗面器
  6
CONTINUOUS
 62
     7
100
AcDbCircle
 10
1099.350189
 20
1137.375488
 30
0.0
 40
10.0
100
AcDbArc
 50
15.215476
 51
75.506165
  0
ARC
  5
F1
100
AcDbEntity
  8
洗面器
  6
CONTINUOUS
 62
     7
100
AcDbCircle
 10
1168.211731
 20
1136.109314
 30
0.0
 40
10.0
100
AcDbArc
 50
116.782043
 51
157.103333
  0
ARC
  5
F2
100
AcDbEntity
  8
洗面器
  6
CONTINUOUS
 62
     7
100
AcDbCircle
 10
1113.689636
 20
1244.129334
 30
0.0
 40
111.000004
100
AcDbArc
 50
296.781982
 51
350.508057
  0
ARC
  5
F3
100
AcDbEntity
  8
洗面器
  6
CONTINUOUS
 62
     7
100
AcDbCircle
 10
1129.632019
 20
1254.524994
 30
0.0
 40
111.000004
100
AcDbArc
 50
194.745514
 51
255.506897
  0
LINE
  5
F4
100
AcDbEntity
  8
洗面器
  6
CONTINUOUS
 62
     3
100
AcDbLine
 10
1254.0
 20
1310.0
 30
0.0
 11
1352.691925
 21
1310.0
 31
0.0
  0
LINE
  5
F5
100
AcDbEntity
  8
洗面器
  6
CONTINUOUS
 62
     3
100
AcDbLine
 10
1281.198841
 20
1279.999984
 30
0.0
 11
1352.691925
 21
1279.999984
 31
0.0
  0
LINE
  5
F6
100
AcDbEntity
  8
洗面器
  6
CONTINUOUS
 62
     3
100
AcDbLine
 10
1084.000329
 20
1310.000029
 30
0.0
 11
920.691925
 21
1310.000029
 31
0.0
  0
LINE
  5
F7
100
AcDbEntity
  8
洗面器
  6
CONTINUOUS
 62
     3
100
AcDbLine
 10
1001.000122
 20
1260.0
 30
0.0
 11
800.691925
 21
1260.0
 31
0.0
  0
LINE
  5
F8
100
AcDbEntity
  8
洗面器
  6
CONTINUOUS
 62
     3
100
AcDbLine
 10
1107.999634
 20
1115.0
 30
0.0
 11
920.691925
 21
1115.0
 31
0.0
  0
LINE
  5
F9
100
AcDbEntity
  8
洗面器
  6
CONTINUOUS
 62
     6
100
AcDbLine
 10
1164.000305
 20
1302.5
 30
0.0
 11
1164.000305
 21
1260.0
 31
0.0
  0
LINE
  5
FA
100
AcDbEntity
  8
洗面器
  6
CONTINUOUS
 62
     6
100
AcDbLine
 10
1186.500305
 20
1280.0
 30
0.0
 11
1141.500305
 21
1280.0
 31
0.0
  0
LINE
  5
FB
100
AcDbEntity
  8
洗面器
  6
CONTINUOUS
 62
     3
100
AcDbLine
 10
940.691925
 20
1399.33252
 30
0.0
 11
940.691925
 21
1260.0
 31
0.0
  0
LINE
  5
FC
100
AcDbEntity
  8
洗面器
  6
CONTINUOUS
 62
     7
100
AcDbLine
 10
1244.0
 20
1617.0
 30
0.0
 11
1244.0
 21
500.0
 31
0.0
  0
LINE
  5
FD
100
AcDbEntity
  8
洗面器
  6
CONTINUOUS
 62
     3
100
AcDbLine
 10
860.691925
 20
980.0
 30
0.0
 11
1124.000305
 21
980.0
 31
0.0
  0
LINE
  5
FE
100
AcDbEntity
  8
洗面器
  6
CONTINUOUS
 62
     3
100
AcDbLine
 10
1131.000305
 20
980.0
 30
0.0
 11
1137.000305
 21
980.0
 31
0.0
  0
LINE
  5
FF
100
AcDbEntity
  8
洗面器
  6
CONTINUOUS
 62
     3
100
AcDbLine
 10
1144.000305
 20
980.0
 30
0.0
 11
1184.000305
 21
980.0
 31
0.0
  0
LINE
  5
100
100
AcDbEntity
  8
洗面器
  6
CONTINUOUS
 62
     6
100
AcDbLine
 10
1134.000305
 20
983.0
 30
0.0
 11
1134.000305
 21
977.0
 31
0.0
  0
LINE
  5
101
100
AcDbEntity
  8
洗面器
  6
CONTINUOUS
 62
     6
100
AcDbLine
 10
1134.000305
 20
970.0
 30
0.0
 11
1134.000305
 21
804.332519
 31
0.0
  0
LINE
  5
102
100
AcDbEntity
  8
洗面器
  6
CONTINUOUS
 62
     6
100
AcDbLine
 10
1134.000305
 20
1160.0
 30
0.0
 11
1134.000305
 21
1078.33252
 31
0.0
  0
LINE
  5
103
100
AcDbEntity
  8
洗面器
  6
CONTINUOUS
 62
     6
100
AcDbLine
 10
1134.000305
 20
1066.33252
 30
0.0
 11
1134.000305
 21
1058.33252
 31
0.0
  0
LINE
  5
104
100
AcDbEntity
  8
洗面器
  6
CONTINUOUS
 62
     6
100
AcDbLine
 10
1134.000305
 20
1046.33252
 30
0.0
 11
1134.000305
 21
990.0
 31
0.0
  0
TEXT
  5
105
100
AcDbEntity
  8
洗面器
  6
CONTINUOUS
 62
     2
100
AcDbText
 10
1240.5
 20
1499.33252
 30
0.0
 40
40.0
  1
Ｗ．Ｌ
 50
90.0
 41
0.833
  7
EXCADSTD
 72
     5
 11
1240.5
 21
1618.332519
 31
0.0
100
AcDbText
  0
ARC
  5
106
100
AcDbEntity
  8
洗面器
  6
CONTINUOUS
 62
     7
100
AcDbCircle
 10
1126.500305
 20
1996.501391
 30
0.0
 40
90.0
100
AcDbArc
 50
11.837217
 51
357.771787
  0
ARC
  5
107
100
AcDbEntity
  8
洗面器
  6
CONTINUOUS
 62
     7
100
AcDbCircle
 10
998.869843
 20
2126.948168
 30
0.0
 40
300.0
100
AcDbArc
 50
314.374512
 51
324.795654
  0
ARC
  5
108
100
AcDbEntity
  8
洗面器
  6
CONTINUOUS
 62
     7
100
AcDbCircle
 10
1256.948456
 20
1868.869555
 30
0.0
 40
300.0
100
AcDbArc
 50
125.204315
 51
135.625519
  0
ARC
  5
109
100
AcDbEntity
  8
洗面器
  6
CONTINUOUS
 62
     7
100
AcDbCircle
 10
1126.500305
 20
1996.501391
 30
0.0
 40
117.5
100
AcDbArc
 50
135.625519
 51
314.374512
  0
ARC
  5
10A
100
AcDbEntity
  8
洗面器
  6
CONTINUOUS
 62
     7
100
AcDbCircle
 10
1219.000305
 20
2089.001391
 30
0.0
 40
5.0
100
AcDbArc
 50
0.0
 51
90.0
  0
LINE
  5
10B
100
AcDbEntity
  8
洗面器
  6
CONTINUOUS
 62
     7
100
AcDbLine
 10
1094.000305
 20
2094.001391
 30
0.0
 11
1219.000305
 21
2094.001391
 31
0.0
  0
ARC
  5
10C
100
AcDbEntity
  8
洗面器
  6
CONTINUOUS
 62
     6
100
AcDbCircle
 10
1190.926117
 20
2130.772631
 30
0.0
 40
30.0
100
AcDbArc
 50
153.834961
 51
173.821533
  0
ARC
  5
10D
100
AcDbEntity
  8
洗面器
  6
CONTINUOUS
 62
     6
100
AcDbCircle
 10
1137.074493
 20
2130.772631
 30
0.0
 40
30.0
100
AcDbArc
 50
6.178467
 51
26.165039
  0
ARC
  5
10E
100
AcDbEntity
  8
洗面器
  6
CONTINUOUS
 62
     6
100
AcDbCircle
 10
1164.000305
 20
2094.519274
 30
0.0
 40
7.517859
100
AcDbArc
 50
183.950073
 51
356.050049
  0
LINE
  5
10F
100
AcDbEntity
  8
洗面器
  6
CONTINUOUS
 62
     6
100
AcDbLine
 10
1166.900238
 20
2114.001391
 30
0.0
 11
1166.900238
 21
2134.001391
 31
0.0
  0
LINE
  5
110
100
AcDbEntity
  8
洗面器
  6
CONTINUOUS
 62
     6
100
AcDbLine
 10
1161.100372
 20
2114.001391
 30
0.0
 11
1161.100372
 21
2134.001391
 31
0.0
  0
ARC
  5
111
100
AcDbEntity
  8
洗面器
  6
CONTINUOUS
 62
     6
100
AcDbCircle
 10
1260.771545
 20
2007.075579
 30
0.0
 40
30.0
100
AcDbArc
 50
63.834961
 51
83.821533
  0
ARC
  5
112
100
AcDbEntity
  8
洗面器
  6
CONTINUOUS
 62
     6
100
AcDbCircle
 10
1260.771545
 20
2060.927203
 30
0.0
 40
30.0
100
AcDbArc
 50
276.178467
 51
296.165039
  0
ARC
  5
113
100
AcDbEntity
  8
洗面器
  6
CONTINUOUS
 62
     6
100
AcDbCircle
 10
1224.518188
 20
2034.001391
 30
0.0
 40
7.517859
100
AcDbArc
 50
93.950073
 51
266.050049
  0
LINE
  5
114
100
AcDbEntity
  8
洗面器
  6
CONTINUOUS
 62
     6
100
AcDbLine
 10
1244.000305
 20
2036.901324
 30
0.0
 11
1264.000305
 21
2036.901324
 31
0.0
  0
LINE
  5
115
100
AcDbEntity
  8
洗面器
  6
CONTINUOUS
 62
     6
100
AcDbLine
 10
1244.000305
 20
2031.101458
 30
0.0
 11
1264.000305
 21
2031.101458
 31
0.0
  0
ARC
  5
116
100
AcDbEntity
  8
洗面器
  6
CONTINUOUS
 62
     7
100
AcDbCircle
 10
1134.000305
 20
2004.001391
 30
0.0
 40
15.0
100
AcDbArc
 50
119.666422
 51
240.333578
  0
LINE
  5
117
100
AcDbEntity
  8
洗面器
  6
CONTINUOUS
 62
     3
100
AcDbLine
 10
1283.000294
 20
2034.001407
 30
0.0
 11
1352.691925
 21
2034.001407
 31
0.0
  0
LINE
  5
118
100
AcDbEntity
  8
洗面器
  6
CONTINUOUS
 62
     3
100
AcDbLine
 10
1091.500305
 20
2086.501391
 30
0.0
 11
920.691925
 21
2086.501391
 31
0.0
  0
LINE
  5
119
100
AcDbEntity
  8
洗面器
  6
CONTINUOUS
 62
     3
100
AcDbLine
 10
1091.500305
 20
1906.501391
 30
0.0
 11
920.691925
 21
1906.501391
 31
0.0
  0
LINE
  5
11A
100
AcDbEntity
  8
洗面器
  6
CONTINUOUS
 62
     3
100
AcDbLine
 10
1086.500305
 20
1879.001391
 30
0.0
 11
860.691925
 21
1879.001391
 31
0.0
  0
LINE
  5
11B
100
AcDbEntity
  8
洗面器
  6
CONTINUOUS
 62
     6
100
AcDbLine
 10
1134.000305
 20
2034.001391
 30
0.0
 11
1134.000305
 21
2020.771992
 31
0.0
  0
LINE
  5
11C
100
AcDbEntity
  8
洗面器
  6
CONTINUOUS
 62
     6
100
AcDbLine
 10
1134.000305
 20
1987.23079
 30
0.0
 11
1134.000305
 21
1974.001391
 31
0.0
  0
LINE
  5
11D
100
AcDbEntity
  8
洗面器
  6
CONTINUOUS
 62
     7
100
AcDbLine
 10
777.0
 20
2114.0
 30
0.0
 11
1244.0
 21
2114.0
 31
0.0
  0
LINE
  5
11E
100
AcDbEntity
  8
洗面器
  6
CONTINUOUS
 62
     3
100
AcDbLine
 10
1254.0
 20
2114.0
 30
0.0
 11
1352.691925
 21
2114.0
 31
0.0
  0
LINE
  5
11F
100
AcDbEntity
  8
洗面器
  6
CONTINUOUS
 62
     7
100
AcDbLine
 10
1224.000305
 20
1964.001391
 30
0.0
 11
1224.000305
 21
1993.001391
 31
0.0
  0
LINE
  5
120
100
AcDbEntity
  8
洗面器
  6
CONTINUOUS
 62
     7
100
AcDbLine
 10
1224.000305
 20
2015.001391
 30
0.0
 11
1224.000305
 21
2089.001391
 31
0.0
  0
LINE
  5
121
100
AcDbEntity
  8
洗面器
  6
CONTINUOUS
 62
     6
100
AcDbLine
 10
1181.2
 20
2004.001391
 30
0.0
 11
1104.000305
 21
2004.001391
 31
0.0
  0
LINE
  5
122
100
AcDbEntity
  8
洗面器
  6
CONTINUOUS
 62
     6
100
AcDbLine
 10
1272.000195
 20
2004.001391
 30
0.0
 11
1213.2
 21
2004.001391
 31
0.0
  0
LINE
  5
123
100
AcDbEntity
  8
洗面器
  6
CONTINUOUS
 62
     6
100
AcDbLine
 10
1201.2
 20
2004.001391
 30
0.0
 11
1193.2
 21
2004.001391
 31
0.0
  0
LINE
  5
124
100
AcDbEntity
  8
洗面器
  6
CONTINUOUS
 62
     7
100
AcDbLine
 10
1244.0
 20
2114.0
 30
0.0
 11
1244.0
 21
1746.0
 31
0.0
  0
LINE
  5
125
100
AcDbEntity
  8
洗面器
  6
CONTINUOUS
 62
     7
100
AcDbLine
 10
760.0
 20
500.0
 30
0.0
 11
1244.000153
 21
500.0
 31
0.0
  0
TEXT
  5
126
100
AcDbEntity
  8
洗面器
  6
CONTINUOUS
 62
     2
100
AcDbText
 10
930.0
 20
503.5
 30
0.0
 40
40.0
  1
Ｆ．Ｌ
 41
0.833
  7
EXCADSTD
 72
     5
 11
1049.0
 21
503.5
 31
0.0
100
AcDbText
  0
TEXT
  5
127
100
AcDbEntity
  8
洗面器
  6
CONTINUOUS
 62
     2
100
AcDbText
 10
671.833701
 20
1413.5
 30
0.0
 40
40.0
  1
ＮＴ７Ａ（２）
 41
0.801
  7
EXCADSTD
 72
     5
 11
938.8337
 21
1413.5
 31
0.0
100
AcDbText
  0
LINE
  5
128
100
AcDbEntity
  8
洗面器
  6
CONTINUOUS
 62
     6
100
AcDbLine
 10
938.8337
 20
1410.0
 30
0.0
 11
666.0
 21
1410.0
 31
0.0
  0
LEADER
  5
129
100
AcDbEntity
  8
水栓
  6
CONTINUOUS
 62
     6
100
AcDbLeader
  3
STANDARD
 73
     3
 74
     1
 75
     0
 40
0.0
 76
     2
 10
1124.537216
 20
1407.146714
 30
0.0
 10
984.02407
 20
1488.272016
 30
0.0
 77
     6
1001
ACAD
1000
DSTYLE
1002
{
1070
    41
1040
35.0
1070
     5
1000
_EX_NORM
1070
     6
1000
_EX_NORM
1070
     7
1000
_EX_NORM
1070
   341
1005
2B
1002
}
  0
LEADER
  5
12A
100
AcDbEntity
  8
水栓
  6
CONTINUOUS
 62
     6
100
AcDbLeader
  3
STANDARD
 73
     3
 74
     1
 75
     0
 40
0.0
 76
     2
 10
1147.741993
 20
486.13316
 30
0.0
 10
1109.285059
 20
419.523798
 30
0.0
 77
     6
1001
ACAD
1000
DSTYLE
1002
{
1070
    41
1040
35.0
1070
     5
1000
_EX_NORM
1070
     6
1000
_EX_NORM
1070
     7
1000
_EX_NORM
1070
   341
1005
2B
1002
}
  0
LINE
  5
12B
100
AcDbEntity
  8
水栓
  6
CONTINUOUS
 62
     6
100
AcDbLine
 10
1243.0
 20
1433.0
 30
0.0
 11
1244.0
 21
1433.0
 31
0.0
  0
LINE
  5
12C
100
AcDbEntity
  8
水栓
  6
CONTINUOUS
 62
     6
100
AcDbLine
 10
1243.0
 20
1387.0
 30
0.0
 11
1244.0
 21
1387.0
 31
0.0
  0
ARC
  5
12D
100
AcDbEntity
  8
水栓
  6
CONTINUOUS
 62
     6
100
AcDbCircle
 10
1243.0
 20
1431.0
 30
0.0
 40
2.0
100
AcDbArc
 50
90.0
 51
180.0
  0
ARC
  5
12E
100
AcDbEntity
  8
水栓
  6
CONTINUOUS
 62
     6
100
AcDbCircle
 10
1243.0
 20
1389.0
 30
0.0
 40
2.0
100
AcDbArc
 50
180.0
 51
270.0
  0
LINE
  5
12F
100
AcDbEntity
  8
水栓
  6
CONTINUOUS
 62
     6
100
AcDbLine
 10
1159.8
 20
1419.0
 30
0.0
 11
1238.0
 21
1419.0
 31
0.0
  0
ARC
  5
130
100
AcDbEntity
  8
水栓
  6
CONTINUOUS
 62
     6
100
AcDbCircle
 10
1238.0
 20
1422.0
 30
0.0
 40
3.0
100
AcDbArc
 50
270.0
 51
0.0
  0
LINE
  5
131
100
AcDbEntity
  8
水栓
  6
CONTINUOUS
 62
     6
100
AcDbLine
 10
1241.0
 20
1431.0
 30
0.0
 11
1241.0
 21
1389.0
 31
0.0
  0
LINE
  5
132
100
AcDbEntity
  8
水栓
  6
CONTINUOUS
 62
     6
100
AcDbLine
 10
1121.5
 20
1382.0
 30
0.0
 11
1156.5
 21
1382.0
 31
0.0
  0
ARC
  5
133
100
AcDbEntity
  8
水栓
  6
CONTINUOUS
 62
     6
100
AcDbCircle
 10
1141.848339
 20
1294.0
 30
0.0
 40
130.0
100
AcDbArc
 50
83.802313
 51
96.415769
  0
LINE
  5
134
100
AcDbEntity
  8
水栓
  6
CONTINUOUS
 62
     6
100
AcDbLine
 10
1156.5
 20
1394.7
 30
0.0
 11
1156.5
 21
1382.0
 31
0.0
  0
LINE
  5
135
100
AcDbEntity
  8
水栓
  6
CONTINUOUS
 62
     6
100
AcDbLine
 10
1124.792166
 20
1409.257579
 30
0.0
 11
1121.5
 21
1382.0
 31
0.0
  0
ARC
  5
136
100
AcDbEntity
  8
水栓
  6
CONTINUOUS
 62
     6
100
AcDbCircle
 10
1162.8
 20
1394.7
 30
0.0
 40
6.3
100
AcDbArc
 50
90.0
 51
180.0
  0
ARC
  5
137
100
AcDbEntity
  8
水栓
  6
CONTINUOUS
 62
     6
100
AcDbCircle
 10
1159.8
 20
1422.3
 30
0.0
 40
3.3
100
AcDbArc
 50
176.498721
 51
270.0
  0
ARC
  5
138
100
AcDbEntity
  8
水栓
  6
CONTINUOUS
 62
     6
100
AcDbCircle
 10
1422.627654
 20
1373.285062
 30
0.0
 40
300.0
100
AcDbArc
 50
170.537573
 51
173.113184
  0
ARC
  5
139
100
AcDbEntity
  8
水栓
  6
CONTINUOUS
 62
     6
100
AcDbCircle
 10
1127.400043
 20
1422.49022
 30
0.0
 40
0.7
100
AcDbArc
 50
96.415769
 51
170.537573
  0
ARC
  5
13A
100
AcDbEntity
  8
水栓
  6
CONTINUOUS
 62
     6
100
AcDbCircle
 10
1155.807466
 20
1422.544283
 30
0.0
 40
0.7
100
AcDbArc
 50
356.498721
 51
83.802313
  0
LINE
  5
13B
100
AcDbEntity
  8
水栓
  6
CONTINUOUS
 62
     6
100
AcDbLine
 10
1131.75
 20
1382.0
 30
0.0
 11
1131.75
 21
1376.0
 31
0.0
  0
LINE
  5
13C
100
AcDbEntity
  8
水栓
  6
CONTINUOUS
 62
     6
100
AcDbLine
 10
1146.25
 20
1382.0
 30
0.0
 11
1146.25
 21
1376.0
 31
0.0
  0
ARC
  5
13D
100
AcDbEntity
  8
水栓
  6
CONTINUOUS
 62
     6
100
AcDbCircle
 10
1132.75
 20
1376.0
 30
0.0
 40
1.0
100
AcDbArc
 50
180.0
 51
270.0
  0
ARC
  5
13E
100
AcDbEntity
  8
水栓
  6
CONTINUOUS
 62
     6
100
AcDbCircle
 10
1145.25
 20
1376.0
 30
0.0
 40
1.0
100
AcDbArc
 50
270.0
 51
0.0
  0
LINE
  5
13F
100
AcDbEntity
  8
水栓
  6
CONTINUOUS
 62
     6
100
AcDbLine
 10
1162.8
 20
1401.0
 30
0.0
 11
1238.0
 21
1401.0
 31
0.0
  0
ARC
  5
140
100
AcDbEntity
  8
水栓
  6
CONTINUOUS
 62
     6
100
AcDbCircle
 10
1238.0
 20
1398.0
 30
0.0
 40
3.0
100
AcDbArc
 50
0.0
 51
90.0
  0
LINE
  5
141
100
AcDbEntity
  8
水栓
  6
CONTINUOUS
 62
     6
100
AcDbLine
 10
1256.2725
 20
1420.4775
 30
0.0
 11
1258.0
 21
1418.75
 31
0.0
  0
LINE
  5
142
100
AcDbEntity
  8
水栓
  6
CONTINUOUS
 62
     6
100
AcDbLine
 10
1257.4345
 20
1419.3155
 30
0.0
 11
1245.162
 21
1419.3155
 31
0.0
  0
LINE
  5
143
100
AcDbEntity
  8
水栓
  6
CONTINUOUS
 62
     6
100
AcDbLine
 10
1244.0
 20
1420.4775
 30
0.0
 11
1245.162
 21
1419.3155
 31
0.0
  0
LINE
  5
144
100
AcDbEntity
  8
水栓
  6
CONTINUOUS
 62
     6
100
AcDbLine
 10
1256.2725
 20
1399.5225
 30
0.0
 11
1258.0
 21
1401.25
 31
0.0
  0
LINE
  5
145
100
AcDbEntity
  8
水栓
  6
CONTINUOUS
 62
     6
100
AcDbLine
 10
1257.4345
 20
1400.6845
 30
0.0
 11
1245.162
 21
1400.6845
 31
0.0
  0
LINE
  5
146
100
AcDbEntity
  8
水栓
  6
CONTINUOUS
 62
     6
100
AcDbLine
 10
1244.0
 20
1399.5225
 30
0.0
 11
1245.162
 21
1400.6845
 31
0.0
  0
LINE
  5
147
100
AcDbEntity
  8
水栓
  6
CONTINUOUS
 62
     6
100
AcDbLine
 10
1244.0
 20
1420.4775
 30
0.0
 11
1256.2725
 21
1420.4775
 31
0.0
  0
LINE
  5
148
100
AcDbEntity
  8
水栓
  6
CONTINUOUS
 62
     6
100
AcDbLine
 10
1244.0
 20
1399.5225
 30
0.0
 11
1256.2725
 21
1399.5225
 31
0.0
  0
LINE
  5
149
100
AcDbEntity
  8
水栓
  6
CONTINUOUS
 62
     6
100
AcDbLine
 10
1258.0
 20
1401.25
 30
0.0
 11
1258.0
 21
1418.75
 31
0.0
  0
LINE
  5
14A
100
AcDbEntity
  8
水栓
  6
CONTINUOUS
 62
     6
100
AcDbLine
 10
1128.0
 20
1356.0
 30
0.0
 11
1150.0
 21
1356.0
 31
0.0
  0
ARC
  5
14B
100
AcDbEntity
  8
水栓
  6
CONTINUOUS
 62
     6
100
AcDbCircle
 10
1128.0
 20
1360.0
 30
0.0
 40
4.0
100
AcDbArc
 50
108.715366
 51
270.0
  0
LINE
  5
14C
100
AcDbEntity
  8
水栓
  6
CONTINUOUS
 62
     6
100
AcDbLine
 10
1135.75
 20
1372.0
 30
0.0
 11
1135.75
 21
1369.0
 31
0.0
  0
ARC
  5
14D
100
AcDbEntity
  8
水栓
  6
CONTINUOUS
 62
     6
100
AcDbCircle
 10
1132.75
 20
1369.0
 30
0.0
 40
3.0
100
AcDbArc
 50
288.715366
 51
0.0
  0
LINE
  5
14E
100
AcDbEntity
  8
水栓
  6
CONTINUOUS
 62
     6
100
AcDbLine
 10
1133.712601
 20
1366.158627
 30
0.0
 11
1126.716532
 21
1363.788497
 31
0.0
  0
LINE
  5
14F
100
AcDbEntity
  8
水栓
  6
CONTINUOUS
 62
     6
100
AcDbLine
 10
1132.75
 20
1375.0
 30
0.0
 11
1145.25
 21
1375.0
 31
0.0
  0
LINE
  5
150
100
AcDbEntity
  8
水栓
  6
CONTINUOUS
 62
     6
100
AcDbLine
 10
1134.0
 20
1375.0
 30
0.0
 11
1134.0
 21
1374.727178
 31
0.0
  0
ARC
  5
151
100
AcDbEntity
  8
水栓
  6
CONTINUOUS
 62
     6
100
AcDbCircle
 10
1132.75
 20
1372.0
 30
0.0
 40
3.0
100
AcDbArc
 50
0.0
 51
65.375682
  0
ARC
  5
152
100
AcDbEntity
  8
水栓
  6
CONTINUOUS
 62
     6
100
AcDbCircle
 10
1145.25
 20
1369.0
 30
0.0
 40
3.0
100
AcDbArc
 50
180.0
 51
251.284634
  0
LINE
  5
153
100
AcDbEntity
  8
水栓
  6
CONTINUOUS
 62
     6
100
AcDbLine
 10
1142.25
 20
1372.0
 30
0.0
 11
1142.25
 21
1369.0
 31
0.0
  0
ARC
  5
154
100
AcDbEntity
  8
水栓
  6
CONTINUOUS
 62
     6
100
AcDbCircle
 10
1145.25
 20
1372.0
 30
0.0
 40
3.0
100
AcDbArc
 50
114.624318
 51
180.0
  0
LINE
  5
155
100
AcDbEntity
  8
水栓
  6
CONTINUOUS
 62
     6
100
AcDbLine
 10
1144.0
 20
1375.0
 30
0.0
 11
1144.0
 21
1374.727178
 31
0.0
  0
LINE
  5
156
100
AcDbEntity
  8
水栓
  6
CONTINUOUS
 62
     6
100
AcDbLine
 10
1144.287399
 20
1366.158627
 30
0.0
 11
1151.283468
 21
1363.788497
 31
0.0
  0
ARC
  5
157
100
AcDbEntity
  8
水栓
  6
CONTINUOUS
 62
     6
100
AcDbCircle
 10
1150.0
 20
1360.0
 30
0.0
 40
4.0
100
AcDbArc
 50
270.0
 51
71.284634
  0
LINE
  5
158
100
AcDbEntity
  8
水栓
  6
CONTINUOUS
 62
     6
100
AcDbLine
 10
1256.2725
 20
1420.4775
 30
0.0
 11
1256.2725
 21
1399.5225
 31
0.0
  0
ARC
  5
159
100
AcDbEntity
  8
水栓
  6
CONTINUOUS
 62
     6
100
AcDbCircle
 10
1139.0
 20
2004.001391
 30
0.0
 40
17.5
100
AcDbArc
 50
40.142122
 51
319.857878
  0
LINE
  5
15A
100
AcDbEntity
  8
水栓
  6
CONTINUOUS
 62
     6
100
AcDbLine
 10
1238.0
 20
1995.001391
 30
0.0
 11
1163.572607
 21
1995.001391
 31
0.0
  0
LINE
  5
15B
100
AcDbEntity
  8
水栓
  6
CONTINUOUS
 62
     6
100
AcDbLine
 10
1238.0
 20
2013.001391
 30
0.0
 11
1163.572607
 21
2013.001391
 31
0.0
  0
LINE
  5
15C
100
AcDbEntity
  8
水栓
  6
CONTINUOUS
 62
     6
100
AcDbLine
 10
1243.0
 20
2027.001391
 30
0.0
 11
1244.0
 21
2027.001391
 31
0.0
  0
LINE
  5
15D
100
AcDbEntity
  8
水栓
  6
CONTINUOUS
 62
     6
100
AcDbLine
 10
1243.0
 20
1981.001391
 30
0.0
 11
1244.0
 21
1981.001391
 31
0.0
  0
ARC
  5
15E
100
AcDbEntity
  8
水栓
  6
CONTINUOUS
 62
     6
100
AcDbCircle
 10
1243.0
 20
2025.001391
 30
0.0
 40
2.0
100
AcDbArc
 50
90.0
 51
180.0
  0
ARC
  5
15F
100
AcDbEntity
  8
水栓
  6
CONTINUOUS
 62
     6
100
AcDbCircle
 10
1243.0
 20
1983.001391
 30
0.0
 40
2.0
100
AcDbArc
 50
180.0
 51
270.0
  0
ARC
  5
160
100
AcDbEntity
  8
水栓
  6
CONTINUOUS
 62
     6
100
AcDbCircle
 10
1238.0
 20
2016.001391
 30
0.0
 40
3.0
100
AcDbArc
 50
270.0
 51
0.0
  0
ARC
  5
161
100
AcDbEntity
  8
水栓
  6
CONTINUOUS
 62
     6
100
AcDbCircle
 10
1238.0
 20
1992.001391
 30
0.0
 40
3.0
100
AcDbArc
 50
0.0
 51
90.0
  0
LINE
  5
162
100
AcDbEntity
  8
水栓
  6
CONTINUOUS
 62
     6
100
AcDbLine
 10
1241.0
 20
1983.001391
 30
0.0
 11
1241.0
 21
2025.001391
 31
0.0
  0
ARC
  5
163
100
AcDbEntity
  8
水栓
  6
CONTINUOUS
 62
     6
100
AcDbCircle
 10
1163.572607
 20
2041.601391
 30
0.0
 40
28.6
100
AcDbArc
 50
239.585471
 51
270.0
  0
ARC
  5
164
100
AcDbEntity
  8
水栓
  6
CONTINUOUS
 62
     6
100
AcDbCircle
 10
1163.572607
 20
1966.401391
 30
0.0
 40
28.6
100
AcDbArc
 50
90.0
 51
120.414529
  0
CIRCLE
  5
165
100
AcDbEntity
  8
水栓
  6
CONTINUOUS
 62
     6
100
AcDbCircle
 10
1141.5
 20
2004.001391
 30
0.0
 40
15.0
  0
LINE
  5
166
100
AcDbEntity
  8
水栓
  6
CONTINUOUS
 62
     6
100
AcDbLine
 10
1256.2725
 20
2014.478891
 30
0.0
 11
1258.0
 21
2012.751391
 31
0.0
  0
LINE
  5
167
100
AcDbEntity
  8
水栓
  6
CONTINUOUS
 62
     6
100
AcDbLine
 10
1257.4345
 20
2013.316891
 30
0.0
 11
1245.162
 21
2013.316891
 31
0.0
  0
LINE
  5
168
100
AcDbEntity
  8
水栓
  6
CONTINUOUS
 62
     6
100
AcDbLine
 10
1244.0
 20
2014.478891
 30
0.0
 11
1245.162
 21
2013.316891
 31
0.0
  0
LINE
  5
169
100
AcDbEntity
  8
水栓
  6
CONTINUOUS
 62
     6
100
AcDbLine
 10
1256.2725
 20
1993.523891
 30
0.0
 11
1258.0
 21
1995.251391
 31
0.0
  0
LINE
  5
16A
100
AcDbEntity
  8
水栓
  6
CONTINUOUS
 62
     6
100
AcDbLine
 10
1257.4345
 20
1994.685891
 30
0.0
 11
1245.162
 21
1994.685891
 31
0.0
  0
LINE
  5
16B
100
AcDbEntity
  8
水栓
  6
CONTINUOUS
 62
     6
100
AcDbLine
 10
1244.0
 20
1993.523891
 30
0.0
 11
1245.162
 21
1994.685891
 31
0.0
  0
LINE
  5
16C
100
AcDbEntity
  8
水栓
  6
CONTINUOUS
 62
     6
100
AcDbLine
 10
1244.0
 20
2014.478891
 30
0.0
 11
1256.2725
 21
2014.478891
 31
0.0
  0
LINE
  5
16D
100
AcDbEntity
  8
水栓
  6
CONTINUOUS
 62
     6
100
AcDbLine
 10
1244.0
 20
1993.523891
 30
0.0
 11
1256.2725
 21
1993.523891
 31
0.0
  0
LINE
  5
16E
100
AcDbEntity
  8
水栓
  6
CONTINUOUS
 62
     6
100
AcDbLine
 10
1258.0
 20
1995.251391
 30
0.0
 11
1258.0
 21
2012.751391
 31
0.0
  0
LINE
  5
16F
100
AcDbEntity
  8
水栓
  6
CONTINUOUS
 62
     6
100
AcDbLine
 10
1256.2725
 20
2014.478891
 30
0.0
 11
1256.2725
 21
1993.523891
 31
0.0
  0
LINE
  5
170
100
AcDbEntity
  8
水栓
  6
CONTINUOUS
 62
     6
100
AcDbLine
 10
1030.790624
 20
419.523798
 30
0.0
 11
1109.285059
 21
419.523798
 31
0.0
  0
TEXT
  5
171
100
AcDbEntity
  8
水栓
  6
CONTINUOUS
 62
     2
100
AcDbText
 10
1030.790624
 20
423.023798
 30
0.0
 40
40.0
  1
２５
 41
0.861
  7
EXCADSTD
 72
     5
 11
1105.951824
 21
423.023798
 31
0.0
100
AcDbText
  0
LINE
  5
172
100
AcDbEntity
  8
水栓
  6
EXLTYPE4
 62
     6
100
AcDbLine
 10
1147.700256
 20
512.00058
 30
0.0
 11
1147.700256
 21
963.499908
 31
0.0
  0
LINE
  5
173
100
AcDbEntity
  8
水栓
  6
EXLTYPE3
 62
     6
100
AcDbLine
 10
1173.100256
 20
512.00058
 30
0.0
 11
1173.100256
 21
980.000043
 31
0.0
  0
ARC
  5
174
100
AcDbEntity
  8
水栓
  6
EXLTYPE2
 62
     6
100
AcDbCircle
 10
1160.400256
 20
980.000043
 30
0.0
 40
12.7
100
AcDbArc
 50
0.0
 51
180.0
  0
LINE
  5
175
100
AcDbEntity
  8
水栓
  6
EXLTYPE2
 62
     6
100
AcDbLine
 10
1147.741993
 20
473.000802
 30
0.0
 11
1173.141993
 21
473.000785
 31
0.0
  0
ARC
  5
176
100
AcDbEntity
  8
水栓
  6
EXLTYPE2
 62
     6
100
AcDbCircle
 10
1178.441947
 20
500.00061
 30
0.0
 40
11.999998
100
AcDbArc
 50
0.0
 51
90.0
  0
ARC
  5
177
100
AcDbEntity
  8
水栓
  6
EXLTYPE2
 62
     6
100
AcDbCircle
 10
1142.442038
 20
500.00061
 30
0.0
 40
11.999998
100
AcDbArc
 50
90.0
 51
180.0
  0
LINE
  5
178
100
AcDbEntity
  8
水栓
  6
EXLTYPE2
 62
     6
100
AcDbLine
 10
1190.442069
 20
500.00061
 30
0.0
 11
1190.442069
 21
498.000641
 31
0.0
  0
LINE
  5
179
100
AcDbEntity
  8
水栓
  6
EXLTYPE2
 62
     6
100
AcDbLine
 10
1130.442069
 20
500.00061
 30
0.0
 11
1130.442069
 21
498.000641
 31
0.0
  0
LINE
  5
17A
100
AcDbEntity
  8
水栓
  6
EXLTYPE2
 62
     6
100
AcDbLine
 10
1142.442038
 20
512.00058
 30
0.0
 11
1178.441947
 21
512.00058
 31
0.0
  0
LINE
  5
17B
100
AcDbEntity
  8
水栓
  6
EXLTYPE2
 62
     6
100
AcDbLine
 10
1173.141993
 20
473.000785
 30
0.0
 11
1173.141993
 21
498.000785
 31
0.0
  0
LINE
  5
17C
100
AcDbEntity
  8
水栓
  6
EXLTYPE2
 62
     6
100
AcDbLine
 10
1147.741993
 20
473.000802
 30
0.0
 11
1147.741993
 21
498.000802
 31
0.0
  0
TEXT
  5
17D
100
AcDbEntity
  8
水栓
  6
CONTINUOUS
 62
     2
100
AcDbText
 10
835.02407
 20
1491.772016
 30
0.0
 40
40.0
  1
ＮＬ１５
 41
0.819
  7
EXCADSTD
 72
     5
 11
991.02407
 21
1491.772016
 31
0.0
100
AcDbText
  0
LINE
  5
17E
100
AcDbEntity
  8
水栓
  6
CONTINUOUS
 62
     6
100
AcDbLine
 10
984.02407
 20
1488.272016
 30
0.0
 11
832.0
 21
1488.272016
 31
0.0
  0
POLYLINE
  5
17F
100
AcDbEntity
  8
トラップ
  6
CONTINUOUS
 62
     6
100
AcDb2dPolyline
 66
     1
 10
0.0
 20
0.0
 30
0.0
 70
   128
  0
VERTEX
  5
180
100
AcDbEntity
  8
トラップ
  6
CONTINUOUS
 62
     6
100
AcDbVertex
100
AcDb2dVertex
 10
1251.4
 20
1420.4775
 30
0.0
  0
VERTEX
  5
181
100
AcDbEntity
  8
トラップ
  6
CONTINUOUS
 62
     6
100
AcDbVertex
100
AcDb2dVertex
 10
1279.536404
 20
1469.211181
 30
0.0
  0
SEQEND
  5
182
100
AcDbEntity
  8
トラップ
  6
CONTINUOUS
 62
     6
  0
LINE
  5
183
100
AcDbEntity
  8
トラップ
  6
CONTINUOUS
 62
     6
100
AcDbLine
 10
1263.848185
 20
1453.705056
 30
0.0
 11
1251.4
 21
1420.4775
 31
0.0
  0
LINE
  5
184
100
AcDbEntity
  8
トラップ
  6
CONTINUOUS
 62
     6
100
AcDbLine
 10
1251.4
 20
1420.4775
 30
0.0
 11
1273.951815
 21
1447.871722
 31
0.0
  0
LEADER
  5
185
100
AcDbEntity
  8
トラップ
  6
CONTINUOUS
 62
     6
100
AcDbLeader
  3
STANDARD
 73
     3
 74
     1
 75
     0
 40
0.0
 76
     2
 10
1146.700348
 20
2134.185253
 30
0.0
 10
1182.506176
 20
2196.202766
 30
0.0
 77
     6
1001
ACAD
1000
DSTYLE
1002
{
1070
    41
1040
35.0
1070
     5
1000
_EX_NORM
1070
     6
1000
_EX_NORM
1070
     7
1000
_EX_NORM
1070
   341
1005
2B
1002
}
  0
POLYLINE
  5
186
100
AcDbEntity
  8
トラップ
  6
CONTINUOUS
 62
     6
100
AcDb2dPolyline
 66
     1
 10
0.0
 20
0.0
 30
0.0
 70
   128
  0
VERTEX
  5
187
100
AcDbEntity
  8
トラップ
  6
CONTINUOUS
 62
     6
100
AcDbVertex
100
AcDb2dVertex
 10
1121.300262
 20
922.332519
 30
0.0
  0
VERTEX
  5
188
100
AcDbEntity
  8
トラップ
  6
CONTINUOUS
 62
     6
100
AcDbVertex
100
AcDb2dVertex
 10
1091.788663
 20
871.21693
 30
0.0
  0
SEQEND
  5
189
100
AcDbEntity
  8
トラップ
  6
CONTINUOUS
 62
     6
  0
LINE
  5
18A
100
AcDbEntity
  8
トラップ
  6
CONTINUOUS
 62
     6
100
AcDbLine
 10
1108.852077
 20
889.104964
 30
0.0
 11
1121.300262
 21
922.332519
 31
0.0
  0
LINE
  5
18B
100
AcDbEntity
  8
トラップ
  6
CONTINUOUS
 62
     6
100
AcDbLine
 10
1121.300262
 20
922.332519
 30
0.0
 11
1098.748448
 21
894.938297
 31
0.0
  0
POLYLINE
  5
18C
100
AcDbEntity
  8
トラップ
  6
CONTINUOUS
 62
     6
100
AcDb2dPolyline
 66
     1
 10
0.0
 20
0.0
 30
0.0
 70
   128
  0
VERTEX
  5
18D
100
AcDbEntity
  8
トラップ
  6
CONTINUOUS
 62
     6
100
AcDbVertex
100
AcDb2dVertex
 10
1147.700256
 20
679.0
 30
0.0
  0
VERTEX
  5
18E
100
AcDbEntity
  8
トラップ
  6
CONTINUOUS
 62
     6
100
AcDbVertex
100
AcDb2dVertex
 10
1118.188657
 20
627.884411
 30
0.0
  0
SEQEND
  5
18F
100
AcDbEntity
  8
トラップ
  6
CONTINUOUS
 62
     6
  0
LINE
  5
190
100
AcDbEntity
  8
トラップ
  6
CONTINUOUS
 62
     6
100
AcDbLine
 10
1135.252071
 20
645.772444
 30
0.0
 11
1147.700256
 21
679.0
 31
0.0
  0
LINE
  5
191
100
AcDbEntity
  8
トラップ
  6
CONTINUOUS
 62
     6
100
AcDbLine
 10
1147.700256
 20
679.0
 30
0.0
 11
1125.148441
 21
651.605778
 31
0.0
  0
LINE
  5
192
100
AcDbEntity
  8
トラップ
  6
CONTINUOUS
 62
     6
100
AcDbLine
 10
1109.750275
 20
1135.0
 30
0.0
 11
1109.750275
 21
1140.0
 31
0.0
  0
LINE
  5
193
100
AcDbEntity
  8
トラップ
  6
CONTINUOUS
 62
     6
100
AcDbLine
 10
1158.250336
 20
1135.0
 30
0.0
 11
1109.750275
 21
1135.0
 31
0.0
  0
LINE
  5
194
100
AcDbEntity
  8
トラップ
  6
CONTINUOUS
 62
     6
100
AcDbLine
 10
1158.250336
 20
1135.0
 30
0.0
 11
1158.250336
 21
1140.0
 31
0.0
  0
LINE
  5
195
100
AcDbEntity
  8
トラップ
  6
CONTINUOUS
 62
     6
100
AcDbLine
 10
1156.500305
 20
1114.00003
 30
0.0
 11
1156.500305
 21
1135.0
 31
0.0
  0
LINE
  5
196
100
AcDbEntity
  8
トラップ
  6
CONTINUOUS
 62
     6
100
AcDbLine
 10
1155.760364
 20
1112.327358
 30
0.0
 11
1148.440197
 21
1105.672672
 31
0.0
  0
LINE
  5
197
100
AcDbEntity
  8
トラップ
  6
CONTINUOUS
 62
     6
100
AcDbLine
 10
1111.500305
 20
1114.00003
 30
0.0
 11
1111.500305
 21
1135.0
 31
0.0
  0
LINE
  5
198
100
AcDbEntity
  8
トラップ
  6
CONTINUOUS
 62
     6
100
AcDbLine
 10
1112.240246
 20
1112.327358
 30
0.0
 11
1120.300354
 21
1105.0
 31
0.0
  0
LINE
  5
199
100
AcDbEntity
  8
トラップ
  6
CONTINUOUS
 62
     6
100
AcDbLine
 10
1111.500305
 20
1113.000031
 30
0.0
 11
1119.560413
 21
1105.672672
 31
0.0
  0
LINE
  5
19A
100
AcDbEntity
  8
トラップ
  6
CONTINUOUS
 62
     6
100
AcDbLine
 10
1146.700195
 20
1105.0
 30
0.0
 11
1121.300415
 21
1105.0
 31
0.0
  0
LINE
  5
19B
100
AcDbEntity
  8
トラップ
  6
CONTINUOUS
 62
     6
100
AcDbLine
 10
1120.300354
 20
1100.0
 30
0.0
 11
1120.300354
 21
1104.0
 31
0.0
  0
LINE
  5
19C
100
AcDbEntity
  8
トラップ
  6
CONTINUOUS
 62
     6
100
AcDbLine
 10
1147.700256
 20
1100.0
 30
0.0
 11
1120.300354
 21
1100.0
 31
0.0
  0
LINE
  5
19D
100
AcDbEntity
  8
トラップ
  6
CONTINUOUS
 62
     6
100
AcDbLine
 10
1146.700195
 20
1105.0
 30
0.0
 11
1121.300415
 21
1105.0
 31
0.0
  0
LINE
  5
19E
100
AcDbEntity
  8
トラップ
  6
CONTINUOUS
 62
     6
100
AcDbLine
 10
1147.700256
 20
1100.0
 30
0.0
 11
1147.700256
 21
1104.0
 31
0.0
  0
LINE
  5
19F
100
AcDbEntity
  8
トラップ
  6
CONTINUOUS
 62
     6
100
AcDbLine
 10
1146.700348
 20
1018.499908
 30
0.0
 11
1146.700348
 21
1100.0
 31
0.0
  0
LINE
  5
1A0
100
AcDbEntity
  8
トラップ
  6
CONTINUOUS
 62
     6
100
AcDbLine
 10
1121.300262
 20
1018.499908
 30
0.0
 11
1121.300262
 21
1100.0
 31
0.0
  0
LINE
  5
1A1
100
AcDbEntity
  8
トラップ
  6
CONTINUOUS
 62
     6
100
AcDbLine
 10
1121.300415
 20
963.500061
 30
0.0
 11
1146.700195
 21
963.500061
 31
0.0
  0
LINE
  5
1A2
100
AcDbEntity
  8
トラップ
  6
CONTINUOUS
 62
     6
100
AcDbLine
 10
1120.300354
 20
968.063355
 30
0.0
 11
1120.300354
 21
1004.199982
 31
0.0
  0
LINE
  5
1A3
100
AcDbEntity
  8
トラップ
  6
CONTINUOUS
 62
     6
100
AcDbLine
 10
1120.300354
 20
964.03595
 30
0.0
 11
1120.300354
 21
1004.199982
 31
0.0
  0
LINE
  5
1A4
100
AcDbEntity
  8
トラップ
  6
CONTINUOUS
 62
     6
100
AcDbLine
 10
1147.700256
 20
964.03595
 30
0.0
 11
1147.700256
 21
1004.199982
 31
0.0
  0
ARC
  5
1A5
100
AcDbEntity
  8
トラップ
  6
CONTINUOUS
 62
     6
100
AcDbCircle
 10
1119.000305
 20
1004.199982
 30
0.0
 40
1.3
100
AcDbArc
 50
0.0
 51
90.0
  0
ARC
  5
1A6
100
AcDbEntity
  8
トラップ
  6
CONTINUOUS
 62
     6
100
AcDbCircle
 10
1149.000305
 20
1004.199982
 30
0.0
 40
1.3
100
AcDbArc
 50
90.0
 51
180.0
  0
LINE
  5
1A7
100
AcDbEntity
  8
トラップ
  6
CONTINUOUS
 62
     6
100
AcDbLine
 10
1149.000305
 20
1005.500031
 30
0.0
 11
1149.000305
 21
1006.499939
 31
0.0
  0
LINE
  5
1A8
100
AcDbEntity
  8
トラップ
  6
CONTINUOUS
 62
     6
100
AcDbLine
 10
1119.000305
 20
1005.500031
 30
0.0
 11
1119.000305
 21
1006.499939
 31
0.0
  0
LINE
  5
1A9
100
AcDbEntity
  8
トラップ
  6
CONTINUOUS
 62
     6
100
AcDbLine
 10
1119.000305
 20
1005.500031
 30
0.0
 11
1149.000305
 21
1005.500031
 31
0.0
  0
LINE
  5
1AA
100
AcDbEntity
  8
トラップ
  6
CONTINUOUS
 62
     6
100
AcDbLine
 10
1149.000305
 20
1005.500031
 30
0.0
 11
1150.000366
 21
1006.500092
 31
0.0
  0
LINE
  5
1AB
100
AcDbEntity
  8
トラップ
  6
CONTINUOUS
 62
     6
100
AcDbLine
 10
1118.000244
 20
1006.500092
 30
0.0
 11
1119.000305
 21
1005.500031
 31
0.0
  0
ARC
  5
1AC
100
AcDbEntity
  8
トラップ
  6
CONTINUOUS
 62
     6
100
AcDbCircle
 10
1145.700287
 20
964.03595
 30
0.0
 40
2.0
100
AcDbArc
 50
330.001953
 51
0.0
  0
LINE
  5
1AD
100
AcDbEntity
  8
トラップ
  6
CONTINUOUS
 62
     6
100
AcDbLine
 10
1146.968292
 20
962.232208
 30
0.0
 11
1147.700256
 21
963.499908
 31
0.0
  0
ARC
  5
1AE
100
AcDbEntity
  8
トラップ
  6
CONTINUOUS
 62
     6
100
AcDbCircle
 10
1148.700317
 20
961.2323
 30
0.0
 40
2.0
100
AcDbArc
 50
150.001907
 51
180.0
  0
LINE
  5
1AF
100
AcDbEntity
  8
トラップ
  6
CONTINUOUS
 62
     6
100
AcDbLine
 10
1146.968292
 20
962.232208
 30
0.0
 11
1147.700256
 21
963.499908
 31
0.0
  0
LINE
  5
1B0
100
AcDbEntity
  8
トラップ
  6
CONTINUOUS
 62
     6
100
AcDbLine
 10
1146.968292
 20
962.232208
 30
0.0
 11
1147.700256
 21
963.499908
 31
0.0
  0
LINE
  5
1B1
100
AcDbEntity
  8
トラップ
  6
CONTINUOUS
 62
     6
100
AcDbLine
 10
1146.968292
 20
962.232208
 30
0.0
 11
1147.700256
 21
963.499908
 31
0.0
  0
LINE
  5
1B2
100
AcDbEntity
  8
トラップ
  6
CONTINUOUS
 62
     6
100
AcDbLine
 10
1146.968292
 20
962.232208
 30
0.0
 11
1147.700256
 21
963.499908
 31
0.0
  0
ARC
  5
1B3
100
AcDbEntity
  8
トラップ
  6
CONTINUOUS
 62
     6
100
AcDbCircle
 10
1119.300293
 20
961.2323
 30
0.0
 40
2.0
100
AcDbArc
 50
0.0
 51
29.998093
  0
LINE
  5
1B4
100
AcDbEntity
  8
トラップ
  6
CONTINUOUS
 62
     6
100
AcDbLine
 10
1121.032318
 20
962.232208
 30
0.0
 11
1120.300354
 21
963.499908
 31
0.0
  0
LINE
  5
1B5
100
AcDbEntity
  8
トラップ
  6
CONTINUOUS
 62
     6
100
AcDbLine
 10
1121.032318
 20
962.232208
 30
0.0
 11
1120.300354
 21
963.499908
 31
0.0
  0
LINE
  5
1B6
100
AcDbEntity
  8
トラップ
  6
CONTINUOUS
 62
     6
100
AcDbLine
 10
1121.032318
 20
962.232208
 30
0.0
 11
1120.300354
 21
963.499908
 31
0.0
  0
LINE
  5
1B7
100
AcDbEntity
  8
トラップ
  6
CONTINUOUS
 62
     6
100
AcDbLine
 10
1121.032318
 20
962.232208
 30
0.0
 11
1120.300354
 21
963.499908
 31
0.0
  0
ARC
  5
1B8
100
AcDbEntity
  8
トラップ
  6
CONTINUOUS
 62
     6
100
AcDbCircle
 10
1122.300323
 20
964.03595
 30
0.0
 40
2.0
100
AcDbArc
 50
180.0
 51
209.998047
  0
ARC
  5
1B9
100
AcDbEntity
  8
トラップ
  6
CONTINUOUS
 62
     6
100
AcDbCircle
 10
1134.000305
 20
894.49997
 30
0.0
 40
12.700043
100
AcDbArc
 50
180.0
 51
0.0
  0
LINE
  5
1BA
100
AcDbEntity
  8
トラップ
  6
CONTINUOUS
 62
     6
100
AcDbLine
 10
1146.700348
 20
894.49997
 30
0.0
 11
1146.700348
 21
961.2323
 31
0.0
  0
LINE
  5
1BB
100
AcDbEntity
  8
トラップ
  6
CONTINUOUS
 62
     6
100
AcDbLine
 10
1121.300262
 20
894.49997
 30
0.0
 11
1121.300262
 21
961.2323
 31
0.0
  0
ARC
  5
1BC
100
AcDbEntity
  8
トラップ
  6
CONTINUOUS
 62
     6
100
AcDbCircle
 10
1134.000305
 20
980.0
 30
0.0
 40
30.0
100
AcDbArc
 50
120.671036
 51
244.954742
  0
ARC
  5
1BD
100
AcDbEntity
  8
トラップ
  6
CONTINUOUS
 62
     6
100
AcDbCircle
 10
1134.000305
 20
980.0
 30
0.0
 40
30.0
100
AcDbArc
 50
295.045166
 51
59.328964
  0
LINE
  5
1BE
100
AcDbEntity
  8
トラップ
  6
CONTINUOUS
 62
     6
100
AcDbLine
 10
1116.500305
 20
932.500244
 30
0.0
 11
1116.500305
 21
942.500214
 31
0.0
  0
LINE
  5
1BF
100
AcDbEntity
  8
トラップ
  6
CONTINUOUS
 62
     6
100
AcDbLine
 10
1151.500305
 20
932.500244
 30
0.0
 11
1151.500305
 21
942.500214
 31
0.0
  0
LINE
  5
1C0
100
AcDbEntity
  8
トラップ
  6
CONTINUOUS
 62
     6
100
AcDbLine
 10
1150.500305
 20
943.500214
 30
0.0
 11
1146.700348
 21
943.500214
 31
0.0
  0
LINE
  5
1C1
100
AcDbEntity
  8
トラップ
  6
CONTINUOUS
 62
     6
100
AcDbLine
 10
1121.300262
 20
943.500214
 30
0.0
 11
1117.500305
 21
943.500214
 31
0.0
  0
LINE
  5
1C2
100
AcDbEntity
  8
トラップ
  6
CONTINUOUS
 62
     6
100
AcDbLine
 10
1150.500305
 20
931.500244
 30
0.0
 11
1146.700348
 21
931.500244
 31
0.0
  0
LINE
  5
1C3
100
AcDbEntity
  8
トラップ
  6
CONTINUOUS
 62
     6
100
AcDbLine
 10
1121.300262
 20
931.500244
 30
0.0
 11
1117.500305
 21
931.500244
 31
0.0
  0
POLYLINE
  5
1C4
100
AcDbEntity
  8
トラップ
  6
CONTINUOUS
 62
     6
100
AcDb2dPolyline
 66
     1
 10
0.0
 20
0.0
 30
0.0
 70
   128
  0
VERTEX
  5
1C5
100
AcDbEntity
  8
トラップ
  6
CONTINUOUS
 62
     6
100
AcDbVertex
100
AcDb2dVertex
 10
1149.695343
 20
937.500153
 30
0.0
  0
VERTEX
  5
1C6
100
AcDbEntity
  8
トラップ
  6
CONTINUOUS
 62
     6
100
AcDbVertex
100
AcDb2dVertex
 10
1149.690531
 20
937.691368
 30
0.0
  0
VERTEX
  5
1C7
100
AcDbEntity
  8
トラップ
  6
CONTINUOUS
 62
     6
100
AcDbVertex
100
AcDb2dVertex
 10
1149.676127
 20
937.882321
 30
0.0
  0
VERTEX
  5
1C8
100
AcDbEntity
  8
トラップ
  6
CONTINUOUS
 62
     6
100
AcDbVertex
100
AcDb2dVertex
 10
1149.652176
 20
938.07275
 30
0.0
  0
VERTEX
  5
1C9
100
AcDbEntity
  8
トラップ
  6
CONTINUOUS
 62
     6
100
AcDbVertex
100
AcDb2dVertex
 10
1149.618728
 20
938.262394
 30
0.0
  0
VERTEX
  5
1CA
100
AcDbEntity
  8
トラップ
  6
CONTINUOUS
 62
     6
100
AcDbVertex
100
AcDb2dVertex
 10
1149.575828
 20
938.450989
 30
0.0
  0
VERTEX
  5
1CB
100
AcDbEntity
  8
トラップ
  6
CONTINUOUS
 62
     6
100
AcDbVertex
100
AcDb2dVertex
 10
1149.523524
 20
938.638275
 30
0.0
  0
VERTEX
  5
1CC
100
AcDbEntity
  8
トラップ
  6
CONTINUOUS
 62
     6
100
AcDbVertex
100
AcDb2dVertex
 10
1149.461863
 20
938.823989
 30
0.0
  0
VERTEX
  5
1CD
100
AcDbEntity
  8
トラップ
  6
CONTINUOUS
 62
     6
100
AcDbVertex
100
AcDb2dVertex
 10
1149.390904
 20
939.007872
 30
0.0
  0
VERTEX
  5
1CE
100
AcDbEntity
  8
トラップ
  6
CONTINUOUS
 62
     6
100
AcDbVertex
100
AcDb2dVertex
 10
1149.310768
 20
939.189675
 30
0.0
  0
VERTEX
  5
1CF
100
AcDbEntity
  8
トラップ
  6
CONTINUOUS
 62
     6
100
AcDbVertex
100
AcDb2dVertex
 10
1149.22159
 20
939.369152
 30
0.0
  0
VERTEX
  5
1D0
100
AcDbEntity
  8
トラップ
  6
CONTINUOUS
 62
     6
100
AcDbVertex
100
AcDb2dVertex
 10
1149.123506
 20
939.546059
 30
0.0
  0
VERTEX
  5
1D1
100
AcDbEntity
  8
トラップ
  6
CONTINUOUS
 62
     6
100
AcDbVertex
100
AcDb2dVertex
 10
1149.016654
 20
939.72015
 30
0.0
  0
VERTEX
  5
1D2
100
AcDbEntity
  8
トラップ
  6
CONTINUOUS
 62
     6
100
AcDbVertex
100
AcDb2dVertex
 10
1148.90117
 20
939.89118
 30
0.0
  0
VERTEX
  5
1D3
100
AcDbEntity
  8
トラップ
  6
CONTINUOUS
 62
     6
100
AcDbVertex
100
AcDb2dVertex
 10
1148.77719
 20
940.058903
 30
0.0
  0
VERTEX
  5
1D4
100
AcDbEntity
  8
トラップ
  6
CONTINUOUS
 62
     6
100
AcDbVertex
100
AcDb2dVertex
 10
1148.644861
 20
940.223078
 30
0.0
  0
VERTEX
  5
1D5
100
AcDbEntity
  8
トラップ
  6
CONTINUOUS
 62
     6
100
AcDbVertex
100
AcDb2dVertex
 10
1148.504381
 20
940.383488
 30
0.0
  0
VERTEX
  5
1D6
100
AcDbEntity
  8
トラップ
  6
CONTINUOUS
 62
     6
100
AcDbVertex
100
AcDb2dVertex
 10
1148.355968
 20
940.539924
 30
0.0
  0
VERTEX
  5
1D7
100
AcDbEntity
  8
トラップ
  6
CONTINUOUS
 62
     6
100
AcDbVertex
100
AcDb2dVertex
 10
1148.19984
 20
940.692176
 30
0.0
  0
VERTEX
  5
1D8
100
AcDbEntity
  8
トラップ
  6
CONTINUOUS
 62
     6
100
AcDbVertex
100
AcDb2dVertex
 10
1148.036212
 20
940.840036
 30
0.0
  0
VERTEX
  5
1D9
100
AcDbEntity
  8
トラップ
  6
CONTINUOUS
 62
     6
100
AcDbVertex
100
AcDb2dVertex
 10
1147.865303
 20
940.983295
 30
0.0
  0
VERTEX
  5
1DA
100
AcDbEntity
  8
トラップ
  6
CONTINUOUS
 62
     6
100
AcDbVertex
100
AcDb2dVertex
 10
1147.687329
 20
941.121742
 30
0.0
  0
VERTEX
  5
1DB
100
AcDbEntity
  8
トラップ
  6
CONTINUOUS
 62
     6
100
AcDbVertex
100
AcDb2dVertex
 10
1147.502514
 20
941.255174
 30
0.0
  0
VERTEX
  5
1DC
100
AcDbEntity
  8
トラップ
  6
CONTINUOUS
 62
     6
100
AcDbVertex
100
AcDb2dVertex
 10
1147.311126
 20
941.383417
 30
0.0
  0
VERTEX
  5
1DD
100
AcDbEntity
  8
トラップ
  6
CONTINUOUS
 62
     6
100
AcDbVertex
100
AcDb2dVertex
 10
1147.113446
 20
941.506311
 30
0.0
  0
VERTEX
  5
1DE
100
AcDbEntity
  8
トラップ
  6
CONTINUOUS
 62
     6
100
AcDbVertex
100
AcDb2dVertex
 10
1146.909759
 20
941.623691
 30
0.0
  0
VERTEX
  5
1DF
100
AcDbEntity
  8
トラップ
  6
CONTINUOUS
 62
     6
100
AcDbVertex
100
AcDb2dVertex
 10
1146.700349
 20
941.735398
 30
0.0
  0
SEQEND
  5
1E0
100
AcDbEntity
  8
トラップ
  6
CONTINUOUS
 62
     6
  0
POLYLINE
  5
1E1
100
AcDbEntity
  8
トラップ
  6
CONTINUOUS
 62
     6
100
AcDb2dPolyline
 66
     1
 10
0.0
 20
0.0
 30
0.0
 70
   128
  0
VERTEX
  5
1E2
100
AcDbEntity
  8
トラップ
  6
CONTINUOUS
 62
     6
100
AcDbVertex
100
AcDb2dVertex
 10
1146.700352
 20
933.264908
 30
0.0
  0
VERTEX
  5
1E3
100
AcDbEntity
  8
トラップ
  6
CONTINUOUS
 62
     6
100
AcDbVertex
100
AcDb2dVertex
 10
1146.909762
 20
933.376615
 30
0.0
  0
VERTEX
  5
1E4
100
AcDbEntity
  8
トラップ
  6
CONTINUOUS
 62
     6
100
AcDbVertex
100
AcDb2dVertex
 10
1147.113449
 20
933.493996
 30
0.0
  0
VERTEX
  5
1E5
100
AcDbEntity
  8
トラップ
  6
CONTINUOUS
 62
     6
100
AcDbVertex
100
AcDb2dVertex
 10
1147.311128
 20
933.616889
 30
0.0
  0
VERTEX
  5
1E6
100
AcDbEntity
  8
トラップ
  6
CONTINUOUS
 62
     6
100
AcDbVertex
100
AcDb2dVertex
 10
1147.502516
 20
933.745133
 30
0.0
  0
VERTEX
  5
1E7
100
AcDbEntity
  8
トラップ
  6
CONTINUOUS
 62
     6
100
AcDbVertex
100
AcDb2dVertex
 10
1147.687331
 20
933.878565
 30
0.0
  0
VERTEX
  5
1E8
100
AcDbEntity
  8
トラップ
  6
CONTINUOUS
 62
     6
100
AcDbVertex
100
AcDb2dVertex
 10
1147.865305
 20
934.017012
 30
0.0
  0
VERTEX
  5
1E9
100
AcDbEntity
  8
トラップ
  6
CONTINUOUS
 62
     6
100
AcDbVertex
100
AcDb2dVertex
 10
1148.036214
 20
934.16027
 30
0.0
  0
VERTEX
  5
1EA
100
AcDbEntity
  8
トラップ
  6
CONTINUOUS
 62
     6
100
AcDbVertex
100
AcDb2dVertex
 10
1148.199841
 20
934.30813
 30
0.0
  0
VERTEX
  5
1EB
100
AcDbEntity
  8
トラップ
  6
CONTINUOUS
 62
     6
100
AcDbVertex
100
AcDb2dVertex
 10
1148.35597
 20
934.460383
 30
0.0
  0
VERTEX
  5
1EC
100
AcDbEntity
  8
トラップ
  6
CONTINUOUS
 62
     6
100
AcDbVertex
100
AcDb2dVertex
 10
1148.504382
 20
934.616819
 30
0.0
  0
VERTEX
  5
1ED
100
AcDbEntity
  8
トラップ
  6
CONTINUOUS
 62
     6
100
AcDbVertex
100
AcDb2dVertex
 10
1148.644862
 20
934.777229
 30
0.0
  0
VERTEX
  5
1EE
100
AcDbEntity
  8
トラップ
  6
CONTINUOUS
 62
     6
100
AcDbVertex
100
AcDb2dVertex
 10
1148.777191
 20
934.941404
 30
0.0
  0
VERTEX
  5
1EF
100
AcDbEntity
  8
トラップ
  6
CONTINUOUS
 62
     6
100
AcDbVertex
100
AcDb2dVertex
 10
1148.901171
 20
935.109126
 30
0.0
  0
VERTEX
  5
1F0
100
AcDbEntity
  8
トラップ
  6
CONTINUOUS
 62
     6
100
AcDbVertex
100
AcDb2dVertex
 10
1149.016655
 20
935.280156
 30
0.0
  0
VERTEX
  5
1F1
100
AcDbEntity
  8
トラップ
  6
CONTINUOUS
 62
     6
100
AcDbVertex
100
AcDb2dVertex
 10
1149.123507
 20
935.454247
 30
0.0
  0
VERTEX
  5
1F2
100
AcDbEntity
  8
トラップ
  6
CONTINUOUS
 62
     6
100
AcDbVertex
100
AcDb2dVertex
 10
1149.22159
 20
935.631154
 30
0.0
  0
VERTEX
  5
1F3
100
AcDbEntity
  8
トラップ
  6
CONTINUOUS
 62
     6
100
AcDbVertex
100
AcDb2dVertex
 10
1149.310768
 20
935.810631
 30
0.0
  0
VERTEX
  5
1F4
100
AcDbEntity
  8
トラップ
  6
CONTINUOUS
 62
     6
100
AcDbVertex
100
AcDb2dVertex
 10
1149.390905
 20
935.992434
 30
0.0
  0
VERTEX
  5
1F5
100
AcDbEntity
  8
トラップ
  6
CONTINUOUS
 62
     6
100
AcDbVertex
100
AcDb2dVertex
 10
1149.461863
 20
936.176317
 30
0.0
  0
VERTEX
  5
1F6
100
AcDbEntity
  8
トラップ
  6
CONTINUOUS
 62
     6
100
AcDbVertex
100
AcDb2dVertex
 10
1149.523524
 20
936.362031
 30
0.0
  0
VERTEX
  5
1F7
100
AcDbEntity
  8
トラップ
  6
CONTINUOUS
 62
     6
100
AcDbVertex
100
AcDb2dVertex
 10
1149.575828
 20
936.549316
 30
0.0
  0
VERTEX
  5
1F8
100
AcDbEntity
  8
トラップ
  6
CONTINUOUS
 62
     6
100
AcDbVertex
100
AcDb2dVertex
 10
1149.618728
 20
936.737912
 30
0.0
  0
VERTEX
  5
1F9
100
AcDbEntity
  8
トラップ
  6
CONTINUOUS
 62
     6
100
AcDbVertex
100
AcDb2dVertex
 10
1149.652177
 20
936.927555
 30
0.0
  0
VERTEX
  5
1FA
100
AcDbEntity
  8
トラップ
  6
CONTINUOUS
 62
     6
100
AcDbVertex
100
AcDb2dVertex
 10
1149.676127
 20
937.117985
 30
0.0
  0
VERTEX
  5
1FB
100
AcDbEntity
  8
トラップ
  6
CONTINUOUS
 62
     6
100
AcDbVertex
100
AcDb2dVertex
 10
1149.690531
 20
937.308938
 30
0.0
  0
VERTEX
  5
1FC
100
AcDbEntity
  8
トラップ
  6
CONTINUOUS
 62
     6
100
AcDbVertex
100
AcDb2dVertex
 10
1149.695343
 20
937.500153
 30
0.0
  0
SEQEND
  5
1FD
100
AcDbEntity
  8
トラップ
  6
CONTINUOUS
 62
     6
  0
POLYLINE
  5
1FE
100
AcDbEntity
  8
トラップ
  6
CONTINUOUS
 62
     6
100
AcDb2dPolyline
 66
     1
 10
0.0
 20
0.0
 30
0.0
 70
   128
  0
VERTEX
  5
1FF
100
AcDbEntity
  8
トラップ
  6
CONTINUOUS
 62
     6
100
AcDbVertex
100
AcDb2dVertex
 10
1121.300256
 20
941.735396
 30
0.0
  0
VERTEX
  5
200
100
AcDbEntity
  8
トラップ
  6
CONTINUOUS
 62
     6
100
AcDbVertex
100
AcDb2dVertex
 10
1120.887159
 20
941.506308
 30
0.0
  0
VERTEX
  5
201
100
AcDbEntity
  8
トラップ
  6
CONTINUOUS
 62
     6
100
AcDbVertex
100
AcDb2dVertex
 10
1120.498092
 20
941.255171
 30
0.0
  0
VERTEX
  5
202
100
AcDbEntity
  8
トラップ
  6
CONTINUOUS
 62
     6
100
AcDbVertex
100
AcDb2dVertex
 10
1120.135303
 20
940.983291
 30
0.0
  0
VERTEX
  5
203
100
AcDbEntity
  8
トラップ
  6
CONTINUOUS
 62
     6
100
AcDbVertex
100
AcDb2dVertex
 10
1119.800767
 20
940.692173
 30
0.0
  0
VERTEX
  5
204
100
AcDbEntity
  8
トラップ
  6
CONTINUOUS
 62
     6
100
AcDbVertex
100
AcDb2dVertex
 10
1119.496226
 20
940.383485
 30
0.0
  0
VERTEX
  5
205
100
AcDbEntity
  8
トラップ
  6
CONTINUOUS
 62
     6
100
AcDbVertex
100
AcDb2dVertex
 10
1119.223418
 20
940.0589
 30
0.0
  0
VERTEX
  5
206
100
AcDbEntity
  8
トラップ
  6
CONTINUOUS
 62
     6
100
AcDbVertex
100
AcDb2dVertex
 10
1118.983954
 20
939.720148
 30
0.0
  0
VERTEX
  5
207
100
AcDbEntity
  8
トラップ
  6
CONTINUOUS
 62
     6
100
AcDbVertex
100
AcDb2dVertex
 10
1118.779019
 20
939.36915
 30
0.0
  0
VERTEX
  5
208
100
AcDbEntity
  8
トラップ
  6
CONTINUOUS
 62
     6
100
AcDbVertex
100
AcDb2dVertex
 10
1118.609705
 20
939.00787
 30
0.0
  0
VERTEX
  5
209
100
AcDbEntity
  8
トラップ
  6
CONTINUOUS
 62
     6
100
AcDbVertex
100
AcDb2dVertex
 10
1118.477086
 20
938.638273
 30
0.0
  0
VERTEX
  5
20A
100
AcDbEntity
  8
トラップ
  6
CONTINUOUS
 62
     6
100
AcDbVertex
100
AcDb2dVertex
 10
1118.381882
 20
938.262392
 30
0.0
  0
VERTEX
  5
20B
100
AcDbEntity
  8
トラップ
  6
CONTINUOUS
 62
     6
100
AcDbVertex
100
AcDb2dVertex
 10
1118.324484
 20
937.882319
 30
0.0
  0
VERTEX
  5
20C
100
AcDbEntity
  8
トラップ
  6
CONTINUOUS
 62
     6
100
AcDbVertex
100
AcDb2dVertex
 10
1118.305267
 20
937.500151
 30
0.0
  0
VERTEX
  5
20D
100
AcDbEntity
  8
トラップ
  6
CONTINUOUS
 62
     6
100
AcDbVertex
100
AcDb2dVertex
 10
1118.324484
 20
937.117983
 30
0.0
  0
VERTEX
  5
20E
100
AcDbEntity
  8
トラップ
  6
CONTINUOUS
 62
     6
100
AcDbVertex
100
AcDb2dVertex
 10
1118.381883
 20
936.737911
 30
0.0
  0
VERTEX
  5
20F
100
AcDbEntity
  8
トラップ
  6
CONTINUOUS
 62
     6
100
AcDbVertex
100
AcDb2dVertex
 10
1118.477086
 20
936.36203
 30
0.0
  0
VERTEX
  5
210
100
AcDbEntity
  8
トラップ
  6
CONTINUOUS
 62
     6
100
AcDbVertex
100
AcDb2dVertex
 10
1118.609706
 20
935.992433
 30
0.0
  0
VERTEX
  5
211
100
AcDbEntity
  8
トラップ
  6
CONTINUOUS
 62
     6
100
AcDbVertex
100
AcDb2dVertex
 10
1118.779021
 20
935.631153
 30
0.0
  0
VERTEX
  5
212
100
AcDbEntity
  8
トラップ
  6
CONTINUOUS
 62
     6
100
AcDbVertex
100
AcDb2dVertex
 10
1118.983956
 20
935.280155
 30
0.0
  0
VERTEX
  5
213
100
AcDbEntity
  8
トラップ
  6
CONTINUOUS
 62
     6
100
AcDbVertex
100
AcDb2dVertex
 10
1119.22342
 20
934.941403
 30
0.0
  0
VERTEX
  5
214
100
AcDbEntity
  8
トラップ
  6
CONTINUOUS
 62
     6
100
AcDbVertex
100
AcDb2dVertex
 10
1119.496228
 20
934.616818
 30
0.0
  0
VERTEX
  5
215
100
AcDbEntity
  8
トラップ
  6
CONTINUOUS
 62
     6
100
AcDbVertex
100
AcDb2dVertex
 10
1119.800769
 20
934.30813
 30
0.0
  0
VERTEX
  5
216
100
AcDbEntity
  8
トラップ
  6
CONTINUOUS
 62
     6
100
AcDbVertex
100
AcDb2dVertex
 10
1120.135306
 20
934.017012
 30
0.0
  0
VERTEX
  5
217
100
AcDbEntity
  8
トラップ
  6
CONTINUOUS
 62
     6
100
AcDbVertex
100
AcDb2dVertex
 10
1120.498094
 20
933.745133
 30
0.0
  0
VERTEX
  5
218
100
AcDbEntity
  8
トラップ
  6
CONTINUOUS
 62
     6
100
AcDbVertex
100
AcDb2dVertex
 10
1120.887162
 20
933.493996
 30
0.0
  0
VERTEX
  5
219
100
AcDbEntity
  8
トラップ
  6
CONTINUOUS
 62
     6
100
AcDbVertex
100
AcDb2dVertex
 10
1121.300258
 20
933.264908
 30
0.0
  0
SEQEND
  5
21A
100
AcDbEntity
  8
トラップ
  6
CONTINUOUS
 62
     6
  0
LINE
  5
21B
100
AcDbEntity
  8
トラップ
  6
CONTINUOUS
 62
     6
100
AcDbLine
 10
1150.750488
 20
1018.499908
 30
0.0
 11
1117.250122
 21
1018.499908
 31
0.0
  0
ARC
  5
21C
100
AcDbEntity
  8
トラップ
  6
CONTINUOUS
 62
     6
100
AcDbCircle
 10
1123.200287
 20
1012.5
 30
0.0
 40
8.45
100
AcDbArc
 50
134.761505
 51
225.240753
  0
POLYLINE
  5
21D
100
AcDbEntity
  8
トラップ
  6
CONTINUOUS
 62
     6
100
AcDb2dPolyline
 66
     1
 10
0.0
 20
0.0
 30
0.0
 70
   128
  0
VERTEX
  5
21E
100
AcDbEntity
  8
トラップ
  6
CONTINUOUS
 62
     6
100
AcDbVertex
100
AcDb2dVertex
 10
1122.854675
 20
1012.5
 30
0.0
  0
VERTEX
  5
21F
100
AcDbEntity
  8
トラップ
  6
CONTINUOUS
 62
     6
100
AcDbVertex
100
AcDb2dVertex
 10
1122.738141
 20
1013.732231
 30
0.0
  0
VERTEX
  5
220
100
AcDbEntity
  8
トラップ
  6
CONTINUOUS
 62
     6
100
AcDbVertex
100
AcDb2dVertex
 10
1122.395382
 20
1014.892844
 30
0.0
  0
VERTEX
  5
221
100
AcDbEntity
  8
トラップ
  6
CONTINUOUS
 62
     6
100
AcDbVertex
100
AcDb2dVertex
 10
1121.84628
 20
1015.914397
 30
0.0
  0
VERTEX
  5
222
100
AcDbEntity
  8
トラップ
  6
CONTINUOUS
 62
     6
100
AcDbVertex
100
AcDb2dVertex
 10
1121.12273
 20
1016.737572
 30
0.0
  0
VERTEX
  5
223
100
AcDbEntity
  8
トラップ
  6
CONTINUOUS
 62
     6
100
AcDbVertex
100
AcDb2dVertex
 10
1120.266785
 20
1017.314465
 30
0.0
  0
VERTEX
  5
224
100
AcDbEntity
  8
トラップ
  6
CONTINUOUS
 62
     6
100
AcDbVertex
100
AcDb2dVertex
 10
1119.328251
 20
1017.611525
 30
0.0
  0
VERTEX
  5
225
100
AcDbEntity
  8
トラップ
  6
CONTINUOUS
 62
     6
100
AcDbVertex
100
AcDb2dVertex
 10
1118.361614
 20
1017.611525
 30
0.0
  0
VERTEX
  5
226
100
AcDbEntity
  8
トラップ
  6
CONTINUOUS
 62
     6
100
AcDbVertex
100
AcDb2dVertex
 10
1117.42301
 20
1017.314465
 30
0.0
  0
VERTEX
  5
227
100
AcDbEntity
  8
トラップ
  6
CONTINUOUS
 62
     6
100
AcDbVertex
100
AcDb2dVertex
 10
1116.567059
 20
1016.737572
 30
0.0
  0
VERTEX
  5
228
100
AcDbEntity
  8
トラップ
  6
CONTINUOUS
 62
     6
100
AcDbVertex
100
AcDb2dVertex
 10
1115.843509
 20
1015.914397
 30
0.0
  0
VERTEX
  5
229
100
AcDbEntity
  8
トラップ
  6
CONTINUOUS
 62
     6
100
AcDbVertex
100
AcDb2dVertex
 10
1115.294407
 20
1014.892844
 30
0.0
  0
VERTEX
  5
22A
100
AcDbEntity
  8
トラップ
  6
CONTINUOUS
 62
     6
100
AcDbVertex
100
AcDb2dVertex
 10
1114.951648
 20
1013.732231
 30
0.0
  0
VERTEX
  5
22B
100
AcDbEntity
  8
トラップ
  6
CONTINUOUS
 62
     6
100
AcDbVertex
100
AcDb2dVertex
 10
1114.835113
 20
1012.5
 30
0.0
  0
VERTEX
  5
22C
100
AcDbEntity
  8
トラップ
  6
CONTINUOUS
 62
     6
100
AcDbVertex
100
AcDb2dVertex
 10
1114.951648
 20
1011.267769
 30
0.0
  0
VERTEX
  5
22D
100
AcDbEntity
  8
トラップ
  6
CONTINUOUS
 62
     6
100
AcDbVertex
100
AcDb2dVertex
 10
1115.294407
 20
1010.107156
 30
0.0
  0
VERTEX
  5
22E
100
AcDbEntity
  8
トラップ
  6
CONTINUOUS
 62
     6
100
AcDbVertex
100
AcDb2dVertex
 10
1115.843509
 20
1009.085603
 30
0.0
  0
VERTEX
  5
22F
100
AcDbEntity
  8
トラップ
  6
CONTINUOUS
 62
     6
100
AcDbVertex
100
AcDb2dVertex
 10
1116.567059
 20
1008.262428
 30
0.0
  0
VERTEX
  5
230
100
AcDbEntity
  8
トラップ
  6
CONTINUOUS
 62
     6
100
AcDbVertex
100
AcDb2dVertex
 10
1117.42301
 20
1007.685535
 30
0.0
  0
VERTEX
  5
231
100
AcDbEntity
  8
トラップ
  6
CONTINUOUS
 62
     6
100
AcDbVertex
100
AcDb2dVertex
 10
1118.361614
 20
1007.388475
 30
0.0
  0
VERTEX
  5
232
100
AcDbEntity
  8
トラップ
  6
CONTINUOUS
 62
     6
100
AcDbVertex
100
AcDb2dVertex
 10
1119.328251
 20
1007.388475
 30
0.0
  0
VERTEX
  5
233
100
AcDbEntity
  8
トラップ
  6
CONTINUOUS
 62
     6
100
AcDbVertex
100
AcDb2dVertex
 10
1120.266785
 20
1007.685535
 30
0.0
  0
VERTEX
  5
234
100
AcDbEntity
  8
トラップ
  6
CONTINUOUS
 62
     6
100
AcDbVertex
100
AcDb2dVertex
 10
1121.12273
 20
1008.262428
 30
0.0
  0
VERTEX
  5
235
100
AcDbEntity
  8
トラップ
  6
CONTINUOUS
 62
     6
100
AcDbVertex
100
AcDb2dVertex
 10
1121.84628
 20
1009.085603
 30
0.0
  0
VERTEX
  5
236
100
AcDbEntity
  8
トラップ
  6
CONTINUOUS
 62
     6
100
AcDbVertex
100
AcDb2dVertex
 10
1122.395382
 20
1010.107156
 30
0.0
  0
VERTEX
  5
237
100
AcDbEntity
  8
トラップ
  6
CONTINUOUS
 62
     6
100
AcDbVertex
100
AcDb2dVertex
 10
1122.738141
 20
1011.267769
 30
0.0
  0
VERTEX
  5
238
100
AcDbEntity
  8
トラップ
  6
CONTINUOUS
 62
     6
100
AcDbVertex
100
AcDb2dVertex
 10
1122.854675
 20
1012.5
 30
0.0
  0
SEQEND
  5
239
100
AcDbEntity
  8
トラップ
  6
CONTINUOUS
 62
     6
  0
POLYLINE
  5
23A
100
AcDbEntity
  8
トラップ
  6
CONTINUOUS
 62
     6
100
AcDb2dPolyline
 66
     1
 10
0.0
 20
0.0
 30
0.0
 70
   128
  0
VERTEX
  5
23B
100
AcDbEntity
  8
トラップ
  6
CONTINUOUS
 62
     6
100
AcDbVertex
100
AcDb2dVertex
 10
1142.019867
 20
1012.5
 30
0.0
  0
VERTEX
  5
23C
100
AcDbEntity
  8
トラップ
  6
CONTINUOUS
 62
     6
100
AcDbVertex
100
AcDb2dVertex
 10
1141.786799
 20
1013.732231
 30
0.0
  0
VERTEX
  5
23D
100
AcDbEntity
  8
トラップ
  6
CONTINUOUS
 62
     6
100
AcDbVertex
100
AcDb2dVertex
 10
1141.101265
 20
1014.892844
 30
0.0
  0
VERTEX
  5
23E
100
AcDbEntity
  8
トラップ
  6
CONTINUOUS
 62
     6
100
AcDbVertex
100
AcDb2dVertex
 10
1140.002969
 20
1015.914397
 30
0.0
  0
VERTEX
  5
23F
100
AcDbEntity
  8
トラップ
  6
CONTINUOUS
 62
     6
100
AcDbVertex
100
AcDb2dVertex
 10
1138.555833
 20
1016.737572
 30
0.0
  0
VERTEX
  5
240
100
AcDbEntity
  8
トラップ
  6
CONTINUOUS
 62
     6
100
AcDbVertex
100
AcDb2dVertex
 10
1136.844017
 20
1017.314465
 30
0.0
  0
VERTEX
  5
241
100
AcDbEntity
  8
トラップ
  6
CONTINUOUS
 62
     6
100
AcDbVertex
100
AcDb2dVertex
 10
1134.96694
 20
1017.611525
 30
0.0
  0
VERTEX
  5
242
100
AcDbEntity
  8
トラップ
  6
CONTINUOUS
 62
     6
100
AcDbVertex
100
AcDb2dVertex
 10
1133.03367
 20
1017.611525
 30
0.0
  0
VERTEX
  5
243
100
AcDbEntity
  8
トラップ
  6
CONTINUOUS
 62
     6
100
AcDbVertex
100
AcDb2dVertex
 10
1131.156594
 20
1017.314465
 30
0.0
  0
VERTEX
  5
244
100
AcDbEntity
  8
トラップ
  6
CONTINUOUS
 62
     6
100
AcDbVertex
100
AcDb2dVertex
 10
1129.444778
 20
1016.737572
 30
0.0
  0
VERTEX
  5
245
100
AcDbEntity
  8
トラップ
  6
CONTINUOUS
 62
     6
100
AcDbVertex
100
AcDb2dVertex
 10
1127.997641
 20
1015.914397
 30
0.0
  0
VERTEX
  5
246
100
AcDbEntity
  8
トラップ
  6
CONTINUOUS
 62
     6
100
AcDbVertex
100
AcDb2dVertex
 10
1126.899345
 20
1014.892844
 30
0.0
  0
VERTEX
  5
247
100
AcDbEntity
  8
トラップ
  6
CONTINUOUS
 62
     6
100
AcDbVertex
100
AcDb2dVertex
 10
1126.213811
 20
1013.732231
 30
0.0
  0
VERTEX
  5
248
100
AcDbEntity
  8
トラップ
  6
CONTINUOUS
 62
     6
100
AcDbVertex
100
AcDb2dVertex
 10
1125.980743
 20
1012.5
 30
0.0
  0
VERTEX
  5
249
100
AcDbEntity
  8
トラップ
  6
CONTINUOUS
 62
     6
100
AcDbVertex
100
AcDb2dVertex
 10
1126.213811
 20
1011.267769
 30
0.0
  0
VERTEX
  5
24A
100
AcDbEntity
  8
トラップ
  6
CONTINUOUS
 62
     6
100
AcDbVertex
100
AcDb2dVertex
 10
1126.899345
 20
1010.107156
 30
0.0
  0
VERTEX
  5
24B
100
AcDbEntity
  8
トラップ
  6
CONTINUOUS
 62
     6
100
AcDbVertex
100
AcDb2dVertex
 10
1127.997641
 20
1009.085603
 30
0.0
  0
VERTEX
  5
24C
100
AcDbEntity
  8
トラップ
  6
CONTINUOUS
 62
     6
100
AcDbVertex
100
AcDb2dVertex
 10
1129.444778
 20
1008.262428
 30
0.0
  0
VERTEX
  5
24D
100
AcDbEntity
  8
トラップ
  6
CONTINUOUS
 62
     6
100
AcDbVertex
100
AcDb2dVertex
 10
1131.156594
 20
1007.685535
 30
0.0
  0
VERTEX
  5
24E
100
AcDbEntity
  8
トラップ
  6
CONTINUOUS
 62
     6
100
AcDbVertex
100
AcDb2dVertex
 10
1133.03367
 20
1007.388475
 30
0.0
  0
VERTEX
  5
24F
100
AcDbEntity
  8
トラップ
  6
CONTINUOUS
 62
     6
100
AcDbVertex
100
AcDb2dVertex
 10
1134.96694
 20
1007.388475
 30
0.0
  0
VERTEX
  5
250
100
AcDbEntity
  8
トラップ
  6
CONTINUOUS
 62
     6
100
AcDbVertex
100
AcDb2dVertex
 10
1136.844017
 20
1007.685535
 30
0.0
  0
VERTEX
  5
251
100
AcDbEntity
  8
トラップ
  6
CONTINUOUS
 62
     6
100
AcDbVertex
100
AcDb2dVertex
 10
1138.555833
 20
1008.262428
 30
0.0
  0
VERTEX
  5
252
100
AcDbEntity
  8
トラップ
  6
CONTINUOUS
 62
     6
100
AcDbVertex
100
AcDb2dVertex
 10
1140.002969
 20
1009.085603
 30
0.0
  0
VERTEX
  5
253
100
AcDbEntity
  8
トラップ
  6
CONTINUOUS
 62
     6
100
AcDbVertex
100
AcDb2dVertex
 10
1141.101265
 20
1010.107156
 30
0.0
  0
VERTEX
  5
254
100
AcDbEntity
  8
トラップ
  6
CONTINUOUS
 62
     6
100
AcDbVertex
100
AcDb2dVertex
 10
1141.786799
 20
1011.267769
 30
0.0
  0
VERTEX
  5
255
100
AcDbEntity
  8
トラップ
  6
CONTINUOUS
 62
     6
100
AcDbVertex
100
AcDb2dVertex
 10
1142.019867
 20
1012.5
 30
0.0
  0
SEQEND
  5
256
100
AcDbEntity
  8
トラップ
  6
CONTINUOUS
 62
     6
  0
ARC
  5
257
100
AcDbEntity
  8
トラップ
  6
CONTINUOUS
 62
     6
100
AcDbCircle
 10
1144.800323
 20
1012.5
 30
0.0
 40
8.45
100
AcDbArc
 50
314.759277
 51
45.238495
  0
POLYLINE
  5
258
100
AcDbEntity
  8
トラップ
  6
CONTINUOUS
 62
     6
100
AcDb2dPolyline
 66
     1
 10
0.0
 20
0.0
 30
0.0
 70
   128
  0
VERTEX
  5
259
100
AcDbEntity
  8
トラップ
  6
CONTINUOUS
 62
     6
100
AcDbVertex
100
AcDb2dVertex
 10
1153.250336
 20
1012.5
 30
0.0
  0
VERTEX
  5
25A
100
AcDbEntity
  8
トラップ
  6
CONTINUOUS
 62
     6
100
AcDbVertex
100
AcDb2dVertex
 10
1153.132591
 20
1013.732231
 30
0.0
  0
VERTEX
  5
25B
100
AcDbEntity
  8
トラップ
  6
CONTINUOUS
 62
     6
100
AcDbVertex
100
AcDb2dVertex
 10
1152.78615
 20
1014.892844
 30
0.0
  0
VERTEX
  5
25C
100
AcDbEntity
  8
トラップ
  6
CONTINUOUS
 62
     6
100
AcDbVertex
100
AcDb2dVertex
 10
1152.231256
 20
1015.914397
 30
0.0
  0
VERTEX
  5
25D
100
AcDbEntity
  8
トラップ
  6
CONTINUOUS
 62
     6
100
AcDbVertex
100
AcDb2dVertex
 10
1151.500024
 20
1016.737572
 30
0.0
  0
VERTEX
  5
25E
100
AcDbEntity
  8
トラップ
  6
CONTINUOUS
 62
     6
100
AcDbVertex
100
AcDb2dVertex
 10
1150.635044
 20
1017.314465
 30
0.0
  0
VERTEX
  5
25F
100
AcDbEntity
  8
トラップ
  6
CONTINUOUS
 62
     6
100
AcDbVertex
100
AcDb2dVertex
 10
1149.686542
 20
1017.611525
 30
0.0
  0
VERTEX
  5
260
100
AcDbEntity
  8
トラップ
  6
CONTINUOUS
 62
     6
100
AcDbVertex
100
AcDb2dVertex
 10
1148.709652
 20
1017.611525
 30
0.0
  0
VERTEX
  5
261
100
AcDbEntity
  8
トラップ
  6
CONTINUOUS
 62
     6
100
AcDbVertex
100
AcDb2dVertex
 10
1147.761221
 20
1017.314465
 30
0.0
  0
VERTEX
  5
262
100
AcDbEntity
  8
トラップ
  6
CONTINUOUS
 62
     6
100
AcDbVertex
100
AcDb2dVertex
 10
1146.896246
 20
1016.737572
 30
0.0
  0
VERTEX
  5
263
100
AcDbEntity
  8
トラップ
  6
CONTINUOUS
 62
     6
100
AcDbVertex
100
AcDb2dVertex
 10
1146.165014
 20
1015.914397
 30
0.0
  0
VERTEX
  5
264
100
AcDbEntity
  8
トラップ
  6
CONTINUOUS
 62
     6
100
AcDbVertex
100
AcDb2dVertex
 10
1145.610121
 20
1014.892844
 30
0.0
  0
VERTEX
  5
265
100
AcDbEntity
  8
トラップ
  6
CONTINUOUS
 62
     6
100
AcDbVertex
100
AcDb2dVertex
 10
1145.263679
 20
1013.732231
 30
0.0
  0
VERTEX
  5
266
100
AcDbEntity
  8
トラップ
  6
CONTINUOUS
 62
     6
100
AcDbVertex
100
AcDb2dVertex
 10
1145.145935
 20
1012.5
 30
0.0
  0
VERTEX
  5
267
100
AcDbEntity
  8
トラップ
  6
CONTINUOUS
 62
     6
100
AcDbVertex
100
AcDb2dVertex
 10
1145.263679
 20
1011.267769
 30
0.0
  0
VERTEX
  5
268
100
AcDbEntity
  8
トラップ
  6
CONTINUOUS
 62
     6
100
AcDbVertex
100
AcDb2dVertex
 10
1145.610121
 20
1010.107156
 30
0.0
  0
VERTEX
  5
269
100
AcDbEntity
  8
トラップ
  6
CONTINUOUS
 62
     6
100
AcDbVertex
100
AcDb2dVertex
 10
1146.165014
 20
1009.085603
 30
0.0
  0
VERTEX
  5
26A
100
AcDbEntity
  8
トラップ
  6
CONTINUOUS
 62
     6
100
AcDbVertex
100
AcDb2dVertex
 10
1146.896246
 20
1008.262428
 30
0.0
  0
VERTEX
  5
26B
100
AcDbEntity
  8
トラップ
  6
CONTINUOUS
 62
     6
100
AcDbVertex
100
AcDb2dVertex
 10
1147.761221
 20
1007.685535
 30
0.0
  0
VERTEX
  5
26C
100
AcDbEntity
  8
トラップ
  6
CONTINUOUS
 62
     6
100
AcDbVertex
100
AcDb2dVertex
 10
1148.709652
 20
1007.388475
 30
0.0
  0
VERTEX
  5
26D
100
AcDbEntity
  8
トラップ
  6
CONTINUOUS
 62
     6
100
AcDbVertex
100
AcDb2dVertex
 10
1149.686542
 20
1007.388475
 30
0.0
  0
VERTEX
  5
26E
100
AcDbEntity
  8
トラップ
  6
CONTINUOUS
 62
     6
100
AcDbVertex
100
AcDb2dVertex
 10
1150.635044
 20
1007.685535
 30
0.0
  0
VERTEX
  5
26F
100
AcDbEntity
  8
トラップ
  6
CONTINUOUS
 62
     6
100
AcDbVertex
100
AcDb2dVertex
 10
1151.500024
 20
1008.262428
 30
0.0
  0
VERTEX
  5
270
100
AcDbEntity
  8
トラップ
  6
CONTINUOUS
 62
     6
100
AcDbVertex
100
AcDb2dVertex
 10
1152.231256
 20
1009.085603
 30
0.0
  0
VERTEX
  5
271
100
AcDbEntity
  8
トラップ
  6
CONTINUOUS
 62
     6
100
AcDbVertex
100
AcDb2dVertex
 10
1152.78615
 20
1010.107156
 30
0.0
  0
VERTEX
  5
272
100
AcDbEntity
  8
トラップ
  6
CONTINUOUS
 62
     6
100
AcDbVertex
100
AcDb2dVertex
 10
1153.132591
 20
1011.267769
 30
0.0
  0
VERTEX
  5
273
100
AcDbEntity
  8
トラップ
  6
CONTINUOUS
 62
     6
100
AcDbVertex
100
AcDb2dVertex
 10
1153.250336
 20
1012.5
 30
0.0
  0
SEQEND
  5
274
100
AcDbEntity
  8
トラップ
  6
CONTINUOUS
 62
     6
  0
POLYLINE
  5
275
100
AcDbEntity
  8
トラップ
  6
CONTINUOUS
 62
     6
100
AcDb2dPolyline
 66
     1
 10
0.0
 20
0.0
 30
0.0
 70
   128
  0
VERTEX
  5
276
100
AcDbEntity
  8
トラップ
  6
CONTINUOUS
 62
     6
100
AcDbVertex
100
AcDb2dVertex
 10
1153.250336
 20
1012.5
 30
0.0
  0
VERTEX
  5
277
100
AcDbEntity
  8
トラップ
  6
CONTINUOUS
 62
     6
100
AcDbVertex
100
AcDb2dVertex
 10
1153.132591
 20
1013.732231
 30
0.0
  0
VERTEX
  5
278
100
AcDbEntity
  8
トラップ
  6
CONTINUOUS
 62
     6
100
AcDbVertex
100
AcDb2dVertex
 10
1152.78615
 20
1014.892844
 30
0.0
  0
VERTEX
  5
279
100
AcDbEntity
  8
トラップ
  6
CONTINUOUS
 62
     6
100
AcDbVertex
100
AcDb2dVertex
 10
1152.231256
 20
1015.914397
 30
0.0
  0
VERTEX
  5
27A
100
AcDbEntity
  8
トラップ
  6
CONTINUOUS
 62
     6
100
AcDbVertex
100
AcDb2dVertex
 10
1151.500024
 20
1016.737572
 30
0.0
  0
VERTEX
  5
27B
100
AcDbEntity
  8
トラップ
  6
CONTINUOUS
 62
     6
100
AcDbVertex
100
AcDb2dVertex
 10
1150.635044
 20
1017.314465
 30
0.0
  0
VERTEX
  5
27C
100
AcDbEntity
  8
トラップ
  6
CONTINUOUS
 62
     6
100
AcDbVertex
100
AcDb2dVertex
 10
1149.686542
 20
1017.611525
 30
0.0
  0
VERTEX
  5
27D
100
AcDbEntity
  8
トラップ
  6
CONTINUOUS
 62
     6
100
AcDbVertex
100
AcDb2dVertex
 10
1148.709652
 20
1017.611525
 30
0.0
  0
VERTEX
  5
27E
100
AcDbEntity
  8
トラップ
  6
CONTINUOUS
 62
     6
100
AcDbVertex
100
AcDb2dVertex
 10
1147.761221
 20
1017.314465
 30
0.0
  0
VERTEX
  5
27F
100
AcDbEntity
  8
トラップ
  6
CONTINUOUS
 62
     6
100
AcDbVertex
100
AcDb2dVertex
 10
1146.896246
 20
1016.737572
 30
0.0
  0
VERTEX
  5
280
100
AcDbEntity
  8
トラップ
  6
CONTINUOUS
 62
     6
100
AcDbVertex
100
AcDb2dVertex
 10
1146.165014
 20
1015.914397
 30
0.0
  0
VERTEX
  5
281
100
AcDbEntity
  8
トラップ
  6
CONTINUOUS
 62
     6
100
AcDbVertex
100
AcDb2dVertex
 10
1145.610121
 20
1014.892844
 30
0.0
  0
VERTEX
  5
282
100
AcDbEntity
  8
トラップ
  6
CONTINUOUS
 62
     6
100
AcDbVertex
100
AcDb2dVertex
 10
1145.263679
 20
1013.732231
 30
0.0
  0
VERTEX
  5
283
100
AcDbEntity
  8
トラップ
  6
CONTINUOUS
 62
     6
100
AcDbVertex
100
AcDb2dVertex
 10
1145.145935
 20
1012.5
 30
0.0
  0
VERTEX
  5
284
100
AcDbEntity
  8
トラップ
  6
CONTINUOUS
 62
     6
100
AcDbVertex
100
AcDb2dVertex
 10
1145.263679
 20
1011.267769
 30
0.0
  0
VERTEX
  5
285
100
AcDbEntity
  8
トラップ
  6
CONTINUOUS
 62
     6
100
AcDbVertex
100
AcDb2dVertex
 10
1145.610121
 20
1010.107156
 30
0.0
  0
VERTEX
  5
286
100
AcDbEntity
  8
トラップ
  6
CONTINUOUS
 62
     6
100
AcDbVertex
100
AcDb2dVertex
 10
1146.165014
 20
1009.085603
 30
0.0
  0
VERTEX
  5
287
100
AcDbEntity
  8
トラップ
  6
CONTINUOUS
 62
     6
100
AcDbVertex
100
AcDb2dVertex
 10
1146.896246
 20
1008.262428
 30
0.0
  0
VERTEX
  5
288
100
AcDbEntity
  8
トラップ
  6
CONTINUOUS
 62
     6
100
AcDbVertex
100
AcDb2dVertex
 10
1147.761221
 20
1007.685535
 30
0.0
  0
VERTEX
  5
289
100
AcDbEntity
  8
トラップ
  6
CONTINUOUS
 62
     6
100
AcDbVertex
100
AcDb2dVertex
 10
1148.709652
 20
1007.388475
 30
0.0
  0
VERTEX
  5
28A
100
AcDbEntity
  8
トラップ
  6
CONTINUOUS
 62
     6
100
AcDbVertex
100
AcDb2dVertex
 10
1149.686542
 20
1007.388475
 30
0.0
  0
VERTEX
  5
28B
100
AcDbEntity
  8
トラップ
  6
CONTINUOUS
 62
     6
100
AcDbVertex
100
AcDb2dVertex
 10
1150.635044
 20
1007.685535
 30
0.0
  0
VERTEX
  5
28C
100
AcDbEntity
  8
トラップ
  6
CONTINUOUS
 62
     6
100
AcDbVertex
100
AcDb2dVertex
 10
1151.500024
 20
1008.262428
 30
0.0
  0
VERTEX
  5
28D
100
AcDbEntity
  8
トラップ
  6
CONTINUOUS
 62
     6
100
AcDbVertex
100
AcDb2dVertex
 10
1152.231256
 20
1009.085603
 30
0.0
  0
VERTEX
  5
28E
100
AcDbEntity
  8
トラップ
  6
CONTINUOUS
 62
     6
100
AcDbVertex
100
AcDb2dVertex
 10
1152.78615
 20
1010.107156
 30
0.0
  0
VERTEX
  5
28F
100
AcDbEntity
  8
トラップ
  6
CONTINUOUS
 62
     6
100
AcDbVertex
100
AcDb2dVertex
 10
1153.132591
 20
1011.267769
 30
0.0
  0
VERTEX
  5
290
100
AcDbEntity
  8
トラップ
  6
CONTINUOUS
 62
     6
100
AcDbVertex
100
AcDb2dVertex
 10
1153.250336
 20
1012.5
 30
0.0
  0
SEQEND
  5
291
100
AcDbEntity
  8
トラップ
  6
CONTINUOUS
 62
     6
  0
LINE
  5
292
100
AcDbEntity
  8
トラップ
  6
CONTINUOUS
 62
     6
100
AcDbLine
 10
1150.750183
 20
1006.499939
 30
0.0
 11
1117.250427
 21
1006.499939
 31
0.0
  0
LINE
  5
293
100
AcDbEntity
  8
トラップ
  6
CONTINUOUS
 62
     6
100
AcDbLine
 10
1114.500305
 20
1113.000031
 30
0.0
 11
1153.500305
 21
1113.000031
 31
0.0
  0
LINE
  5
294
100
AcDbEntity
  8
トラップ
  6
CONTINUOUS
 62
     6
100
AcDbLine
 10
1279.536404
 20
1469.211181
 30
0.0
 11
1410.42846
 21
1469.211181
 31
0.0
  0
TEXT
  5
295
100
AcDbEntity
  8
トラップ
  6
CONTINUOUS
 62
     2
100
AcDbText
 10
1279.536404
 20
1472.711243
 30
0.0
 40
40.0
  1
ＰＪ
 41
0.861
  7
EXCADSTD
 72
     5
 11
1354.697604
 21
1472.711243
 31
0.0
100
AcDbText
  0
TEXT
  5
296
100
AcDbEntity
  8
トラップ
  6
CONTINUOUS
 62
     2
100
AcDbText
 10
1347.472866
 20
1486.822418
 30
0.0
 40
25.0
  1
１
 41
0.9912
  7
EXCADSTD
 72
     5
 11
1371.072867
 21
1486.822418
 31
0.0
100
AcDbText
  0
TEXT
  5
297
100
AcDbEntity
  8
トラップ
  6
CONTINUOUS
 62
     6
100
AcDbText
 10
1356.973904
 20
1472.711243
 30
0.0
 40
40.0
  1
／ 
 41
0.9912
  7
EXCADSTD
 72
     5
 11
1394.733902
 21
1472.711243
 31
0.0
100
AcDbText
  0
TEXT
  5
298
100
AcDbEntity
  8
トラップ
  6
CONTINUOUS
 62
     2
100
AcDbText
 10
1383.171261
 20
1474.923004
 30
0.0
 40
25.0
  1
２
 41
0.9912
  7
EXCADSTD
 72
     5
 11
1406.771262
 21
1474.923004
 31
0.0
100
AcDbText
  0
LINE
  5
299
100
AcDbEntity
  8
トラップ
  6
CONTINUOUS
 62
     6
100
AcDbLine
 10
1091.788663
 20
871.21693
 30
0.0
 11
897.68122
 21
871.21693
 31
0.0
  0
TEXT
  5
29A
100
AcDbEntity
  8
トラップ
  6
CONTINUOUS
 62
     2
100
AcDbText
 10
898.788664
 20
874.71693
 30
0.0
 40
40.0
  1
ＮＬ３ＤＰ
 41
0.8106
  7
EXCADSTD
 72
     5
 11
1091.788663
 21
874.71693
 31
0.0
100
AcDbText
  0
LINE
  5
29B
100
AcDbEntity
  8
トラップ
  6
CONTINUOUS
 62
     6
100
AcDbLine
 10
1146.700348
 20
2144.0
 30
0.0
 11
1121.300262
 21
2144.0
 31
0.0
  0
LINE
  5
29C
100
AcDbEntity
  8
トラップ
  6
CONTINUOUS
 62
     6
100
AcDbLine
 10
1121.300262
 20
2114.0
 30
0.0
 11
1121.300262
 21
2144.0
 31
0.0
  0
LINE
  5
29D
100
AcDbEntity
  8
トラップ
  6
CONTINUOUS
 62
     6
100
AcDbLine
 10
1146.700348
 20
2114.0
 30
0.0
 11
1146.700348
 21
2144.0
 31
0.0
  0
TEXT
  5
29E
100
AcDbEntity
  8
トラップ
  6
CONTINUOUS
 62
     2
100
AcDbText
 10
1182.506176
 20
2199.702766
 30
0.0
 40
40.0
  1
２５
 41
0.861
  7
EXCADSTD
 72
     5
 11
1257.667375
 21
2199.702766
 31
0.0
100
AcDbText
  0
LINE
  5
29F
100
AcDbEntity
  8
トラップ
  6
CONTINUOUS
 62
     6
100
AcDbLine
 10
1182.506176
 20
2196.202766
 30
0.0
 11
1261.00061
 21
2196.202766
 31
0.0
  0
LINE
  5
2A0
100
AcDbEntity
  8
トラップ
  6
CONTINUOUS
 62
     6
100
AcDbLine
 10
1118.188657
 20
627.884411
 30
0.0
 11
924.081214
 21
627.884411
 31
0.0
  0
TEXT
  5
2A1
100
AcDbEntity
  8
トラップ
  6
CONTINUOUS
 62
     2
100
AcDbText
 10
925.188658
 20
631.384411
 30
0.0
 40
40.0
  1
ＮＬ３ＤＳ
 41
0.8106
  7
EXCADSTD
 72
     5
 11
1118.188657
 21
631.384411
 31
0.0
100
AcDbText
  0
TEXT
  5
2A2
100
AcDbEntity
  8
寸法
  6
CONTINUOUS
 62
     2
100
AcDbText
 10
1389.191925
 20
895.5
 30
0.0
 40
40.0
  1
９１０
 50
90.0
 41
0.833
  7
EXCADSTD
 72
     5
 11
1389.191925
 21
1014.5
 31
0.0
100
AcDbText
  0
LINE
  5
2A3
100
AcDbEntity
  8
寸法
  6
CONTINUOUS
 62
     3
100
AcDbLine
 10
1392.691925
 20
1410.0
 30
0.0
 11
1392.691925
 21
500.0
 31
0.0
  0
LINE
  5
2A4
100
AcDbEntity
  8
寸法
  6
CONTINUOUS
 62
     3
100
AcDbLine
 10
1398.525258
 20
1375.0
 30
0.0
 11
1392.691925
 21
1410.0
 31
0.0
  0
LINE
  5
2A5
100
AcDbEntity
  8
寸法
  6
CONTINUOUS
 62
     3
100
AcDbLine
 10
1392.691925
 20
1410.0
 30
0.0
 11
1386.858592
 21
1375.0
 31
0.0
  0
LINE
  5
2A6
100
AcDbEntity
  8
寸法
  6
CONTINUOUS
 62
     3
100
AcDbLine
 10
1386.858592
 20
535.0
 30
0.0
 11
1392.691925
 21
500.0
 31
0.0
  0
LINE
  5
2A7
100
AcDbEntity
  8
寸法
  6
CONTINUOUS
 62
     3
100
AcDbLine
 10
1392.691925
 20
500.0
 30
0.0
 11
1398.525258
 21
535.0
 31
0.0
  0
TEXT
  5
2A8
100
AcDbEntity
  8
寸法
  6
CONTINUOUS
 62
     2
100
AcDbText
 10
877.191925
 20
1060.5
 30
0.0
 40
40.0
  1
２８０
 50
90.0
 41
0.833
  7
EXCADSTD
 72
     5
 11
877.191925
 21
1179.5
 31
0.0
100
AcDbText
  0
LINE
  5
2A9
100
AcDbEntity
  8
寸法
  6
CONTINUOUS
 62
     3
100
AcDbLine
 10
880.691925
 20
1260.0
 30
0.0
 11
880.691925
 21
980.0
 31
0.0
  0
LINE
  5
2AA
100
AcDbEntity
  8
寸法
  6
CONTINUOUS
 62
     3
100
AcDbLine
 10
886.525258
 20
1225.0
 30
0.0
 11
880.691925
 21
1260.0
 31
0.0
  0
LINE
  5
2AB
100
AcDbEntity
  8
寸法
  6
CONTINUOUS
 62
     3
100
AcDbLine
 10
880.691925
 20
1260.0
 30
0.0
 11
874.858592
 21
1225.0
 31
0.0
  0
LINE
  5
2AC
100
AcDbEntity
  8
寸法
  6
CONTINUOUS
 62
     3
100
AcDbLine
 10
874.858592
 20
1015.0
 30
0.0
 11
880.691925
 21
980.0
 31
0.0
  0
LINE
  5
2AD
100
AcDbEntity
  8
寸法
  6
CONTINUOUS
 62
     3
100
AcDbLine
 10
880.691925
 20
980.0
 30
0.0
 11
886.525258
 21
1015.0
 31
0.0
  0
TEXT
  5
2AE
100
AcDbEntity
  8
寸法
  6
CONTINUOUS
 62
     2
100
AcDbText
 10
877.191925
 20
680.5
 30
0.0
 40
40.0
  1
４８０
 50
90.0
 41
0.833
  7
EXCADSTD
 72
     5
 11
877.191925
 21
799.5
 31
0.0
100
AcDbText
  0
LINE
  5
2AF
100
AcDbEntity
  8
寸法
  6
CONTINUOUS
 62
     3
100
AcDbLine
 10
880.691925
 20
980.0
 30
0.0
 11
880.691925
 21
500.0
 31
0.0
  0
LINE
  5
2B0
100
AcDbEntity
  8
寸法
  6
CONTINUOUS
 62
     3
100
AcDbLine
 10
886.525258
 20
945.0
 30
0.0
 11
880.691925
 21
980.0
 31
0.0
  0
LINE
  5
2B1
100
AcDbEntity
  8
寸法
  6
CONTINUOUS
 62
     3
100
AcDbLine
 10
880.691925
 20
980.0
 30
0.0
 11
874.858592
 21
945.0
 31
0.0
  0
LINE
  5
2B2
100
AcDbEntity
  8
寸法
  6
CONTINUOUS
 62
     3
100
AcDbLine
 10
874.858592
 20
535.0
 30
0.0
 11
880.691925
 21
500.0
 31
0.0
  0
LINE
  5
2B3
100
AcDbEntity
  8
寸法
  6
CONTINUOUS
 62
     3
100
AcDbLine
 10
880.691925
 20
500.0
 30
0.0
 11
886.525258
 21
535.0
 31
0.0
  0
TEXT
  5
2B4
100
AcDbEntity
  8
寸法
  6
CONTINUOUS
 62
     2
100
AcDbText
 10
817.191925
 20
820.5
 30
0.0
 40
40.0
  1
７６０
 50
90.0
 41
0.833
  7
EXCADSTD
 72
     5
 11
817.191925
 21
939.5
 31
0.0
100
AcDbText
  0
LINE
  5
2B5
100
AcDbEntity
  8
寸法
  6
CONTINUOUS
 62
     3
100
AcDbLine
 10
820.691925
 20
500.0
 30
0.0
 11
820.691925
 21
1260.0
 31
0.0
  0
LINE
  5
2B6
100
AcDbEntity
  8
寸法
  6
CONTINUOUS
 62
     3
100
AcDbLine
 10
814.858592
 20
535.0
 30
0.0
 11
820.691925
 21
500.0
 31
0.0
  0
LINE
  5
2B7
100
AcDbEntity
  8
寸法
  6
CONTINUOUS
 62
     3
100
AcDbLine
 10
820.691925
 20
500.0
 30
0.0
 11
826.525258
 21
535.0
 31
0.0
  0
LINE
  5
2B8
100
AcDbEntity
  8
寸法
  6
CONTINUOUS
 62
     3
100
AcDbLine
 10
826.525258
 20
1225.0
 30
0.0
 11
820.691925
 21
1260.0
 31
0.0
  0
LINE
  5
2B9
100
AcDbEntity
  8
寸法
  6
CONTINUOUS
 62
     3
100
AcDbLine
 10
820.691925
 20
1260.0
 30
0.0
 11
814.858592
 21
1225.0
 31
0.0
  0
TEXT
  5
2BA
100
AcDbEntity
  8
寸法
  6
CONTINUOUS
 62
     2
100
AcDbText
 10
1271.500305
 20
821.500641
 30
0.0
 40
40.0
  1
１１０
 41
0.833
  7
EXCADSTD
 72
     5
 11
1390.500305
 21
821.500641
 31
0.0
100
AcDbText
  0
LINE
  5
2BB
100
AcDbEntity
  8
寸法
  6
CONTINUOUS
 62
     3
100
AcDbLine
 10
1089.000458
 20
818.000641
 30
0.0
 11
1379.699997
 21
818.000641
 31
0.0
  0
LINE
  5
2BC
100
AcDbEntity
  8
寸法
  6
CONTINUOUS
 62
     3
100
AcDbLine
 10
1099.000458
 20
812.167308
 30
0.0
 11
1134.000458
 21
818.000641
 31
0.0
  0
LINE
  5
2BD
100
AcDbEntity
  8
寸法
  6
CONTINUOUS
 62
     3
100
AcDbLine
 10
1134.000458
 20
818.000641
 30
0.0
 11
1099.000458
 21
823.833974
 31
0.0
  0
LINE
  5
2BE
100
AcDbEntity
  8
寸法
  6
CONTINUOUS
 62
     3
100
AcDbLine
 10
1279.000153
 20
823.833974
 30
0.0
 11
1244.000153
 21
818.000641
 31
0.0
  0
LINE
  5
2BF
100
AcDbEntity
  8
寸法
  6
CONTINUOUS
 62
     3
100
AcDbLine
 10
1244.000153
 20
818.000641
 30
0.0
 11
1279.000153
 21
812.167308
 31
0.0
  0
LINE
  5
2C0
100
AcDbEntity
  8
寸法
  6
CONTINUOUS
 62
     3
100
AcDbLine
 10
1254.0
 20
500.0
 30
0.0
 11
1412.691925
 21
500.0
 31
0.0
  0
LINE
  5
2C1
100
AcDbEntity
  8
寸法
  6
CONTINUOUS
 62
     3
100
AcDbLine
 10
1169.4
 20
1410.0
 30
0.0
 11
1188.4
 21
1410.0
 31
0.0
  0
LINE
  5
2C2
100
AcDbEntity
  8
寸法
  6
CONTINUOUS
 62
     3
100
AcDbLine
 10
1200.4
 20
1410.0
 30
0.0
 11
1208.4
 21
1410.0
 31
0.0
  0
LINE
  5
2C3
100
AcDbEntity
  8
寸法
  6
CONTINUOUS
 62
     3
100
AcDbLine
 10
1220.4
 20
1410.0
 30
0.0
 11
1412.691925
 21
1410.0
 31
0.0
  0
TEXT
  5
2C4
100
AcDbEntity
  8
器具明細表
  6
CONTINUOUS
 62
     2
100
AcDbText
 10
759.0
 20
2820.0
 30
0.0
 40
60.0
  1
器具明細
 41
1.54
  7
EXCADSTD
 72
     5
 11
1199.0
 21
2820.0
 31
0.0
100
AcDbText
  0
TEXT
  5
2C5
100
AcDbEntity
  8
器具明細表
  6
CONTINUOUS
 62
     2
100
AcDbText
 10
804.0
 20
2750.0
 30
0.0
 40
55.0
  1
品番
 41
1.527273
  7
EXCADSTD
 72
     5
 11
987.32
 21
2750.0
 31
0.0
100
AcDbText
  0
TEXT
  5
2C6
100
AcDbEntity
  8
器具明細表
  6
CONTINUOUS
 62
     2
100
AcDbText
 10
1119.0
 20
2750.0
 30
0.0
 40
55.0
  1
品名
 41
1.374545
  7
EXCADSTD
 72
     5
 11
1283.988
 21
2750.0
 31
0.0
100
AcDbText
  0
TEXT
  5
2C7
100
AcDbEntity
  8
器具明細表
  6
CONTINUOUS
 62
     2
100
AcDbText
 10
1350.5
 20
2750.0
 30
0.0
 40
55.0
  1
個数
 41
0.664364
  7
EXCADSTD
 72
     5
 11
1430.2442
 21
2750.0
 31
0.0
100
AcDbText
  0
TEXT
  5
2C8
100
AcDbEntity
  8
器具明細表
  6
CONTINUOUS
 62
     2
100
AcDbText
 10
743.0
 20
2687.5
 30
0.0
 40
50.0
  1
Ｌ９１
 41
0.6664
  7
EXCADSTD
 72
     5
 11
862.0
 21
2687.5
 31
0.0
100
AcDbText
  0
TEXT
  5
2C9
100
AcDbEntity
  8
器具明細表
  6
CONTINUOUS
 62
     2
100
AcDbText
 10
743.0
 20
2557.5
 30
0.0
 40
50.0
  1
ＮＬ３ＤＰ
 41
0.64848
  7
EXCADSTD
 72
     5
 11
936.0
 21
2557.5
 31
0.0
100
AcDbText
  0
TEXT
  5
2CA
100
AcDbEntity
  8
器具明細表
  6
CONTINUOUS
 62
     2
100
AcDbText
 10
1073.0
 20
2687.5
 30
0.0
 40
50.0
  1
手洗器
 41
0.6664
  7
EXCADSTD
 72
     5
 11
1192.0
 21
2687.5
 31
0.0
100
AcDbText
  0
TEXT
  5
2CB
100
AcDbEntity
  8
器具明細表
  6
CONTINUOUS
 62
     2
100
AcDbText
 10
1073.0
 20
2622.5
 30
0.0
 40
50.0
  1
衛生水栓
 41
0.6552
  7
EXCADSTD
 72
     5
 11
1229.0
 21
2622.5
 31
0.0
100
AcDbText
  0
TEXT
  5
2CC
100
AcDbEntity
  8
器具明細表
  6
CONTINUOUS
 62
     2
100
AcDbText
 10
1073.0
 20
2557.5
 30
0.0
 40
50.0
  1
Ｐトラップ
 41
0.64848
  7
EXCADSTD
 72
     5
 11
1266.0
 21
2557.5
 31
0.0
100
AcDbText
  0
TEXT
  5
2CD
100
AcDbEntity
  8
器具明細表
  6
CONTINUOUS
 62
     2
100
AcDbText
 10
1073.0
 20
2492.5
 30
0.0
 40
50.0
  1
化粧頭付木ねじ
 41
0.6408
  7
EXCADSTD
 72
     5
 11
1339.999999
 21
2492.5
 31
0.0
100
AcDbText
  0
TEXT
  5
2CE
100
AcDbEntity
  8
器具明細表
  6
CONTINUOUS
 62
     2
100
AcDbText
 10
1371.5
 20
2690.0
 30
0.0
 40
45.0
  1
１
 41
0.84
  7
EXCADSTD
 72
     5
 11
1407.5
 21
2690.0
 31
0.0
100
AcDbText
  0
TEXT
  5
2CF
100
AcDbEntity
  8
器具明細表
  6
CONTINUOUS
 62
     2
100
AcDbText
 10
1371.5
 20
2625.0
 30
0.0
 40
45.0
  1
１
 41
0.84
  7
EXCADSTD
 72
     5
 11
1407.5
 21
2625.0
 31
0.0
100
AcDbText
  0
TEXT
  5
2D0
100
AcDbEntity
  8
器具明細表
  6
CONTINUOUS
 62
     2
100
AcDbText
 10
1371.5
 20
2560.0
 30
0.0
 40
45.0
  1
１
 41
0.84
  7
EXCADSTD
 72
     5
 11
1407.5
 21
2560.0
 31
0.0
100
AcDbText
  0
LINE
  5
2D1
100
AcDbEntity
  8
器具明細表
  6
CONTINUOUS
 62
     6
100
AcDbLine
 10
739.0
 20
2810.0
 30
0.0
 11
1439.0
 21
2810.0
 31
0.0
  0
LINE
  5
2D2
100
AcDbEntity
  8
器具明細表
  6
CONTINUOUS
 62
     6
100
AcDbLine
 10
1439.0
 20
2745.0
 30
0.0
 11
739.0
 21
2745.0
 31
0.0
  0
LINE
  5
2D3
100
AcDbEntity
  8
器具明細表
  6
CONTINUOUS
 62
     6
100
AcDbLine
 10
739.0
 20
2680.0
 30
0.0
 11
1439.0
 21
2680.0
 31
0.0
  0
LINE
  5
2D4
100
AcDbEntity
  8
器具明細表
  6
CONTINUOUS
 62
     6
100
AcDbLine
 10
1439.0
 20
2615.0
 30
0.0
 11
739.0
 21
2615.0
 31
0.0
  0
LINE
  5
2D5
100
AcDbEntity
  8
器具明細表
  6
CONTINUOUS
 62
     6
100
AcDbLine
 10
739.0
 20
2550.0
 30
0.0
 11
1439.0
 21
2550.0
 31
0.0
  0
LINE
  5
2D6
100
AcDbEntity
  8
器具明細表
  6
CONTINUOUS
 62
     6
100
AcDbLine
 10
1439.0
 20
2485.0
 30
0.0
 11
739.0
 21
2485.0
 31
0.0
  0
LINE
  5
2D7
100
AcDbEntity
  8
器具明細表
  6
CONTINUOUS
 62
     6
100
AcDbLine
 10
739.0
 20
2485.0
 30
0.0
 11
739.0
 21
2810.0
 31
0.0
  0
LINE
  5
2D8
100
AcDbEntity
  8
器具明細表
  6
CONTINUOUS
 62
     6
100
AcDbLine
 10
1069.0
 20
2810.0
 30
0.0
 11
1069.0
 21
2485.0
 31
0.0
  0
LINE
  5
2D9
100
AcDbEntity
  8
器具明細表
  6
CONTINUOUS
 62
     6
100
AcDbLine
 10
1349.0
 20
2485.0
 30
0.0
 11
1349.0
 21
2810.0
 31
0.0
  0
LINE
  5
2DA
100
AcDbEntity
  8
器具明細表
  6
CONTINUOUS
 62
     6
100
AcDbLine
 10
1439.0
 20
2810.0
 30
0.0
 11
1439.0
 21
2485.0
 31
0.0
  0
LINE
  5
2DB
100
AcDbEntity
  8
器具明細表
  6
CONTINUOUS
 62
     6
100
AcDbLine
 10
739.0
 20
2355.000305
 30
0.0
 11
1439.0
 21
2355.000305
 31
0.0
  0
LINE
  5
2DC
100
AcDbEntity
  8
器具明細表
  6
CONTINUOUS
 62
     6
100
AcDbLine
 10
739.0
 20
2420.0
 30
0.0
 11
1439.0
 21
2420.0
 31
0.0
  0
TEXT
  5
2DD
100
AcDbEntity
  8
器具明細表
  6
CONTINUOUS
 62
     2
100
AcDbText
 10
1374.0
 20
2362.466125
 30
0.0
 40
47.5
  1
１
 41
0.834695
  7
EXCADSTD
 72
     5
 11
1411.759998
 21
2362.466125
 31
0.0
100
AcDbText
  0
LINE
  5
2DE
100
AcDbEntity
  8
器具明細表
  6
CONTINUOUS
 62
     6
100
AcDbLine
 10
739.0
 20
2420.0
 30
0.0
 11
739.0
 21
2355.000305
 31
0.0
  0
LINE
  5
2DF
100
AcDbEntity
  8
器具明細表
  6
CONTINUOUS
 62
     6
100
AcDbLine
 10
1069.0
 20
2420.0
 30
0.0
 11
1069.0
 21
2355.000305
 31
0.0
  0
LINE
  5
2E0
100
AcDbEntity
  8
器具明細表
  6
CONTINUOUS
 62
     6
100
AcDbLine
 10
1349.0
 20
2420.0
 30
0.0
 11
1349.0
 21
2355.000305
 31
0.0
  0
LINE
  5
2E1
100
AcDbEntity
  8
器具明細表
  6
CONTINUOUS
 62
     6
100
AcDbLine
 10
1439.0
 20
2420.0
 30
0.0
 11
1439.0
 21
2355.000305
 31
0.0
  0
TEXT
  5
2E2
100
AcDbEntity
  8
器具明細表
  6
CONTINUOUS
 62
     2
100
AcDbText
 10
1072.918457
 20
2360.778809
 30
0.0
 40
50.0
  1
Ｓトラップ
 41
0.64848
  7
EXCADSTD
 72
     5
 11
1265.918457
 21
2360.778809
 31
0.0
100
AcDbText
  0
TEXT
  5
2E3
100
AcDbEntity
  8
器具明細表
  6
CONTINUOUS
 62
     2
100
AcDbText
 10
741.983856
 20
2362.479553
 30
0.0
 40
50.0
  1
ＮＬ３ＤＳ
 41
0.7056
  7
EXCADSTD
 72
     5
 11
951.983856
 21
2362.479553
 31
0.0
100
AcDbText
  0
TEXT
  5
2E4
100
AcDbEntity
  8
器具明細表
  6
CONTINUOUS
 62
     2
100
AcDbText
 10
743.0
 20
2622.5
 30
0.0
 40
50.0
  1
ＮＬ１５
 41
0.6552
  7
EXCADSTD
 72
     5
 11
899.0
 21
2622.5
 31
0.0
100
AcDbText
  0
TEXT
  5
2E5
100
AcDbEntity
  8
器具明細表
  6
CONTINUOUS
 62
     2
100
AcDbText
 10
741.983856
 20
2427.480164
 30
0.0
 40
50.0
  1
Ｓトラップの場合
 41
0.693
  7
EXCADSTD
 72
     5
 11
1071.983856
 21
2427.480164
 31
0.0
100
AcDbText
  0
TEXT
  5
2E6
100
AcDbEntity
  8
器具明細表
  6
CONTINUOUS
 62
     2
100
AcDbText
 10
743.0
 20
2492.5
 30
0.0
 40
50.0
  1
ＮＴ７Ａ（２）
 41
0.6408
  7
EXCADSTD
 72
     5
 11
1009.999999
 21
2492.5
 31
0.0
100
AcDbText
  0
TEXT
  5
2E7
100
AcDbEntity
  8
器具明細表
  6
CONTINUOUS
 62
     2
100
AcDbText
 10
1371.5
 20
2495.0
 30
0.0
 40
45.0
  1
１
 41
0.84
  7
EXCADSTD
 72
     5
 11
1407.5
 21
2495.0
 31
0.0
100
AcDbText
  0
ENDSEC
  0
SECTION
  2
OBJECTS
  0
DICTIONARY
  5
19
100
AcDbDictionary
  3
ACAD_GROUP
350
1A
  3
ACAD_MLINESTYLE
350
1B
  0
DICTIONARY
  5
1A
102
{ACAD_REACTORS
330
19
102
}
100
AcDbDictionary
  0
DICTIONARY
  5
1B
102
{ACAD_REACTORS
330
19
102
}
100
AcDbDictionary
  3
STANDARD
350
1C
  0
MLINESTYLE
  5
1C
102
{ACAD_REACTORS
330
1B
102
}
100
AcDbMlineStyle
  2
Standard
 70
     0
  3

 62
     0
 51
90.0
 52
90.0
 71
     2
 49
0.5
 62
   256
  6
ByLayer
 49
-0.5
 62
   256
  6
ByLayer
  0
ENDSEC
  0
EOF
