  0
SECTION
  2
HEADER
  9
$ACADVER
  1
AC1014
  9
$ACADMAINTVER
 70
     0
  9
$DWGCODEPAGE
  3
ANSI_932
  9
$INSBASE
 10
0.0
 20
0.0
 30
0.0
  9
$EXTMIN
 10
0.0
 20
11.5
 30
0.0
  9
$EXTMAX
 10
200.0
 20
289.5
 30
0.0
  9
$LIMMIN
 10
0.0
 20
0.0
  9
$LIMMAX
 10
210.0
 20
297.0
  9
$ORTHOMODE
 70
     0
  9
$REGENMODE
 70
     1
  9
$FILLMODE
 70
     1
  9
$QTEXTMODE
 70
     0
  9
$MIRRTEXT
 70
     1
  9
$DRAGMODE
 70
     2
  9
$LTSCALE
 40
1.0
  9
$OSMODE
 70
     0
  9
$ATTMODE
 70
     1
  9
$TEXTSIZE
 40
0.2
  9
$TRACEWID
 40
0.05
  9
$TEXTSTYLE
  7
STANDARD
  9
$CLAYER
  8
LAY-1
  9
$CELTYPE
  6
CONTINUOUS
  9
$CECOLOR
 62
   256
  9
$CELTSCALE
 40
1.0
  9
$DELOBJ
 70
     1
  9
$DISPSILH
 70
     0
  9
$DIMSCALE
 40
1.0
  9
$DIMASZ
 40
0.18
  9
$DIMEXO
 40
0.0625
  9
$DIMDLI
 40
0.38
  9
$DIMRND
 40
0.0
  9
$DIMDLE
 40
0.0
  9
$DIMEXE
 40
0.18
  9
$DIMTP
 40
0.0
  9
$DIMTM
 40
0.0
  9
$DIMTXT
 40
0.18
  9
$DIMCEN
 40
0.09
  9
$DIMTSZ
 40
0.0
  9
$DIMTOL
 70
     0
  9
$DIMLIM
 70
     0
  9
$DIMTIH
 70
     1
  9
$DIMTOH
 70
     1
  9
$DIMSE1
 70
     0
  9
$DIMSE2
 70
     0
  9
$DIMTAD
 70
     0
  9
$DIMZIN
 70
     0
  9
$DIMBLK
  1

  9
$DIMASO
 70
     1
  9
$DIMSHO
 70
     1
  9
$DIMPOST
  1

  9
$DIMAPOST
  1

  9
$DIMALT
 70
     0
  9
$DIMALTD
 70
     2
  9
$DIMALTF
 40
25.4
  9
$DIMLFAC
 40
1.0
  9
$DIMTOFL
 70
     0
  9
$DIMTVP
 40
0.0
  9
$DIMTIX
 70
     0
  9
$DIMSOXD
 70
     0
  9
$DIMSAH
 70
     0
  9
$DIMBLK1
  1

  9
$DIMBLK2
  1

  9
$DIMSTYLE
  2
STANDARD
  9
$DIMCLRD
 70
     0
  9
$DIMCLRE
 70
     0
  9
$DIMCLRT
 70
     0
  9
$DIMTFAC
 40
1.0
  9
$DIMGAP
 40
0.09
  9
$DIMJUST
 70
     0
  9
$DIMSD1
 70
     0
  9
$DIMSD2
 70
     0
  9
$DIMTOLJ
 70
     1
  9
$DIMTZIN
 70
     0
  9
$DIMALTZ
 70
     0
  9
$DIMALTTZ
 70
     0
  9
$DIMFIT
 70
     3
  9
$DIMUPT
 70
     0
  9
$DIMUNIT
 70
     2
  9
$DIMDEC
 70
     4
  9
$DIMTDEC
 70
     4
  9
$DIMALTU
 70
     2
  9
$DIMALTTD
 70
     2
  9
$DIMTXSTY
  7
STANDARD
  9
$DIMAUNIT
 70
     0
  9
$LUNITS
 70
     2
  9
$LUPREC
 70
     4
  9
$SKETCHINC
 40
0.1
  9
$FILLETRAD
 40
0.0
  9
$AUNITS
 70
     0
  9
$AUPREC
 70
     0
  9
$MENU
  1
acad
  9
$ELEVATION
 40
0.0
  9
$PELEVATION
 40
0.0
  9
$THICKNESS
 40
0.0
  9
$LIMCHECK
 70
     0
  9
$BLIPMODE
 70
     1
  9
$CHAMFERA
 40
0.0
  9
$CHAMFERB
 40
0.0
  9
$CHAMFERC
 40
0.0
  9
$CHAMFERD
 40
0.0
  9
$SKPOLY
 70
     0
  9
$TDCREATE
 40
2454514.286784097
  9
$TDUPDATE
 40
2454514.286784097
  9
$TDINDWG
 40
0.0000000000
  9
$TDUSRTIMER
 40
0.0000000000
  9
$USRTIMER
 70
     1
  9
$ANGBASE
 50
0.0
  9
$ANGDIR
 70
     0
  9
$PDMODE
 70
     0
  9
$PDSIZE
 40
0.0
  9
$PLINEWID
 40
0.0
  9
$COORDS
 70
     1
  9
$SPLFRAME
 70
     0
  9
$SPLINETYPE
 70
     6
  9
$SPLINESEGS
 70
     8
  9
$ATTDIA
 70
     0
  9
$ATTREQ
 70
     1
  9
$HANDLING
 70
     1
  9
$HANDSEED
  5
3BF
  9
$SURFTAB1
 70
     6
  9
$SURFTAB2
 70
     6
  9
$SURFTYPE
 70
     6
  9
$SURFU
 70
     6
  9
$SURFV
 70
     6
  9
$UCSNAME
  2

  9
$UCSORG
 10
0.0
 20
0.0
 30
0.0
  9
$UCSXDIR
 10
1.0
 20
0.0
 30
0.0
  9
$UCSYDIR
 10
0.0
 20
1.0
 30
0.0
  9
$PUCSNAME
  2

  9
$PUCSORG
 10
0.0
 20
0.0
 30
0.0
  9
$PUCSXDIR
 10
1.0
 20
0.0
 30
0.0
  9
$PUCSYDIR
 10
0.0
 20
1.0
 30
0.0
  9
$USERI1
 70
     0
  9
$USERI2
 70
     0
  9
$USERI3
 70
     0
  9
$USERI4
 70
     0
  9
$USERI5
 70
     0
  9
$USERR1
 40
0.0
  9
$USERR2
 40
0.0
  9
$USERR3
 40
0.0
  9
$USERR4
 40
0.0
  9
$USERR5
 40
0.0
  9
$WORLDVIEW
 70
     1
  9
$SHADEDGE
 70
     3
  9
$SHADEDIF
 70
    70
  9
$TILEMODE
 70
     1
  9
$MAXACTVP
 70
    16
  9
$PINSBASE
 10
0.0
 20
0.0
 30
0.0
  9
$PLIMCHECK
 70
     0
  9
$PEXTMIN
 10
1.000000E+20
 20
1.000000E+20
 30
1.000000E+20
  9
$PEXTMAX
 10
-1.000000E+20
 20
-1.000000E+20
 30
-1.000000E+20
  9
$PLIMMIN
 10
0.0
 20
0.0
  9
$PLIMMAX
 10
12.0
 20
9.0
  9
$UNITMODE
 70
     0
  9
$VISRETAIN
 70
     0
  9
$PLINEGEN
 70
     1
  9
$PSLTSCALE
 70
     0
  9
$TREEDEPTH
 70
  3020
  9
$PICKSTYLE
 70
     1
  9
$CMLSTYLE
  2
Standard
  9
$CMLJUST
 70
     0
  9
$CMLSCALE
 40
1.0
  9
$PROXYGRAPHICS
 70
     0
  9
$MEASUREMENT
 70
     0
  0
ENDSEC
  0
SECTION
  2
CLASSES
  0
CLASS
  1
LWPOLYLINE
  2
AcDbPolyline
  3
"AutoCAD"
 90
        0
280
     0
281
     1
  0
CLASS
  1
IMAGE
  2
AcDbRasterImage
  3
ISM
 90
      127
280
     0
281
     1
  0
CLASS
  1
OLE2FRAME
  2
AcDbOle2Frame
  3
""
 90
        0
280
     0
281
     1
  0
CLASS
  1
HATCH
  2
AcDbHatch
  3
"ACAD_SEDONA"
 90
        0
280
     0
281
     1
  0
CLASS
  1
DICTIONARYVAR
  2
AcDbDictionaryVar
  3
"AutoCAD"
 90
        0
280
     0
281
     0
  0
CLASS
  1
RASTERVARIABLES
  2
AcDbRasterVariables
  3
ISM
 90
        0
280
     0
281
     0
  0
CLASS
  1
IMAGEDEF
  2
AcDbRasterImageDef
  3
ISM
 90
        0
280
     0
281
     0
  0
CLASS
  1
IMAGEDEF_REACTOR
  2
AcDbRasterImageDefReactor
  3
ISM
 90
        1
280
     0
281
     0
  0
CLASS
  1
IDBUFFER
  2
AcDbIdBuffer
  3
"Acad"
 90
        0
280
     0
281
     0
  0
CLASS
  1
SPATIAL_FILTER
  2
AcDbSpatialFilter
  3
"Acad"
 90
        0
280
     0
281
     0
  0
CLASS
  1
XRECORD
  2
AcDbXrecord
  3
"<Built In>"
 90
        0
280
     0
281
     0
  0
CLASS
  1
SORTENTSTABLE
  2
AcDbSortentsTable
  3
"AutoCAD"
 90
        0
280
     0
281
     0
  0
CLASS
  1
LAYER_INDEX
  2
AcDbLayerIndex
  3
"Acad"
 90
        0
280
     0
281
     0
  0
CLASS
  1
SPATIAL_INDEX
  2
AcDbSpatialIndex
  3
"Acad"
 90
        0
280
     0
281
     0
  0
CLASS
  1
OBJECT_PTR
  2
CAseDLPNTableRecord
  3
"ASE-LPNTableRecord"
 90
        1
280
     0
281
     0
  0
CLASS
  1
LAYOUT
  2
AcDbLayout
  3
"AutoCAD 2000"
 90
        1
280
     0
281
     0
  0
CLASS
  1
PLOTSETTINGS
  2
AcDbPlotSettings
  3
"AutoCAD 2000"
 90
        1
280
     0
281
     0
  0
CLASS
  1
ACDBDICTIONARYWDFLT
  2
AcDbDictionaryWithDefault
  3
"AutoCAD 2000"
 90
        1
280
     0
281
     0
  0
CLASS
  1
ACDBPLACEHOLDER
  2
AcDbPlaceHolder
  3
"AutoCAD 2000"
 90
        1
280
     0
281
     0
  0
CLASS
  1
VBA_PROJECT
  2
AcDbVbaProject
  3
"acadvba"
 90
        1
280
     0
281
     0
  0
CLASS
  1
WIPEOUT
  2
AcDbWipeout
  3
WipeOut|AutoCAD Express Tool|expresstools@autodesk.com
 90
      127
280
     0
281
     1
  0
CLASS
  1
WIPEOUTVARIABLES
  2
AcDbWipeoutVariables
  3
WipeOut|AutoCAD Express Tool|expresstools@autodesk.com
 90
        0
280
     0
281
     0
  0
CLASS
  1
RTEXT
  2
RText
  3
RText|AutoCAD Express Tool|expresstools@autodesk.com
 90
        0
280
     0
281
     1
  0
CLASS
  1
ARCALIGNEDTEXT
  2
AcDbArcAlignedText
  3
ATEXT|AutoCAD Express Tool|expresstools@autodesk.com
 90
        0
280
     0
281
     1
  0
ENDSEC
  0
SECTION
  2
TABLES
  0
TABLE
  2
VPORT
  5
7
100
AcDbSymbolTable
 70
     1
  0
VPORT
  5
15
100
AcDbSymbolTableRecord
100
AcDbViewportTableRecord
  2
*ACTIVE
 70
     0
 10
0.0
 20
0.0
 11
1.0
 21
1.0
 12
100.0
 22
150.5
 13
0.0
 23
0.0
 14
1.0
 24
1.0
 15
0.0
 25
0.0
 16
0.0
 26
0.0
 36
1.0
 17
0.0
 27
0.0
 37
0.0
 40
278.0
 41
1.722533
 42
50.0
 43
0.0
 44
0.0
 50
0.0
 51
0.0
 71
     0
 72
   100
 73
     1
 74
     1
 75
     0
 76
     0
 77
     0
 78
     0
  0
ENDTAB
  0
TABLE
  2
LTYPE
  5
4
100
AcDbSymbolTable
 70
     9
  0
LTYPE
  5
11
100
AcDbSymbolTableRecord
100
AcDbLinetypeTableRecord
  2
BYBLOCK
 70
    64
  3

 72
    65
 73
     0
 40
0.0
  0
LTYPE
  5
12
100
AcDbSymbolTableRecord
100
AcDbLinetypeTableRecord
  2
BYLAYER
 70
    64
  3

 72
    65
 73
     0
 40
0.0
  0
LTYPE
  5
13
100
AcDbSymbolTableRecord
100
AcDbLinetypeTableRecord
  2
CONTINUOUS
 70
    64
  3
実線
 72
    65
 73
     0
 40
0.0
  0
LTYPE
  5
1D
100
AcDbSymbolTableRecord
100
AcDbLinetypeTableRecord
  2
EXLTYPE1
 70
    64
  3
破線
 72
    65
 73
     2
 40
3.0
 49
2.0
 74
     0
 49
-1.0
 74
     0
  0
LTYPE
  5
1E
100
AcDbSymbolTableRecord
100
AcDbLinetypeTableRecord
  2
EXLTYPE2
 70
    64
  3
点線
 72
    65
 73
     2
 40
2.0
 49
1.0
 74
     0
 49
-1.0
 74
     0
  0
LTYPE
  5
1F
100
AcDbSymbolTableRecord
100
AcDbLinetypeTableRecord
  2
EXLTYPE3
 70
    64
  3
一点鎖線
 72
    65
 73
     4
 40
10.0
 49
7.0
 74
     0
 49
-1.0
 74
     0
 49
1.0
 74
     0
 49
-1.0
 74
     0
  0
LTYPE
  5
20
100
AcDbSymbolTableRecord
100
AcDbLinetypeTableRecord
  2
EXLTYPE4
 70
    64
  3
二点鎖線
 72
    65
 73
     6
 40
12.0
 49
7.0
 74
     0
 49
-1.0
 74
     0
 49
1.0
 74
     0
 49
-1.0
 74
     0
 49
1.0
 74
     0
 49
-1.0
 74
     0
  0
LTYPE
  5
21
100
AcDbSymbolTableRecord
100
AcDbLinetypeTableRecord
  2
EXLTYPE5
 70
    64
  3
三点鎖線
 72
    65
 73
     8
 40
37.0
 49
30.0
 74
     0
 49
-1.0
 74
     0
 49
1.0
 74
     0
 49
-1.0
 74
     0
 49
1.0
 74
     0
 49
-1.0
 74
     0
 49
1.0
 74
     0
 49
-1.0
 74
     0
  0
LTYPE
  5
22
100
AcDbSymbolTableRecord
100
AcDbLinetypeTableRecord
  2
EXLTYPE6
 70
    64
  3
四点鎖線
 72
    65
 73
    10
 40
39.0
 49
30.0
 74
     0
 49
-1.0
 74
     0
 49
1.0
 74
     0
 49
-1.0
 74
     0
 49
1.0
 74
     0
 49
-1.0
 74
     0
 49
1.0
 74
     0
 49
-1.0
 74
     0
 49
1.0
 74
     0
 49
-1.0
 74
     0
  0
ENDTAB
  0
TABLE
  2
LAYER
  5
2
100
AcDbSymbolTable
 70
     5
  0
LAYER
  5
14
100
AcDbSymbolTableRecord
100
AcDbLayerTableRecord
  2
0
 70
     0
 62
     7
  6
CONTINUOUS
  0
LAYER
  5
25
100
AcDbSymbolTableRecord
100
AcDbLayerTableRecord
  2
LAY-1
 70
    64
 62
     7
  6
CONTINUOUS
  0
LAYER
  5
26
100
AcDbSymbolTableRecord
100
AcDbLayerTableRecord
  2
LAY-2
 70
    64
 62
     7
  6
CONTINUOUS
  0
LAYER
  5
27
100
AcDbSymbolTableRecord
100
AcDbLayerTableRecord
  2
LAY-3
 70
    64
 62
     7
  6
CONTINUOUS
  0
LAYER
  5
28
100
AcDbSymbolTableRecord
100
AcDbLayerTableRecord
  2
LAY-4
 70
    64
 62
     7
  6
CONTINUOUS
  0
ENDTAB
  0
TABLE
  2
STYLE
  5
3
100
AcDbSymbolTable
 70
     3
  0
STYLE
  5
17
100
AcDbSymbolTableRecord
100
AcDbTextStyleTableRecord
  2
STANDARD
 70
     0
 40
0.0
 41
1.0
 50
0.0
 71
     0
 42
0.0
  3
monotxt
  4
extfont
  0
STYLE
  5
23
100
AcDbSymbolTableRecord
100
AcDbTextStyleTableRecord
  2
EXCADSTD
 70
    64
 40
0.0
 41
1.0
 50
0.0
 71
     0
 42
0.2
  3
monotxt
  4
extfont
  0
STYLE
  5
24
100
AcDbSymbolTableRecord
100
AcDbTextStyleTableRecord
  2
EXCADVERT
 70
    68
 40
0.0
 41
1.0
 50
0.0
 71
     0
 42
0.286885
  3
monotxt
  4
extfont
  0
ENDTAB
  0
TABLE
  2
VIEW
  5
5
100
AcDbSymbolTable
 70
     0
  0
ENDTAB
  0
TABLE
  2
UCS
  5
6
100
AcDbSymbolTable
 70
     0
  0
ENDTAB
  0
TABLE
  2
APPID
  5
8
100
AcDbSymbolTable
 70
     1
  0
APPID
  5
16
100
AcDbSymbolTableRecord
100
AcDbRegAppTableRecord
  2
ACAD
 70
     0
  0
ENDTAB
  0
TABLE
  2
DIMSTYLE
  5
9
100
AcDbSymbolTable
 70
     1
  0
DIMSTYLE
105
18
100
AcDbSymbolTableRecord
100
AcDbDimStyleTableRecord
  2
STANDARD
 70
     0
  3

  4

  5

  6

  7

 40
1.0
 41
0.18
 42
0.0625
 43
0.38
 44
0.18
 45
0.0
 46
0.0
 47
0.0
 48
0.0
 71
     0
 72
     0
 73
     1
 74
     1
 75
     0
 76
     0
 77
     0
 78
     0
140
0.18
141
0.09
142
0.0
143
25.4
144
1.0
145
0.0
146
1.0
147
0.09
170
     0
171
     2
172
     1
173
     0
174
     0
175
     0
176
     0
177
     0
178
     0
270
     2
271
     4
272
     4
273
     2
274
     2
275
     0
280
     0
281
     0
282
     0
283
     1
284
     0
285
     0
286
     0
287
     0
288
     0
340
17
  0
ENDTAB
  0
TABLE
  2
BLOCK_RECORD
  5
1
100
AcDbSymbolTable
 70
    14
  0
BLOCK_RECORD
  5
A
100
AcDbSymbolTableRecord
100
AcDbBlockTableRecord
  2
*MODEL_SPACE
  0
BLOCK_RECORD
  5
B
100
AcDbSymbolTableRecord
100
AcDbBlockTableRecord
  2
*PAPER_SPACE
  0
BLOCK_RECORD
  5
29
100
AcDbSymbolTableRecord
100
AcDbBlockTableRecord
  2
_EX_NORM
  0
BLOCK_RECORD
  5
2A
100
AcDbSymbolTableRecord
100
AcDbBlockTableRecord
  2
_EX_BNORM
  0
BLOCK_RECORD
  5
2B
100
AcDbSymbolTableRecord
100
AcDbBlockTableRecord
  2
_EX_BCIR
  0
BLOCK_RECORD
  5
2C
100
AcDbSymbolTableRecord
100
AcDbBlockTableRecord
  2
_EX_RCIVIL
  0
BLOCK_RECORD
  5
2D
100
AcDbSymbolTableRecord
100
AcDbBlockTableRecord
  2
_EX_SLANT
  0
BLOCK_RECORD
  5
2E
100
AcDbSymbolTableRecord
100
AcDbBlockTableRecord
  2
_EX_NONE
  0
BLOCK_RECORD
  5
2F
100
AcDbSymbolTableRecord
100
AcDbBlockTableRecord
  2
_EX_CIVIL
  0
BLOCK_RECORD
  5
30
100
AcDbSymbolTableRecord
100
AcDbBlockTableRecord
  2
_EX_WCIR
  0
BLOCK_RECORD
  5
31
100
AcDbSymbolTableRecord
100
AcDbBlockTableRecord
  2
_EX_WCIR2
  0
BLOCK_RECORD
  5
32
100
AcDbSymbolTableRecord
100
AcDbBlockTableRecord
  2
_EX_WNORM
  0
BLOCK_RECORD
  5
33
100
AcDbSymbolTableRecord
100
AcDbBlockTableRecord
  2
_EX_NNORM
  0
BLOCK_RECORD
  5
34
100
AcDbSymbolTableRecord
100
AcDbBlockTableRecord
  2
_EX_BBOX
  0
BLOCK_RECORD
  5
35
100
AcDbSymbolTableRecord
100
AcDbBlockTableRecord
  2
_EX_WBOX
  0
BLOCK_RECORD
  5
36
100
AcDbSymbolTableRecord
100
AcDbBlockTableRecord
  2
_EX_INTEGRAL
  0
ENDTAB
  0
ENDSEC
  0
SECTION
  2
BLOCKS
  0
BLOCK
  5
D
100
AcDbEntity
  8
0
100
AcDbBlockBegin
  2
*MODEL_SPACE
 70
     0
 10
0.0
 20
0.0
 30
0.0
  3
*MODEL_SPACE
  1

  0
ENDBLK
  5
E
100
AcDbEntity
  8
0
100
AcDbBlockEnd
  0
BLOCK
  5
F
100
AcDbEntity
 67
     1
  8
0
100
AcDbBlockBegin
  2
*PAPER_SPACE
 70
     0
 10
0.0
 20
0.0
 30
0.0
  3
*PAPER_SPACE
  1

  0
ENDBLK
  5
10
100
AcDbEntity
 67
     1
  8
0
100
AcDbBlockEnd
  0
BLOCK
  5
37
100
AcDbEntity
  8
0
100
AcDbBlockBegin
  2
_EX_NORM
 70
     0
 10
0.0
 20
0.0
 30
0.0
  3
_EX_NORM
  1

  0
LINE
  5
38
100
AcDbEntity
  8
0
  6
CONTINUOUS
 62
     0
100
AcDbLine
 10
0.0
 20
0.0
 30
0.0
 11
-1.0
 21
0.0
 31
0.0
  0
LINE
  5
39
100
AcDbEntity
  8
0
  6
CONTINUOUS
 62
     0
100
AcDbLine
 10
0.0
 20
0.0
 30
0.0
 11
-1.0
 21
0.166667
 31
0.0
  0
LINE
  5
3A
100
AcDbEntity
  8
0
  6
CONTINUOUS
 62
     0
100
AcDbLine
 10
0.0
 20
0.0
 30
0.0
 11
-1.0
 21
-0.166667
 31
0.0
  0
ENDBLK
  5
3B
100
AcDbEntity
  8
0
100
AcDbBlockEnd
  0
BLOCK
  5
3C
100
AcDbEntity
  8
0
100
AcDbBlockBegin
  2
_EX_BNORM
 70
     0
 10
0.0
 20
0.0
 30
0.0
  3
_EX_BNORM
  1

  0
LINE
  5
3D
100
AcDbEntity
  8
0
  6
CONTINUOUS
 62
     0
100
AcDbLine
 10
0.0
 20
0.0
 30
0.0
 11
-1.0
 21
0.0
 31
0.0
  0
LINE
  5
3E
100
AcDbEntity
  8
0
  6
CONTINUOUS
 62
     0
100
AcDbLine
 10
0.0
 20
0.0
 30
0.0
 11
-1.0
 21
0.166667
 31
0.0
  0
LINE
  5
3F
100
AcDbEntity
  8
0
  6
CONTINUOUS
 62
     0
100
AcDbLine
 10
0.0
 20
0.0
 30
0.0
 11
-1.0
 21
-0.166667
 31
0.0
  0
LINE
  5
40
100
AcDbEntity
  8
0
  6
CONTINUOUS
 62
     0
100
AcDbLine
 10
0.0
 20
0.0
 30
0.0
 11
-1.0
 21
0.083333
 31
0.0
  0
LINE
  5
41
100
AcDbEntity
  8
0
  6
CONTINUOUS
 62
     0
100
AcDbLine
 10
0.0
 20
0.0
 30
0.0
 11
-1.0
 21
-0.083333
 31
0.0
  0
LINE
  5
42
100
AcDbEntity
  8
0
  6
CONTINUOUS
 62
     0
100
AcDbLine
 10
-1.0
 20
0.166667
 30
0.0
 11
-1.0
 21
-0.166667
 31
0.0
  0
ENDBLK
  5
43
100
AcDbEntity
  8
0
100
AcDbBlockEnd
  0
BLOCK
  5
44
100
AcDbEntity
  8
0
100
AcDbBlockBegin
  2
_EX_BCIR
 70
     0
 10
0.0
 20
0.0
 30
0.0
  3
_EX_BCIR
  1

  0
LINE
  5
45
100
AcDbEntity
  8
0
  6
CONTINUOUS
 62
     0
100
AcDbLine
 10
0.0
 20
0.0
 30
0.0
 11
-1.0
 21
0.0
 31
0.0
  0
CIRCLE
  5
46
100
AcDbEntity
  8
0
  6
CONTINUOUS
 62
     0
100
AcDbCircle
 10
0.0
 20
0.0
 30
0.0
 40
0.5
  0
CIRCLE
  5
47
100
AcDbEntity
  8
0
  6
CONTINUOUS
 62
     0
100
AcDbCircle
 10
0.0
 20
0.0
 30
0.0
 40
0.25
  0
ENDBLK
  5
48
100
AcDbEntity
  8
0
100
AcDbBlockEnd
  0
BLOCK
  5
49
100
AcDbEntity
  8
0
100
AcDbBlockBegin
  2
_EX_RCIVIL
 70
     0
 10
0.0
 20
0.0
 30
0.0
  3
_EX_RCIVIL
  1

  0
LINE
  5
4A
100
AcDbEntity
  8
0
  6
CONTINUOUS
 62
     0
100
AcDbLine
 10
0.0
 20
0.0
 30
0.0
 11
-1.0
 21
0.0
 31
0.0
  0
LINE
  5
4B
100
AcDbEntity
  8
0
  6
CONTINUOUS
 62
     0
100
AcDbLine
 10
-1.0
 20
-0.25
 30
0.0
 11
0.0
 21
-0.25
 31
0.0
  0
LINE
  5
4C
100
AcDbEntity
  8
0
  6
CONTINUOUS
 62
     0
100
AcDbLine
 10
-1.0
 20
-0.125
 30
0.0
 11
0.0
 21
-0.125
 31
0.0
  0
ENDBLK
  5
4D
100
AcDbEntity
  8
0
100
AcDbBlockEnd
  0
BLOCK
  5
4E
100
AcDbEntity
  8
0
100
AcDbBlockBegin
  2
_EX_SLANT
 70
     0
 10
0.0
 20
0.0
 30
0.0
  3
_EX_SLANT
  1

  0
LINE
  5
4F
100
AcDbEntity
  8
0
  6
CONTINUOUS
 62
     0
100
AcDbLine
 10
0.0
 20
0.0
 30
0.0
 11
-1.0
 21
0.0
 31
0.0
  0
LINE
  5
50
100
AcDbEntity
  8
0
  6
CONTINUOUS
 62
     0
100
AcDbLine
 10
0.707107
 20
0.707107
 30
0.0
 11
-0.707107
 21
-0.707107
 31
0.0
  0
ENDBLK
  5
51
100
AcDbEntity
  8
0
100
AcDbBlockEnd
  0
BLOCK
  5
52
100
AcDbEntity
  8
0
100
AcDbBlockBegin
  2
_EX_NONE
 70
     0
 10
0.0
 20
0.0
 30
0.0
  3
_EX_NONE
  1

  0
LINE
  5
53
100
AcDbEntity
  8
0
  6
CONTINUOUS
 62
     0
100
AcDbLine
 10
0.0
 20
0.0
 30
0.0
 11
-1.0
 21
0.0
 31
0.0
  0
ENDBLK
  5
54
100
AcDbEntity
  8
0
100
AcDbBlockEnd
  0
BLOCK
  5
55
100
AcDbEntity
  8
0
100
AcDbBlockBegin
  2
_EX_CIVIL
 70
     0
 10
0.0
 20
0.0
 30
0.0
  3
_EX_CIVIL
  1

  0
LINE
  5
56
100
AcDbEntity
  8
0
  6
CONTINUOUS
 62
     0
100
AcDbLine
 10
0.0
 20
0.0
 30
0.0
 11
-1.0
 21
0.0
 31
0.0
  0
LINE
  5
57
100
AcDbEntity
  8
0
  6
CONTINUOUS
 62
     0
100
AcDbLine
 10
-1.0
 20
0.25
 30
0.0
 11
0.0
 21
0.25
 31
0.0
  0
LINE
  5
58
100
AcDbEntity
  8
0
  6
CONTINUOUS
 62
     0
100
AcDbLine
 10
-1.0
 20
0.125
 30
0.0
 11
0.0
 21
0.125
 31
0.0
  0
ENDBLK
  5
59
100
AcDbEntity
  8
0
100
AcDbBlockEnd
  0
BLOCK
  5
5A
100
AcDbEntity
  8
0
100
AcDbBlockBegin
  2
_EX_WCIR
 70
     0
 10
0.0
 20
0.0
 30
0.0
  3
_EX_WCIR
  1

  0
LINE
  5
5B
100
AcDbEntity
  8
0
  6
CONTINUOUS
 62
     0
100
AcDbLine
 10
0.0
 20
0.0
 30
0.0
 11
-1.0
 21
0.0
 31
0.0
  0
CIRCLE
  5
5C
100
AcDbEntity
  8
0
  6
CONTINUOUS
 62
     0
100
AcDbCircle
 10
0.0
 20
0.0
 30
0.0
 40
0.5
  0
ENDBLK
  5
5D
100
AcDbEntity
  8
0
100
AcDbBlockEnd
  0
BLOCK
  5
5E
100
AcDbEntity
  8
0
100
AcDbBlockBegin
  2
_EX_WCIR2
 70
     0
 10
0.0
 20
0.0
 30
0.0
  3
_EX_WCIR2
  1

  0
LINE
  5
5F
100
AcDbEntity
  8
0
  6
CONTINUOUS
 62
     0
100
AcDbLine
 10
-0.5
 20
0.0
 30
0.0
 11
-1.0
 21
0.0
 31
0.0
  0
CIRCLE
  5
60
100
AcDbEntity
  8
0
  6
CONTINUOUS
 62
     0
100
AcDbCircle
 10
0.0
 20
0.0
 30
0.0
 40
0.5
  0
ENDBLK
  5
61
100
AcDbEntity
  8
0
100
AcDbBlockEnd
  0
BLOCK
  5
62
100
AcDbEntity
  8
0
100
AcDbBlockBegin
  2
_EX_WNORM
 70
     0
 10
0.0
 20
0.0
 30
0.0
  3
_EX_WNORM
  1

  0
LINE
  5
63
100
AcDbEntity
  8
0
  6
CONTINUOUS
 62
     0
100
AcDbLine
 10
-1.0
 20
0.0
 30
0.0
 11
-1.0
 21
0.0
 31
0.0
  0
LINE
  5
64
100
AcDbEntity
  8
0
  6
CONTINUOUS
 62
     0
100
AcDbLine
 10
0.0
 20
0.0
 30
0.0
 11
-1.0
 21
0.166667
 31
0.0
  0
LINE
  5
65
100
AcDbEntity
  8
0
  6
CONTINUOUS
 62
     0
100
AcDbLine
 10
0.0
 20
0.0
 30
0.0
 11
-1.0
 21
-0.166667
 31
0.0
  0
LINE
  5
66
100
AcDbEntity
  8
0
  6
CONTINUOUS
 62
     0
100
AcDbLine
 10
-1.0
 20
0.166667
 30
0.0
 11
-1.0
 21
-0.166667
 31
0.0
  0
ENDBLK
  5
67
100
AcDbEntity
  8
0
100
AcDbBlockEnd
  0
BLOCK
  5
68
100
AcDbEntity
  8
0
100
AcDbBlockBegin
  2
_EX_NNORM
 70
     0
 10
0.0
 20
0.0
 30
0.0
  3
_EX_NNORM
  1

  0
LINE
  5
69
100
AcDbEntity
  8
0
  6
CONTINUOUS
 62
     0
100
AcDbLine
 10
0.0
 20
0.0
 30
0.0
 11
-1.0
 21
0.0
 31
0.0
  0
LINE
  5
6A
100
AcDbEntity
  8
0
  6
CONTINUOUS
 62
     0
100
AcDbLine
 10
0.0
 20
0.0
 30
0.0
 11
-1.0
 21
0.166667
 31
0.0
  0
LINE
  5
6B
100
AcDbEntity
  8
0
  6
CONTINUOUS
 62
     0
100
AcDbLine
 10
0.0
 20
0.0
 30
0.0
 11
-1.0
 21
-0.166667
 31
0.0
  0
LINE
  5
6C
100
AcDbEntity
  8
0
  6
CONTINUOUS
 62
     0
100
AcDbLine
 10
-1.0
 20
0.166667
 30
0.0
 11
-1.0
 21
-0.166667
 31
0.0
  0
ENDBLK
  5
6D
100
AcDbEntity
  8
0
100
AcDbBlockEnd
  0
BLOCK
  5
6E
100
AcDbEntity
  8
0
100
AcDbBlockBegin
  2
_EX_BBOX
 70
     0
 10
0.0
 20
0.0
 30
0.0
  3
_EX_BBOX
  1

  0
LINE
  5
6F
100
AcDbEntity
  8
0
  6
CONTINUOUS
 62
     0
100
AcDbLine
 10
0.0
 20
0.0
 30
0.0
 11
-1.0
 21
0.0
 31
0.0
  0
LINE
  5
70
100
AcDbEntity
  8
0
  6
CONTINUOUS
 62
     0
100
AcDbLine
 10
-0.5
 20
0.5
 30
0.0
 11
0.5
 21
0.5
 31
0.0
  0
LINE
  5
71
100
AcDbEntity
  8
0
  6
CONTINUOUS
 62
     0
100
AcDbLine
 10
0.5
 20
0.5
 30
0.0
 11
0.5
 21
-0.5
 31
0.0
  0
LINE
  5
72
100
AcDbEntity
  8
0
  6
CONTINUOUS
 62
     0
100
AcDbLine
 10
0.5
 20
-0.5
 30
0.0
 11
-0.5
 21
-0.5
 31
0.0
  0
LINE
  5
73
100
AcDbEntity
  8
0
  6
CONTINUOUS
 62
     0
100
AcDbLine
 10
-0.5
 20
-0.5
 30
0.0
 11
-0.5
 21
0.5
 31
0.0
  0
LINE
  5
74
100
AcDbEntity
  8
0
  6
CONTINUOUS
 62
     0
100
AcDbLine
 10
-0.25
 20
0.25
 30
0.0
 11
0.25
 21
0.25
 31
0.0
  0
LINE
  5
75
100
AcDbEntity
  8
0
  6
CONTINUOUS
 62
     0
100
AcDbLine
 10
0.25
 20
0.25
 30
0.0
 11
0.25
 21
-0.25
 31
0.0
  0
LINE
  5
76
100
AcDbEntity
  8
0
  6
CONTINUOUS
 62
     0
100
AcDbLine
 10
0.25
 20
-0.25
 30
0.0
 11
-0.25
 21
-0.25
 31
0.0
  0
LINE
  5
77
100
AcDbEntity
  8
0
  6
CONTINUOUS
 62
     0
100
AcDbLine
 10
-0.25
 20
-0.25
 30
0.0
 11
-0.25
 21
0.25
 31
0.0
  0
ENDBLK
  5
78
100
AcDbEntity
  8
0
100
AcDbBlockEnd
  0
BLOCK
  5
79
100
AcDbEntity
  8
0
100
AcDbBlockBegin
  2
_EX_WBOX
 70
     0
 10
0.0
 20
0.0
 30
0.0
  3
_EX_WBOX
  1

  0
LINE
  5
7A
100
AcDbEntity
  8
0
  6
CONTINUOUS
 62
     0
100
AcDbLine
 10
-0.5
 20
0.0
 30
0.0
 11
-1.0
 21
0.0
 31
0.0
  0
LINE
  5
7B
100
AcDbEntity
  8
0
  6
CONTINUOUS
 62
     0
100
AcDbLine
 10
-0.5
 20
0.5
 30
0.0
 11
0.5
 21
0.5
 31
0.0
  0
LINE
  5
7C
100
AcDbEntity
  8
0
  6
CONTINUOUS
 62
     0
100
AcDbLine
 10
0.5
 20
0.5
 30
0.0
 11
0.5
 21
-0.5
 31
0.0
  0
LINE
  5
7D
100
AcDbEntity
  8
0
  6
CONTINUOUS
 62
     0
100
AcDbLine
 10
0.5
 20
-0.5
 30
0.0
 11
-0.5
 21
-0.5
 31
0.0
  0
LINE
  5
7E
100
AcDbEntity
  8
0
  6
CONTINUOUS
 62
     0
100
AcDbLine
 10
-0.5
 20
-0.5
 30
0.0
 11
-0.5
 21
0.5
 31
0.0
  0
ENDBLK
  5
7F
100
AcDbEntity
  8
0
100
AcDbBlockEnd
  0
BLOCK
  5
80
100
AcDbEntity
  8
0
100
AcDbBlockBegin
  2
_EX_INTEGRAL
 70
     0
 10
0.0
 20
0.0
 30
0.0
  3
_EX_INTEGRAL
  1

  0
LINE
  5
81
100
AcDbEntity
  8
0
  6
CONTINUOUS
 62
     0
100
AcDbLine
 10
0.0
 20
0.0
 30
0.0
 11
-1.0
 21
0.0
 31
0.0
  0
ARC
  5
82
100
AcDbEntity
  8
0
  6
CONTINUOUS
 62
     0
100
AcDbCircle
 10
0.542115
 20
0.164992
 30
0.0
 40
0.56667
100
AcDbArc
 50
73.07249
 51
196.927513
  0
ARC
  5
83
100
AcDbEntity
  8
0
  6
CONTINUOUS
 62
     0
100
AcDbCircle
 10
-0.542115
 20
-0.164992
 30
0.0
 40
0.56667
100
AcDbArc
 50
253.072487
 51
16.927513
  0
ENDBLK
  5
84
100
AcDbEntity
  8
0
100
AcDbBlockEnd
  0
ENDSEC
  0
SECTION
  2
ENTITIES
  0
LINE
  5
85
100
AcDbEntity
  8
LAY-1
  6
CONTINUOUS
 62
     7
100
AcDbLine
 10
18.0
 20
11.5
 30
0.0
 11
200.0
 21
11.5
 31
0.0
  0
LINE
  5
86
100
AcDbEntity
  8
LAY-1
  6
CONTINUOUS
 62
     7
100
AcDbLine
 10
200.0
 20
11.5
 30
0.0
 11
200.0
 21
289.5
 31
0.0
  0
LINE
  5
87
100
AcDbEntity
  8
LAY-1
  6
CONTINUOUS
 62
     7
100
AcDbLine
 10
18.0
 20
11.5
 30
0.0
 11
18.0
 21
289.5
 31
0.0
  0
LINE
  5
88
100
AcDbEntity
  8
LAY-1
  6
CONTINUOUS
 62
     7
100
AcDbLine
 10
18.0
 20
33.5
 30
0.0
 11
200.0
 21
33.5
 31
0.0
  0
LINE
  5
89
100
AcDbEntity
  8
LAY-1
  6
CONTINUOUS
 62
     6
100
AcDbLine
 10
200.0
 20
21.5
 30
0.0
 11
75.0
 21
21.5
 31
0.0
  0
LINE
  5
8A
100
AcDbEntity
  8
LAY-1
  6
CONTINUOUS
 62
     6
100
AcDbLine
 10
186.0
 20
33.5
 30
0.0
 11
186.0
 21
21.5
 31
0.0
  0
LINE
  5
8B
100
AcDbEntity
  8
LAY-1
  6
CONTINUOUS
 62
     6
100
AcDbLine
 10
181.0
 20
33.5
 30
0.0
 11
181.0
 21
21.5
 31
0.0
  0
LINE
  5
8C
100
AcDbEntity
  8
LAY-1
  6
CONTINUOUS
 62
     6
100
AcDbLine
 10
144.0
 20
33.5
 30
0.0
 11
144.0
 21
11.5
 31
0.0
  0
LINE
  5
8D
100
AcDbEntity
  8
LAY-1
  6
CONTINUOUS
 62
     6
100
AcDbLine
 10
139.0
 20
33.5
 30
0.0
 11
139.0
 21
11.5
 31
0.0
  0
LINE
  5
8E
100
AcDbEntity
  8
LAY-1
  6
CONTINUOUS
 62
     6
100
AcDbLine
 10
80.0
 20
33.5
 30
0.0
 11
80.0
 21
21.5
 31
0.0
  0
LINE
  5
8F
100
AcDbEntity
  8
LAY-1
  6
CONTINUOUS
 62
     6
100
AcDbLine
 10
75.0
 20
33.5
 30
0.0
 11
75.0
 21
11.5
 31
0.0
  0
LINE
  5
90
100
AcDbEntity
  8
LAY-1
  6
CONTINUOUS
 62
     6
100
AcDbLine
 10
62.0
 20
33.5
 30
0.0
 11
62.0
 21
11.5
 31
0.0
  0
LINE
  5
91
100
AcDbEntity
  8
LAY-1
  6
CONTINUOUS
 62
     6
100
AcDbLine
 10
49.0
 20
33.5
 30
0.0
 11
49.0
 21
11.5
 31
0.0
  0
LINE
  5
92
100
AcDbEntity
  8
LAY-1
  6
CONTINUOUS
 62
     6
100
AcDbLine
 10
33.5
 20
33.5
 30
0.0
 11
33.5
 21
11.5
 31
0.0
  0
LINE
  5
93
100
AcDbEntity
  8
LAY-1
  6
CONTINUOUS
 62
     6
100
AcDbLine
 10
18.0
 20
28.5
 30
0.0
 11
75.0
 21
28.5
 31
0.0
  0
LINE
  5
94
100
AcDbEntity
  8
LAY-1
  6
CONTINUOUS
 62
     6
100
AcDbLine
 10
189.265381
 20
23.800293
 30
0.0
 11
196.99939
 21
31.669983
 31
0.0
  0
LINE
  5
95
100
AcDbEntity
  8
LAY-1
  6
EXLTYPE2
 62
     6
100
AcDbLine
 10
18.0
 20
16.5
 30
0.0
 11
49.0
 21
16.5
 31
0.0
  0
CIRCLE
  5
96
100
AcDbEntity
  8
LAY-1
  6
CONTINUOUS
 62
     6
100
AcDbCircle
 10
23.0
 20
14.0
 30
0.0
 40
0.1
  0
CIRCLE
  5
97
100
AcDbEntity
  8
LAY-1
  6
CONTINUOUS
 62
     6
100
AcDbCircle
 10
28.0
 20
14.0
 30
0.0
 40
0.1
  0
CIRCLE
  5
98
100
AcDbEntity
  8
LAY-1
  6
CONTINUOUS
 62
     6
100
AcDbCircle
 10
38.5
 20
14.0
 30
0.0
 40
0.1
  0
CIRCLE
  5
99
100
AcDbEntity
  8
LAY-1
  6
CONTINUOUS
 62
     6
100
AcDbCircle
 10
43.5
 20
14.0
 30
0.0
 40
0.1
  0
TEXT
  5
9A
100
AcDbEntity
  8
LAY-1
  6
CONTINUOUS
 62
     2
100
AcDbText
 10
189.053711
 20
28.272278
 30
0.0
 40
3.0
  1
１
 41
0.826
  7
EXCADSTD
 72
     5
 11
191.413711
 21
28.272278
 31
0.0
100
AcDbText
  0
TEXT
  5
9B
100
AcDbEntity
  8
LAY-1
  6
CONTINUOUS
 62
     2
100
AcDbText
 10
193.12793
 20
23.834885
 30
0.0
 40
3.0
  1
１０
 41
0.791
  7
EXCADSTD
 72
     5
 11
198.30672
 21
23.834885
 31
0.0
100
AcDbText
  0
TEXT
  5
9C
100
AcDbEntity
  8
LAY-1
  6
CONTINUOUS
 62
     2
100
AcDbText
 10
20.25
 20
28.875
 30
0.0
 40
4.25
  1
製図
 41
1.087059
  7
EXCADSTD
 72
     5
 11
30.3326
 21
28.875
 31
0.0
100
AcDbText
  0
TEXT
  5
9D
100
AcDbEntity
  8
LAY-1
  6
CONTINUOUS
 62
     2
100
AcDbText
 10
35.75
 20
28.875
 30
0.0
 40
4.25
  1
写図
 41
1.087059
  7
EXCADSTD
 72
     5
 11
45.8326
 21
28.875
 31
0.0
100
AcDbText
  0
TEXT
  5
9E
100
AcDbEntity
  8
LAY-1
  6
CONTINUOUS
 62
     2
100
AcDbText
 10
50.75
 20
28.875
 30
0.0
 40
4.25
  1
検図
 41
0.938824
  7
EXCADSTD
 72
     5
 11
59.4577
 21
28.875
 31
0.0
100
AcDbText
  0
TEXT
  5
9F
100
AcDbEntity
  8
LAY-1
  6
CONTINUOUS
 62
     2
100
AcDbText
 10
63.75
 20
28.875
 30
0.0
 40
4.25
  1
承認
 41
0.938824
  7
EXCADSTD
 72
     5
 11
72.4577
 21
28.875
 31
0.0
100
AcDbText
  0
TEXT
  5
A0
100
AcDbEntity
  8
LAY-1
  6
CONTINUOUS
 62
     2
100
AcDbText
 10
75.575
 20
27.875
 30
0.0
 40
4.25
  1
品
 41
0.84
  7
EXCADSTD
 72
     5
 11
78.975
 21
27.875
 31
0.0
100
AcDbText
  0
TEXT
  5
A1
100
AcDbEntity
  8
LAY-1
  6
CONTINUOUS
 62
     2
100
AcDbText
 10
75.575
 20
22.875
 30
0.0
 40
4.25
  1
名
 41
0.84
  7
EXCADSTD
 72
     5
 11
78.975
 21
22.875
 31
0.0
100
AcDbText
  0
TEXT
  5
A2
100
AcDbEntity
  8
LAY-1
  6
CONTINUOUS
 62
     2
100
AcDbText
 10
139.575
 20
27.875
 30
0.0
 40
4.25
  1
品
 41
0.84
  7
EXCADSTD
 72
     5
 11
142.975
 21
27.875
 31
0.0
100
AcDbText
  0
TEXT
  5
A3
100
AcDbEntity
  8
LAY-1
  6
CONTINUOUS
 62
     2
100
AcDbText
 10
139.575
 20
22.875
 30
0.0
 40
4.25
  1
番
 41
0.84
  7
EXCADSTD
 72
     5
 11
142.975
 21
22.875
 31
0.0
100
AcDbText
  0
TEXT
  5
A4
100
AcDbEntity
  8
LAY-1
  6
CONTINUOUS
 62
     2
100
AcDbText
 10
181.675
 20
27.875
 30
0.0
 40
4.25
  1
尺
 41
0.84
  7
EXCADSTD
 72
     5
 11
185.075
 21
27.875
 31
0.0
100
AcDbText
  0
TEXT
  5
A5
100
AcDbEntity
  8
LAY-1
  6
CONTINUOUS
 62
     2
100
AcDbText
 10
181.675
 20
22.875
 30
0.0
 40
4.25
  1
度
 41
0.84
  7
EXCADSTD
 72
     5
 11
185.075
 21
22.875
 31
0.0
100
AcDbText
  0
TEXT
  5
A6
100
AcDbEntity
  8
LAY-1
  6
CONTINUOUS
 62
     2
100
AcDbText
 10
139.575
 20
16.575
 30
0.0
 40
4.25
  1
図
 41
0.84
  7
EXCADSTD
 72
     5
 11
142.975
 21
16.575
 31
0.0
100
AcDbText
  0
TEXT
  5
A7
100
AcDbEntity
  8
LAY-1
  6
CONTINUOUS
 62
     2
100
AcDbText
 10
139.575
 20
12.275
 30
0.0
 40
4.25
  1
番
 41
0.84
  7
EXCADSTD
 72
     5
 11
142.975
 21
12.275
 31
0.0
100
AcDbText
  0
LINE
  5
A8
100
AcDbEntity
  8
LAY-1
  6
CONTINUOUS
 62
     3
100
AcDbLine
 10
82.744775
 20
18.028799
 30
0.0
 11
81.938409
 21
18.028799
 31
0.0
  0
LINE
  5
A9
100
AcDbEntity
  8
LAY-1
  6
CONTINUOUS
 62
     3
100
AcDbLine
 10
82.744775
 20
18.835196
 30
0.0
 11
82.744775
 21
18.028799
 31
0.0
  0
LINE
  5
AA
100
AcDbEntity
  8
LAY-1
  6
CONTINUOUS
 62
     3
100
AcDbLine
 10
81.938409
 20
18.835196
 30
0.0
 11
82.744775
 21
18.835196
 31
0.0
  0
LINE
  5
AB
100
AcDbEntity
  8
LAY-1
  6
CONTINUOUS
 62
     3
100
AcDbLine
 10
81.938409
 20
18.835196
 30
0.0
 11
81.938409
 21
18.028799
 31
0.0
  0
LINE
  5
AC
100
AcDbEntity
  8
LAY-1
  6
CONTINUOUS
 62
     3
100
AcDbLine
 10
81.635919
 20
18.028799
 30
0.0
 11
80.829553
 21
18.028799
 31
0.0
  0
LINE
  5
AD
100
AcDbEntity
  8
LAY-1
  6
CONTINUOUS
 62
     3
100
AcDbLine
 10
81.635919
 20
18.835196
 30
0.0
 11
81.635919
 21
18.028799
 31
0.0
  0
LINE
  5
AE
100
AcDbEntity
  8
LAY-1
  6
CONTINUOUS
 62
     3
100
AcDbLine
 10
80.829553
 20
18.835196
 30
0.0
 11
81.635919
 21
18.835196
 31
0.0
  0
LINE
  5
AF
100
AcDbEntity
  8
LAY-1
  6
CONTINUOUS
 62
     3
100
AcDbLine
 10
80.829553
 20
18.835196
 30
0.0
 11
80.829553
 21
18.028799
 31
0.0
  0
LINE
  5
B0
100
AcDbEntity
  8
LAY-1
  6
CONTINUOUS
 62
     3
100
AcDbLine
 10
79.988733
 20
14.4
 30
0.0
 11
77.1
 21
14.4
 31
0.0
  0
ARC
  5
B1
100
AcDbEntity
  8
LAY-1
  6
CONTINUOUS
 62
     3
100
AcDbCircle
 10
79.988733
 20
16.214407
 30
0.0
 40
1.8144
100
AcDbArc
 50
270.000031
 51
334.000137
  0
LINE
  5
B2
100
AcDbEntity
  8
LAY-1
  6
CONTINUOUS
 62
     3
100
AcDbLine
 10
82.744775
 20
17.726401
 30
0.0
 11
81.619302
 21
15.419012
 31
0.0
  0
LINE
  5
B3
100
AcDbEntity
  8
LAY-1
  6
CONTINUOUS
 62
     3
100
AcDbLine
 10
81.511224
 20
17.726401
 30
0.0
 11
82.744775
 21
17.726401
 31
0.0
  0
LINE
  5
B4
100
AcDbEntity
  8
LAY-1
  6
CONTINUOUS
 62
     3
100
AcDbLine
 10
80.601297
 20
15.860907
 30
0.0
 11
81.511224
 21
17.726401
 31
0.0
  0
ARC
  5
B5
100
AcDbEntity
  8
LAY-1
  6
CONTINUOUS
 62
     3
100
AcDbCircle
 10
79.87655
 20
16.214407
 30
0.0
 40
0.8064
100
AcDbArc
 50
270.000031
 51
333.99855
  0
LINE
  5
B6
100
AcDbEntity
  8
LAY-1
  6
CONTINUOUS
 62
     3
100
AcDbLine
 10
77.1
 20
15.407996
 30
0.0
 11
79.87655
 21
15.407996
 31
0.0
  0
LINE
  5
B7
100
AcDbEntity
  8
LAY-1
  6
CONTINUOUS
 62
     3
100
AcDbLine
 10
77.1
 20
15.407996
 30
0.0
 11
77.1
 21
14.4
 31
0.0
  0
LINE
  5
B8
100
AcDbEntity
  8
LAY-1
  6
CONTINUOUS
 62
     3
100
AcDbLine
 10
79.922495
 20
16.71839
 30
0.0
 11
77.1
 21
16.71839
 31
0.0
  0
LINE
  5
B9
100
AcDbEntity
  8
LAY-1
  6
CONTINUOUS
 62
     3
100
AcDbLine
 10
79.922495
 20
17.625601
 30
0.0
 11
79.922495
 21
16.71839
 31
0.0
  0
LINE
  5
BA
100
AcDbEntity
  8
LAY-1
  6
CONTINUOUS
 62
     3
100
AcDbLine
 10
77.1
 20
17.625601
 30
0.0
 11
79.922495
 21
17.625601
 31
0.0
  0
LINE
  5
BB
100
AcDbEntity
  8
LAY-1
  6
CONTINUOUS
 62
     3
100
AcDbLine
 10
77.1
 20
17.625601
 30
0.0
 11
77.1
 21
16.71839
 31
0.0
  0
LINE
  5
BC
100
AcDbEntity
  8
LAY-1
  6
CONTINUOUS
 62
     3
100
AcDbLine
 10
79.922495
 20
17.928
 30
0.0
 11
77.1
 21
17.928
 31
0.0
  0
LINE
  5
BD
100
AcDbEntity
  8
LAY-1
  6
CONTINUOUS
 62
     3
100
AcDbLine
 10
79.922495
 20
18.835196
 30
0.0
 11
79.922495
 21
17.928
 31
0.0
  0
LINE
  5
BE
100
AcDbEntity
  8
LAY-1
  6
CONTINUOUS
 62
     3
100
AcDbLine
 10
77.1
 20
18.835196
 30
0.0
 11
79.922495
 21
18.835196
 31
0.0
  0
LINE
  5
BF
100
AcDbEntity
  8
LAY-1
  6
CONTINUOUS
 62
     3
100
AcDbLine
 10
77.1
 20
18.835196
 30
0.0
 11
77.1
 21
17.928
 31
0.0
  0
LINE
  5
C0
100
AcDbEntity
  8
LAY-1
  6
CONTINUOUS
 62
     3
100
AcDbLine
 10
83.047266
 20
17.726401
 30
0.0
 11
83.047266
 21
17.020789
 31
0.0
  0
LINE
  5
C1
100
AcDbEntity
  8
LAY-1
  6
CONTINUOUS
 62
     3
100
AcDbLine
 10
83.047266
 20
17.726401
 30
0.0
 11
83.965402
 21
17.726401
 31
0.0
  0
LINE
  5
C2
100
AcDbEntity
  8
LAY-1
  6
CONTINUOUS
 62
     3
100
AcDbLine
 10
83.853632
 20
18.431998
 30
0.0
 11
83.965402
 21
17.726401
 31
0.0
  0
LINE
  5
C3
100
AcDbEntity
  8
LAY-1
  6
CONTINUOUS
 62
     3
100
AcDbLine
 10
83.853632
 20
18.431998
 30
0.0
 11
84.976236
 21
18.431998
 31
0.0
  0
LINE
  5
C4
100
AcDbEntity
  8
LAY-1
  6
CONTINUOUS
 62
     3
100
AcDbLine
 10
84.976236
 20
18.431998
 30
0.0
 11
85.087991
 21
17.726401
 31
0.0
  0
LINE
  5
C5
100
AcDbEntity
  8
LAY-1
  6
CONTINUOUS
 62
     3
100
AcDbLine
 10
85.087991
 20
17.726401
 30
0.0
 11
87.885675
 21
17.726401
 31
0.0
  0
LINE
  5
C6
100
AcDbEntity
  8
LAY-1
  6
CONTINUOUS
 62
     3
100
AcDbLine
 10
87.885675
 20
17.726401
 30
0.0
 11
87.297311
 21
16.405051
 31
0.0
  0
ARC
  5
C7
100
AcDbEntity
  8
LAY-1
  6
CONTINUOUS
 62
     3
100
AcDbCircle
 10
85.916101
 20
17.020041
 30
0.0
 40
1.512011
100
AcDbArc
 50
263.465775
 51
335.998779
  0
LINE
  5
C8
100
AcDbEntity
  8
LAY-1
  6
CONTINUOUS
 62
     3
100
AcDbLine
 10
85.743845
 20
15.517859
 30
0.0
 11
85.633707
 21
16.214407
 31
0.0
  0
ARC
  5
C9
100
AcDbEntity
  8
LAY-1
  6
CONTINUOUS
 62
     3
100
AcDbCircle
 10
85.605814
 20
16.819205
 30
0.0
 40
0.604801
100
AcDbArc
 50
272.623749
 51
336.006531
  0
LINE
  5
CA
100
AcDbEntity
  8
LAY-1
  6
CONTINUOUS
 62
     3
100
AcDbLine
 10
86.158502
 20
16.573203
 30
0.0
 11
86.357629
 21
17.020789
 31
0.0
  0
LINE
  5
CB
100
AcDbEntity
  8
LAY-1
  6
CONTINUOUS
 62
     3
100
AcDbLine
 10
86.357629
 20
17.020789
 30
0.0
 11
85.199762
 21
17.020789
 31
0.0
  0
LINE
  5
CC
100
AcDbEntity
  8
LAY-1
  6
CONTINUOUS
 62
     3
100
AcDbLine
 10
85.199762
 20
17.020789
 30
0.0
 11
85.614847
 21
14.4
 31
0.0
  0
LINE
  5
CD
100
AcDbEntity
  8
LAY-1
  6
CONTINUOUS
 62
     3
100
AcDbLine
 10
85.614847
 20
14.4
 30
0.0
 11
84.492242
 21
14.4
 31
0.0
  0
LINE
  5
CE
100
AcDbEntity
  8
LAY-1
  6
CONTINUOUS
 62
     3
100
AcDbLine
 10
84.492242
 20
14.4
 30
0.0
 11
84.077173
 21
17.020789
 31
0.0
  0
LINE
  5
CF
100
AcDbEntity
  8
LAY-1
  6
CONTINUOUS
 62
     3
100
AcDbLine
 10
84.077173
 20
17.020789
 30
0.0
 11
83.047266
 21
17.020789
 31
0.0
  0
LINE
  5
D0
100
AcDbEntity
  8
LAY-1
  6
CONTINUOUS
 62
     3
100
AcDbLine
 10
87.784769
 20
14.4
 30
0.0
 11
87.784769
 21
15.407996
 31
0.0
  0
LINE
  5
D1
100
AcDbEntity
  8
LAY-1
  6
CONTINUOUS
 62
     3
100
AcDbLine
 10
87.784769
 20
15.407996
 30
0.0
 11
93.429544
 21
15.407996
 31
0.0
  0
LINE
  5
D2
100
AcDbEntity
  8
LAY-1
  6
CONTINUOUS
 62
     3
100
AcDbLine
 10
93.429544
 20
15.407996
 30
0.0
 11
93.429544
 21
14.4
 31
0.0
  0
LINE
  5
D3
100
AcDbEntity
  8
LAY-1
  6
CONTINUOUS
 62
     3
100
AcDbLine
 10
93.429544
 20
14.4
 30
0.0
 11
87.784769
 21
14.4
 31
0.0
  0
LINE
  5
D4
100
AcDbEntity
  8
LAY-1
  6
CONTINUOUS
 62
     3
100
AcDbLine
 10
88.187952
 20
18.835196
 30
0.0
 11
88.187952
 21
17.8272
 31
0.0
  0
LINE
  5
D5
100
AcDbEntity
  8
LAY-1
  6
CONTINUOUS
 62
     3
100
AcDbLine
 10
88.187952
 20
18.835196
 30
0.0
 11
93.026361
 21
18.835196
 31
0.0
  0
LINE
  5
D6
100
AcDbEntity
  8
LAY-1
  6
CONTINUOUS
 62
     3
100
AcDbLine
 10
93.026361
 20
18.835196
 30
0.0
 11
93.026361
 21
17.8272
 31
0.0
  0
LINE
  5
D7
100
AcDbEntity
  8
LAY-1
  6
CONTINUOUS
 62
     3
100
AcDbLine
 10
93.026361
 20
17.8272
 30
0.0
 11
88.187952
 21
17.8272
 31
0.0
  0
LINE
  5
D8
100
AcDbEntity
  8
LAY-1
  6
CONTINUOUS
 62
     3
100
AcDbLine
 10
94.135217
 20
18.835196
 30
0.0
 11
94.135217
 21
17.8272
 31
0.0
  0
LINE
  5
D9
100
AcDbEntity
  8
LAY-1
  6
CONTINUOUS
 62
     3
100
AcDbLine
 10
94.135217
 20
18.835196
 30
0.0
 11
99.37681
 21
18.835196
 31
0.0
  0
LINE
  5
DA
100
AcDbEntity
  8
LAY-1
  6
CONTINUOUS
 62
     3
100
AcDbLine
 10
99.37681
 20
18.835196
 30
0.0
 11
97.805093
 21
16.671896
 31
0.0
  0
LINE
  5
DB
100
AcDbEntity
  8
LAY-1
  6
CONTINUOUS
 62
     3
100
AcDbLine
 10
97.805093
 20
16.671896
 30
0.0
 11
99.779993
 21
14.4
 31
0.0
  0
LINE
  5
DC
100
AcDbEntity
  8
LAY-1
  6
CONTINUOUS
 62
     3
100
AcDbLine
 10
99.779993
 20
14.4
 30
0.0
 11
98.310815
 21
14.4
 31
0.0
  0
LINE
  5
DD
100
AcDbEntity
  8
LAY-1
  6
CONTINUOUS
 62
     3
100
AcDbLine
 10
98.310815
 20
14.4
 30
0.0
 11
97.136133
 21
15.751273
 31
0.0
  0
LINE
  5
DE
100
AcDbEntity
  8
LAY-1
  6
CONTINUOUS
 62
     3
100
AcDbLine
 10
97.136133
 20
15.751273
 30
0.0
 11
96.697885
 21
15.147925
 31
0.0
  0
ARC
  5
DF
100
AcDbEntity
  8
LAY-1
  6
CONTINUOUS
 62
     3
100
AcDbCircle
 10
95.229929
 20
16.214407
 30
0.0
 40
1.8144
100
AcDbArc
 50
270.000031
 51
324.00116
  0
LINE
  5
E0
100
AcDbEntity
  8
LAY-1
  6
CONTINUOUS
 62
     3
100
AcDbLine
 10
95.229929
 20
14.4
 30
0.0
 11
93.732034
 21
14.4
 31
0.0
  0
LINE
  5
E1
100
AcDbEntity
  8
LAY-1
  6
CONTINUOUS
 62
     3
100
AcDbLine
 10
93.732034
 20
14.4
 30
0.0
 11
93.732034
 21
15.407996
 31
0.0
  0
LINE
  5
E2
100
AcDbEntity
  8
LAY-1
  6
CONTINUOUS
 62
     3
100
AcDbLine
 10
93.732034
 20
15.407996
 30
0.0
 11
95.00271
 21
15.407996
 31
0.0
  0
ARC
  5
E3
100
AcDbEntity
  8
LAY-1
  6
CONTINUOUS
 62
     3
100
AcDbCircle
 10
95.00271
 20
16.415991
 30
0.0
 40
1.007999
100
AcDbArc
 50
270.000031
 51
323.996597
  0
LINE
  5
E4
100
AcDbEntity
  8
LAY-1
  6
CONTINUOUS
 62
     3
100
AcDbLine
 10
95.818094
 20
15.823508
 30
0.0
 11
97.27395
 21
17.8272
 31
0.0
  0
LINE
  5
E5
100
AcDbEntity
  8
LAY-1
  6
CONTINUOUS
 62
     3
100
AcDbLine
 10
97.27395
 20
17.8272
 30
0.0
 11
94.135217
 21
17.8272
 31
0.0
  0
LINE
  5
E6
100
AcDbEntity
  8
LAY-1
  6
CONTINUOUS
 62
     3
100
AcDbLine
 10
100.989557
 20
18.835196
 30
0.0
 11
100.989557
 21
18.129599
 31
0.0
  0
LINE
  5
E7
100
AcDbEntity
  8
LAY-1
  6
CONTINUOUS
 62
     3
100
AcDbLine
 10
100.989557
 20
18.835196
 30
0.0
 11
106.231134
 21
18.835196
 31
0.0
  0
LINE
  5
E8
100
AcDbEntity
  8
LAY-1
  6
CONTINUOUS
 62
     3
100
AcDbLine
 10
106.231134
 20
18.835196
 30
0.0
 11
106.231134
 21
18.129599
 31
0.0
  0
LINE
  5
E9
100
AcDbEntity
  8
LAY-1
  6
CONTINUOUS
 62
     3
100
AcDbLine
 10
106.231134
 20
18.129599
 30
0.0
 11
104.164774
 21
18.129599
 31
0.0
  0
LINE
  5
EA
100
AcDbEntity
  8
LAY-1
  6
CONTINUOUS
 62
     3
100
AcDbLine
 10
104.164774
 20
18.129599
 30
0.0
 11
104.164774
 21
15.206412
 31
0.0
  0
LINE
  5
EB
100
AcDbEntity
  8
LAY-1
  6
CONTINUOUS
 62
     3
100
AcDbLine
 10
104.164774
 20
15.206412
 30
0.0
 11
106.432733
 21
15.206412
 31
0.0
  0
LINE
  5
EC
100
AcDbEntity
  8
LAY-1
  6
CONTINUOUS
 62
     3
100
AcDbLine
 10
106.432733
 20
15.206412
 30
0.0
 11
106.432733
 21
14.4
 31
0.0
  0
LINE
  5
ED
100
AcDbEntity
  8
LAY-1
  6
CONTINUOUS
 62
     3
100
AcDbLine
 10
106.432733
 20
14.4
 30
0.0
 11
100.787958
 21
14.4
 31
0.0
  0
LINE
  5
EE
100
AcDbEntity
  8
LAY-1
  6
CONTINUOUS
 62
     3
100
AcDbLine
 10
100.787958
 20
14.4
 30
0.0
 11
100.787958
 21
15.206412
 31
0.0
  0
LINE
  5
EF
100
AcDbEntity
  8
LAY-1
  6
CONTINUOUS
 62
     3
100
AcDbLine
 10
100.787958
 20
15.206412
 30
0.0
 11
103.055917
 21
15.206412
 31
0.0
  0
LINE
  5
F0
100
AcDbEntity
  8
LAY-1
  6
CONTINUOUS
 62
     3
100
AcDbLine
 10
103.055917
 20
15.206412
 30
0.0
 11
103.055917
 21
18.129599
 31
0.0
  0
LINE
  5
F1
100
AcDbEntity
  8
LAY-1
  6
CONTINUOUS
 62
     3
100
AcDbLine
 10
103.055917
 20
18.129599
 30
0.0
 11
100.989557
 21
18.129599
 31
0.0
  0
LINE
  5
F2
100
AcDbEntity
  8
LAY-1
  6
CONTINUOUS
 62
     3
100
AcDbLine
 10
106.533624
 20
18.230399
 30
0.0
 11
106.533624
 21
17.766714
 31
0.0
  0
LINE
  5
F3
100
AcDbEntity
  8
LAY-1
  6
CONTINUOUS
 62
     3
100
AcDbLine
 10
106.533624
 20
18.230399
 30
0.0
 11
107.409311
 21
18.230399
 31
0.0
  0
LINE
  5
F4
100
AcDbEntity
  8
LAY-1
  6
CONTINUOUS
 62
     3
100
AcDbLine
 10
107.409311
 20
18.230399
 30
0.0
 11
106.936823
 21
18.835196
 31
0.0
  0
LINE
  5
F5
100
AcDbEntity
  8
LAY-1
  6
CONTINUOUS
 62
     3
100
AcDbLine
 10
106.936823
 20
18.835196
 30
0.0
 11
107.832193
 21
18.835196
 31
0.0
  0
LINE
  5
F6
100
AcDbEntity
  8
LAY-1
  6
CONTINUOUS
 62
     3
100
AcDbLine
 10
107.832193
 20
18.835196
 30
0.0
 11
108.304681
 21
18.230399
 31
0.0
  0
LINE
  5
F7
100
AcDbEntity
  8
LAY-1
  6
CONTINUOUS
 62
     3
100
AcDbLine
 10
108.304681
 20
18.230399
 30
0.0
 11
108.499307
 21
18.230399
 31
0.0
  0
LINE
  5
F8
100
AcDbEntity
  8
LAY-1
  6
CONTINUOUS
 62
     3
100
AcDbLine
 10
108.499307
 20
18.230399
 30
0.0
 11
108.499307
 21
18.835196
 31
0.0
  0
LINE
  5
F9
100
AcDbEntity
  8
LAY-1
  6
CONTINUOUS
 62
     3
100
AcDbLine
 10
108.499307
 20
18.835196
 30
0.0
 11
109.204767
 21
18.835196
 31
0.0
  0
LINE
  5
FA
100
AcDbEntity
  8
LAY-1
  6
CONTINUOUS
 62
     3
100
AcDbLine
 10
109.204767
 20
18.835196
 30
0.0
 11
109.204767
 21
18.230399
 31
0.0
  0
LINE
  5
FB
100
AcDbEntity
  8
LAY-1
  6
CONTINUOUS
 62
     3
100
AcDbLine
 10
109.204767
 20
18.230399
 30
0.0
 11
109.507257
 21
18.230399
 31
0.0
  0
LINE
  5
FC
100
AcDbEntity
  8
LAY-1
  6
CONTINUOUS
 62
     3
100
AcDbLine
 10
109.507257
 20
18.230399
 30
0.0
 11
109.507257
 21
18.835196
 31
0.0
  0
LINE
  5
FD
100
AcDbEntity
  8
LAY-1
  6
CONTINUOUS
 62
     3
100
AcDbLine
 10
109.507257
 20
18.835196
 30
0.0
 11
110.212732
 21
18.835196
 31
0.0
  0
LINE
  5
FE
100
AcDbEntity
  8
LAY-1
  6
CONTINUOUS
 62
     3
100
AcDbLine
 10
110.212732
 20
18.835196
 30
0.0
 11
110.212732
 21
18.230399
 31
0.0
  0
LINE
  5
FF
100
AcDbEntity
  8
LAY-1
  6
CONTINUOUS
 62
     3
100
AcDbLine
 10
110.212732
 20
18.230399
 30
0.0
 11
110.407358
 21
18.230399
 31
0.0
  0
LINE
  5
100
100
AcDbEntity
  8
LAY-1
  6
CONTINUOUS
 62
     3
100
AcDbLine
 10
110.407358
 20
18.230399
 30
0.0
 11
110.879846
 21
18.835196
 31
0.0
  0
LINE
  5
101
100
AcDbEntity
  8
LAY-1
  6
CONTINUOUS
 62
     3
100
AcDbLine
 10
110.879846
 20
18.835196
 30
0.0
 11
111.775217
 21
18.835196
 31
0.0
  0
LINE
  5
102
100
AcDbEntity
  8
LAY-1
  6
CONTINUOUS
 62
     3
100
AcDbLine
 10
111.775217
 20
18.835196
 30
0.0
 11
111.302728
 21
18.230399
 31
0.0
  0
LINE
  5
103
100
AcDbEntity
  8
LAY-1
  6
CONTINUOUS
 62
     3
100
AcDbLine
 10
111.302728
 20
18.230399
 30
0.0
 11
112.1784
 21
18.230399
 31
0.0
  0
LINE
  5
104
100
AcDbEntity
  8
LAY-1
  6
CONTINUOUS
 62
     3
100
AcDbLine
 10
112.1784
 20
18.230399
 30
0.0
 11
112.1784
 21
17.766714
 31
0.0
  0
LINE
  5
105
100
AcDbEntity
  8
LAY-1
  6
CONTINUOUS
 62
     3
100
AcDbLine
 10
112.1784
 20
17.766714
 30
0.0
 11
111.116098
 21
17.766714
 31
0.0
  0
LINE
  5
106
100
AcDbEntity
  8
LAY-1
  6
CONTINUOUS
 62
     3
100
AcDbLine
 10
111.116098
 20
17.766714
 30
0.0
 11
110.932764
 21
17.262732
 31
0.0
  0
LINE
  5
107
100
AcDbEntity
  8
LAY-1
  6
CONTINUOUS
 62
     3
100
AcDbLine
 10
110.932764
 20
17.262732
 30
0.0
 11
112.1784
 21
17.262732
 31
0.0
  0
LINE
  5
108
100
AcDbEntity
  8
LAY-1
  6
CONTINUOUS
 62
     3
100
AcDbLine
 10
112.1784
 20
17.262732
 30
0.0
 11
112.1784
 21
16.799048
 31
0.0
  0
LINE
  5
109
100
AcDbEntity
  8
LAY-1
  6
CONTINUOUS
 62
     3
100
AcDbLine
 10
112.1784
 20
16.799048
 30
0.0
 11
109.859995
 21
16.799048
 31
0.0
  0
LINE
  5
10A
100
AcDbEntity
  8
LAY-1
  6
CONTINUOUS
 62
     3
100
AcDbLine
 10
109.859995
 20
16.799048
 30
0.0
 11
109.859995
 21
16.567206
 31
0.0
  0
LINE
  5
10B
100
AcDbEntity
  8
LAY-1
  6
CONTINUOUS
 62
     3
100
AcDbLine
 10
109.859995
 20
16.567206
 30
0.0
 11
112.1784
 21
16.567206
 31
0.0
  0
LINE
  5
10C
100
AcDbEntity
  8
LAY-1
  6
CONTINUOUS
 62
     3
100
AcDbLine
 10
112.1784
 20
16.567206
 30
0.0
 11
112.1784
 21
16.103522
 31
0.0
  0
LINE
  5
10D
100
AcDbEntity
  8
LAY-1
  6
CONTINUOUS
 62
     3
100
AcDbLine
 10
112.1784
 20
16.103522
 30
0.0
 11
109.859995
 21
16.103522
 31
0.0
  0
LINE
  5
10E
100
AcDbEntity
  8
LAY-1
  6
CONTINUOUS
 62
     3
100
AcDbLine
 10
109.859995
 20
16.103522
 30
0.0
 11
109.859995
 21
15.87168
 31
0.0
  0
LINE
  5
10F
100
AcDbEntity
  8
LAY-1
  6
CONTINUOUS
 62
     3
100
AcDbLine
 10
109.859995
 20
15.87168
 30
0.0
 11
112.1784
 21
15.87168
 31
0.0
  0
LINE
  5
110
100
AcDbEntity
  8
LAY-1
  6
CONTINUOUS
 62
     3
100
AcDbLine
 10
112.1784
 20
15.87168
 30
0.0
 11
112.1784
 21
15.407996
 31
0.0
  0
LINE
  5
111
100
AcDbEntity
  8
LAY-1
  6
CONTINUOUS
 62
     3
100
AcDbLine
 10
112.1784
 20
15.407996
 30
0.0
 11
111.062784
 21
15.407996
 31
0.0
  0
LINE
  5
112
100
AcDbEntity
  8
LAY-1
  6
CONTINUOUS
 62
     3
100
AcDbLine
 10
111.062784
 20
15.407996
 30
0.0
 11
112.1784
 21
14.4
 31
0.0
  0
LINE
  5
113
100
AcDbEntity
  8
LAY-1
  6
CONTINUOUS
 62
     3
100
AcDbLine
 10
112.1784
 20
14.4
 30
0.0
 11
110.975626
 21
14.4
 31
0.0
  0
LINE
  5
114
100
AcDbEntity
  8
LAY-1
  6
CONTINUOUS
 62
     3
100
AcDbLine
 10
110.975626
 20
14.4
 30
0.0
 11
109.859995
 21
15.407996
 31
0.0
  0
LINE
  5
115
100
AcDbEntity
  8
LAY-1
  6
CONTINUOUS
 62
     3
100
AcDbLine
 10
109.859995
 20
15.407996
 30
0.0
 11
109.859995
 21
14.4
 31
0.0
  0
LINE
  5
116
100
AcDbEntity
  8
LAY-1
  6
CONTINUOUS
 62
     3
100
AcDbLine
 10
109.859995
 20
14.4
 30
0.0
 11
108.852045
 21
14.4
 31
0.0
  0
LINE
  5
117
100
AcDbEntity
  8
LAY-1
  6
CONTINUOUS
 62
     3
100
AcDbLine
 10
108.852045
 20
14.4
 30
0.0
 11
108.852045
 21
15.407996
 31
0.0
  0
LINE
  5
118
100
AcDbEntity
  8
LAY-1
  6
CONTINUOUS
 62
     3
100
AcDbLine
 10
108.852045
 20
15.407996
 30
0.0
 11
107.736414
 21
14.4
 31
0.0
  0
LINE
  5
119
100
AcDbEntity
  8
LAY-1
  6
CONTINUOUS
 62
     3
100
AcDbLine
 10
107.736414
 20
14.4
 30
0.0
 11
106.533624
 21
14.4
 31
0.0
  0
LINE
  5
11A
100
AcDbEntity
  8
LAY-1
  6
CONTINUOUS
 62
     3
100
AcDbLine
 10
106.533624
 20
14.4
 30
0.0
 11
107.649255
 21
15.407996
 31
0.0
  0
LINE
  5
11B
100
AcDbEntity
  8
LAY-1
  6
CONTINUOUS
 62
     3
100
AcDbLine
 10
107.649255
 20
15.407996
 30
0.0
 11
106.533624
 21
15.407996
 31
0.0
  0
LINE
  5
11C
100
AcDbEntity
  8
LAY-1
  6
CONTINUOUS
 62
     3
100
AcDbLine
 10
106.533624
 20
15.407996
 30
0.0
 11
106.533624
 21
15.87168
 31
0.0
  0
LINE
  5
11D
100
AcDbEntity
  8
LAY-1
  6
CONTINUOUS
 62
     3
100
AcDbLine
 10
106.533624
 20
15.87168
 30
0.0
 11
108.852045
 21
15.87168
 31
0.0
  0
LINE
  5
11E
100
AcDbEntity
  8
LAY-1
  6
CONTINUOUS
 62
     3
100
AcDbLine
 10
108.852045
 20
15.87168
 30
0.0
 11
108.852045
 21
16.103522
 31
0.0
  0
LINE
  5
11F
100
AcDbEntity
  8
LAY-1
  6
CONTINUOUS
 62
     3
100
AcDbLine
 10
108.852045
 20
16.103522
 30
0.0
 11
106.533624
 21
16.103522
 31
0.0
  0
LINE
  5
120
100
AcDbEntity
  8
LAY-1
  6
CONTINUOUS
 62
     3
100
AcDbLine
 10
106.533624
 20
16.103522
 30
0.0
 11
106.533624
 21
16.567206
 31
0.0
  0
LINE
  5
121
100
AcDbEntity
  8
LAY-1
  6
CONTINUOUS
 62
     3
100
AcDbLine
 10
106.533624
 20
16.567206
 30
0.0
 11
108.852045
 21
16.567206
 31
0.0
  0
LINE
  5
122
100
AcDbEntity
  8
LAY-1
  6
CONTINUOUS
 62
     3
100
AcDbLine
 10
108.852045
 20
16.567206
 30
0.0
 11
108.852045
 21
16.799048
 31
0.0
  0
LINE
  5
123
100
AcDbEntity
  8
LAY-1
  6
CONTINUOUS
 62
     3
100
AcDbLine
 10
108.852045
 20
16.799048
 30
0.0
 11
106.533624
 21
16.799048
 31
0.0
  0
LINE
  5
124
100
AcDbEntity
  8
LAY-1
  6
CONTINUOUS
 62
     3
100
AcDbLine
 10
106.533624
 20
16.799048
 30
0.0
 11
106.533624
 21
17.262732
 31
0.0
  0
LINE
  5
125
100
AcDbEntity
  8
LAY-1
  6
CONTINUOUS
 62
     3
100
AcDbLine
 10
106.533624
 20
17.262732
 30
0.0
 11
107.779276
 21
17.262732
 31
0.0
  0
LINE
  5
126
100
AcDbEntity
  8
LAY-1
  6
CONTINUOUS
 62
     3
100
AcDbLine
 10
107.779276
 20
17.262732
 30
0.0
 11
107.595941
 21
17.766714
 31
0.0
  0
LINE
  5
127
100
AcDbEntity
  8
LAY-1
  6
CONTINUOUS
 62
     3
100
AcDbLine
 10
107.595941
 20
17.766714
 30
0.0
 11
106.533624
 21
17.766714
 31
0.0
  0
LINE
  5
128
100
AcDbEntity
  8
LAY-1
  6
CONTINUOUS
 62
     3
100
AcDbLine
 10
108.668497
 20
17.766714
 30
0.0
 11
110.043542
 21
17.766714
 31
0.0
  0
LINE
  5
129
100
AcDbEntity
  8
LAY-1
  6
CONTINUOUS
 62
     3
100
AcDbLine
 10
110.043542
 20
17.766714
 30
0.0
 11
109.859995
 21
17.262732
 31
0.0
  0
LINE
  5
12A
100
AcDbEntity
  8
LAY-1
  6
CONTINUOUS
 62
     3
100
AcDbLine
 10
109.859995
 20
17.262732
 30
0.0
 11
108.852045
 21
17.262732
 31
0.0
  0
LINE
  5
12B
100
AcDbEntity
  8
LAY-1
  6
CONTINUOUS
 62
     3
100
AcDbLine
 10
108.852045
 20
17.262732
 30
0.0
 11
108.668497
 21
17.766714
 31
0.0
  0
LINE
  5
12C
100
AcDbEntity
  8
LAY-1
  6
CONTINUOUS
 62
     3
100
AcDbLine
 10
114.925638
 20
18.835196
 30
0.0
 11
114.598947
 21
17.524802
 31
0.0
  0
LINE
  5
12D
100
AcDbEntity
  8
LAY-1
  6
CONTINUOUS
 62
     3
100
AcDbLine
 10
114.925638
 20
18.835196
 30
0.0
 11
115.756815
 21
18.835196
 31
0.0
  0
LINE
  5
12E
100
AcDbEntity
  8
LAY-1
  6
CONTINUOUS
 62
     3
100
AcDbLine
 10
115.756815
 20
18.835196
 30
0.0
 11
115.631097
 21
18.331198
 31
0.0
  0
LINE
  5
12F
100
AcDbEntity
  8
LAY-1
  6
CONTINUOUS
 62
     3
100
AcDbLine
 10
115.631097
 20
18.331198
 30
0.0
 11
115.958414
 21
18.331198
 31
0.0
  0
LINE
  5
130
100
AcDbEntity
  8
LAY-1
  6
CONTINUOUS
 62
     3
100
AcDbLine
 10
115.958414
 20
18.331198
 30
0.0
 11
115.958414
 21
18.835196
 31
0.0
  0
LINE
  5
131
100
AcDbEntity
  8
LAY-1
  6
CONTINUOUS
 62
     3
100
AcDbLine
 10
115.958414
 20
18.835196
 30
0.0
 11
116.865671
 21
18.835196
 31
0.0
  0
LINE
  5
132
100
AcDbEntity
  8
LAY-1
  6
CONTINUOUS
 62
     3
100
AcDbLine
 10
116.865671
 20
18.835196
 30
0.0
 11
116.865671
 21
18.331198
 31
0.0
  0
LINE
  5
133
100
AcDbEntity
  8
LAY-1
  6
CONTINUOUS
 62
     3
100
AcDbLine
 10
116.865671
 20
18.331198
 30
0.0
 11
118.024774
 21
18.331198
 31
0.0
  0
LINE
  5
134
100
AcDbEntity
  8
LAY-1
  6
CONTINUOUS
 62
     3
100
AcDbLine
 10
118.024774
 20
18.331198
 30
0.0
 11
118.024774
 21
17.8272
 31
0.0
  0
LINE
  5
135
100
AcDbEntity
  8
LAY-1
  6
CONTINUOUS
 62
     3
100
AcDbLine
 10
116.865671
 20
17.8272
 30
0.0
 11
118.024774
 21
17.8272
 31
0.0
  0
LINE
  5
136
100
AcDbEntity
  8
LAY-1
  6
CONTINUOUS
 62
     3
100
AcDbLine
 10
116.865671
 20
17.8272
 30
0.0
 11
116.865671
 21
17.323203
 31
0.0
  0
LINE
  5
137
100
AcDbEntity
  8
LAY-1
  6
CONTINUOUS
 62
     3
100
AcDbLine
 10
116.865671
 20
17.323203
 30
0.0
 11
118.125665
 21
17.323203
 31
0.0
  0
LINE
  5
138
100
AcDbEntity
  8
LAY-1
  6
CONTINUOUS
 62
     3
100
AcDbLine
 10
118.125665
 20
17.323203
 30
0.0
 11
118.125665
 21
16.819205
 31
0.0
  0
LINE
  5
139
100
AcDbEntity
  8
LAY-1
  6
CONTINUOUS
 62
     3
100
AcDbLine
 10
118.125665
 20
16.819205
 30
0.0
 11
117.685159
 21
16.819205
 31
0.0
  0
LINE
  5
13A
100
AcDbEntity
  8
LAY-1
  6
CONTINUOUS
 62
     3
100
AcDbLine
 10
117.685159
 20
16.819205
 30
0.0
 11
118.125665
 21
14.4
 31
0.0
  0
LINE
  5
13B
100
AcDbEntity
  8
LAY-1
  6
CONTINUOUS
 62
     3
100
AcDbLine
 10
118.125665
 20
14.4
 30
0.0
 11
117.305978
 21
14.4
 31
0.0
  0
LINE
  5
13C
100
AcDbEntity
  8
LAY-1
  6
CONTINUOUS
 62
     3
100
AcDbLine
 10
117.305978
 20
14.4
 30
0.0
 11
116.865671
 21
16.819174
 31
0.0
  0
LINE
  5
13D
100
AcDbEntity
  8
LAY-1
  6
CONTINUOUS
 62
     3
100
AcDbLine
 10
116.865671
 20
16.819174
 30
0.0
 11
116.865671
 21
14.4
 31
0.0
  0
LINE
  5
13E
100
AcDbEntity
  8
LAY-1
  6
CONTINUOUS
 62
     3
100
AcDbLine
 10
116.865671
 20
14.4
 30
0.0
 11
115.958414
 21
14.4
 31
0.0
  0
LINE
  5
13F
100
AcDbEntity
  8
LAY-1
  6
CONTINUOUS
 62
     3
100
AcDbLine
 10
115.958414
 20
14.4
 30
0.0
 11
115.958414
 21
16.819205
 31
0.0
  0
LINE
  5
140
100
AcDbEntity
  8
LAY-1
  6
CONTINUOUS
 62
     3
100
AcDbLine
 10
115.958414
 20
16.819205
 30
0.0
 11
115.518106
 21
14.4
 31
0.0
  0
LINE
  5
141
100
AcDbEntity
  8
LAY-1
  6
CONTINUOUS
 62
     3
100
AcDbLine
 10
115.518106
 20
14.4
 30
0.0
 11
114.698404
 21
14.4
 31
0.0
  0
LINE
  5
142
100
AcDbEntity
  8
LAY-1
  6
CONTINUOUS
 62
     3
100
AcDbLine
 10
114.698404
 20
14.4
 30
0.0
 11
115.138712
 21
16.819205
 31
0.0
  0
LINE
  5
143
100
AcDbEntity
  8
LAY-1
  6
CONTINUOUS
 62
     3
100
AcDbLine
 10
115.138712
 20
16.819205
 30
0.0
 11
114.698404
 21
16.819205
 31
0.0
  0
LINE
  5
144
100
AcDbEntity
  8
LAY-1
  6
CONTINUOUS
 62
     3
100
AcDbLine
 10
114.698404
 20
16.819205
 30
0.0
 11
114.698404
 21
17.323203
 31
0.0
  0
LINE
  5
145
100
AcDbEntity
  8
LAY-1
  6
CONTINUOUS
 62
     3
100
AcDbLine
 10
114.698404
 20
17.323203
 30
0.0
 11
115.958414
 21
17.323203
 31
0.0
  0
LINE
  5
146
100
AcDbEntity
  8
LAY-1
  6
CONTINUOUS
 62
     3
100
AcDbLine
 10
115.958414
 20
17.323203
 30
0.0
 11
115.958414
 21
17.8272
 31
0.0
  0
LINE
  5
147
100
AcDbEntity
  8
LAY-1
  6
CONTINUOUS
 62
     3
100
AcDbLine
 10
115.958414
 20
17.8272
 30
0.0
 11
115.505396
 21
17.8272
 31
0.0
  0
LINE
  5
148
100
AcDbEntity
  8
LAY-1
  6
CONTINUOUS
 62
     3
100
AcDbLine
 10
115.505396
 20
17.8272
 30
0.0
 11
115.430124
 21
17.524802
 31
0.0
  0
LINE
  5
149
100
AcDbEntity
  8
LAY-1
  6
CONTINUOUS
 62
     3
100
AcDbLine
 10
115.430124
 20
17.524802
 30
0.0
 11
114.598947
 21
17.524802
 31
0.0
  0
LINE
  5
14A
100
AcDbEntity
  8
LAY-1
  6
CONTINUOUS
 62
     3
100
AcDbLine
 10
112.379999
 20
18.331198
 30
0.0
 11
112.379999
 21
17.8272
 31
0.0
  0
LINE
  5
14B
100
AcDbEntity
  8
LAY-1
  6
CONTINUOUS
 62
     3
100
AcDbLine
 10
112.379999
 20
18.331198
 30
0.0
 11
113.387964
 21
18.331198
 31
0.0
  0
LINE
  5
14C
100
AcDbEntity
  8
LAY-1
  6
CONTINUOUS
 62
     3
100
AcDbLine
 10
113.387964
 20
18.331198
 30
0.0
 11
113.387964
 21
18.835196
 31
0.0
  0
LINE
  5
14D
100
AcDbEntity
  8
LAY-1
  6
CONTINUOUS
 62
     3
100
AcDbLine
 10
113.387964
 20
18.835196
 30
0.0
 11
114.295221
 21
18.835196
 31
0.0
  0
LINE
  5
14E
100
AcDbEntity
  8
LAY-1
  6
CONTINUOUS
 62
     3
100
AcDbLine
 10
114.295221
 20
18.835196
 30
0.0
 11
114.295221
 21
18.331198
 31
0.0
  0
LINE
  5
14F
100
AcDbEntity
  8
LAY-1
  6
CONTINUOUS
 62
     3
100
AcDbLine
 10
114.295221
 20
18.331198
 30
0.0
 11
114.597513
 21
18.331198
 31
0.0
  0
LINE
  5
150
100
AcDbEntity
  8
LAY-1
  6
CONTINUOUS
 62
     3
100
AcDbLine
 10
114.597513
 20
18.331198
 30
0.0
 11
114.597513
 21
17.8272
 31
0.0
  0
LINE
  5
151
100
AcDbEntity
  8
LAY-1
  6
CONTINUOUS
 62
     3
100
AcDbLine
 10
114.597513
 20
17.8272
 30
0.0
 11
114.295221
 21
17.8272
 31
0.0
  0
LINE
  5
152
100
AcDbEntity
  8
LAY-1
  6
CONTINUOUS
 62
     3
100
AcDbLine
 10
114.295221
 20
17.8272
 30
0.0
 11
114.597513
 21
17.411002
 31
0.0
  0
LINE
  5
153
100
AcDbEntity
  8
LAY-1
  6
CONTINUOUS
 62
     3
100
AcDbLine
 10
114.597513
 20
17.411002
 30
0.0
 11
114.597513
 21
16.382071
 31
0.0
  0
LINE
  5
154
100
AcDbEntity
  8
LAY-1
  6
CONTINUOUS
 62
     3
100
AcDbLine
 10
114.597513
 20
16.382071
 30
0.0
 11
114.295221
 21
16.798285
 31
0.0
  0
LINE
  5
155
100
AcDbEntity
  8
LAY-1
  6
CONTINUOUS
 62
     3
100
AcDbLine
 10
114.295221
 20
16.798285
 30
0.0
 11
114.295221
 21
14.4
 31
0.0
  0
LINE
  5
156
100
AcDbEntity
  8
LAY-1
  6
CONTINUOUS
 62
     3
100
AcDbLine
 10
114.295221
 20
14.4
 30
0.0
 11
113.387964
 21
14.4
 31
0.0
  0
LINE
  5
157
100
AcDbEntity
  8
LAY-1
  6
CONTINUOUS
 62
     3
100
AcDbLine
 10
113.387964
 20
14.4
 30
0.0
 11
113.387964
 21
17.8272
 31
0.0
  0
LINE
  5
158
100
AcDbEntity
  8
LAY-1
  6
CONTINUOUS
 62
     3
100
AcDbLine
 10
113.348383
 20
17.8272
 30
0.0
 11
112.988062
 21
14.4
 31
0.0
  0
LINE
  5
159
100
AcDbEntity
  8
LAY-1
  6
CONTINUOUS
 62
     3
100
AcDbLine
 10
112.988062
 20
14.4
 30
0.0
 11
112.379999
 21
14.4
 31
0.0
  0
LINE
  5
15A
100
AcDbEntity
  8
LAY-1
  6
CONTINUOUS
 62
     3
100
AcDbLine
 10
112.379999
 20
14.4
 30
0.0
 11
112.74032
 21
17.8272
 31
0.0
  0
LINE
  5
15B
100
AcDbEntity
  8
LAY-1
  6
CONTINUOUS
 62
     3
100
AcDbLine
 10
112.74032
 20
17.8272
 30
0.0
 11
112.379999
 21
17.8272
 31
0.0
  0
LINE
  5
15C
100
AcDbEntity
  8
LAY-1
  6
CONTINUOUS
 62
     3
100
AcDbLine
 10
118.629556
 20
17.222403
 30
0.0
 11
118.629556
 21
16.617606
 31
0.0
  0
LINE
  5
15D
100
AcDbEntity
  8
LAY-1
  6
CONTINUOUS
 62
     3
100
AcDbLine
 10
118.629556
 20
17.222403
 30
0.0
 11
121.653635
 21
17.222403
 31
0.0
  0
LINE
  5
15E
100
AcDbEntity
  8
LAY-1
  6
CONTINUOUS
 62
     3
100
AcDbLine
 10
121.653635
 20
17.222403
 30
0.0
 11
121.653635
 21
16.617606
 31
0.0
  0
LINE
  5
15F
100
AcDbEntity
  8
LAY-1
  6
CONTINUOUS
 62
     3
100
AcDbLine
 10
121.653635
 20
16.617606
 30
0.0
 11
120.695917
 21
16.617606
 31
0.0
  0
LINE
  5
160
100
AcDbEntity
  8
LAY-1
  6
CONTINUOUS
 62
     3
100
AcDbLine
 10
120.695917
 20
16.617606
 30
0.0
 11
120.695917
 21
15.777411
 31
0.0
  0
LINE
  5
161
100
AcDbEntity
  8
LAY-1
  6
CONTINUOUS
 62
     3
100
AcDbLine
 10
120.695917
 20
15.777411
 30
0.0
 11
121.70408
 21
15.99166
 31
0.0
  0
LINE
  5
162
100
AcDbEntity
  8
LAY-1
  6
CONTINUOUS
 62
     3
100
AcDbLine
 10
121.70408
 20
15.99166
 30
0.0
 11
121.70408
 21
15.0642
 31
0.0
  0
LINE
  5
163
100
AcDbEntity
  8
LAY-1
  6
CONTINUOUS
 62
     3
100
AcDbLine
 10
121.70408
 20
15.0642
 30
0.0
 11
118.579095
 21
14.4
 31
0.0
  0
LINE
  5
164
100
AcDbEntity
  8
LAY-1
  6
CONTINUOUS
 62
     3
100
AcDbLine
 10
118.579095
 20
14.4
 30
0.0
 11
118.579095
 21
15.32746
 31
0.0
  0
LINE
  5
165
100
AcDbEntity
  8
LAY-1
  6
CONTINUOUS
 62
     3
100
AcDbLine
 10
118.579095
 20
15.32746
 30
0.0
 11
119.587259
 21
15.541724
 31
0.0
  0
LINE
  5
166
100
AcDbEntity
  8
LAY-1
  6
CONTINUOUS
 62
     3
100
AcDbLine
 10
119.587259
 20
15.541724
 30
0.0
 11
119.587259
 21
16.617606
 31
0.0
  0
LINE
  5
167
100
AcDbEntity
  8
LAY-1
  6
CONTINUOUS
 62
     3
100
AcDbLine
 10
119.587259
 20
16.617606
 30
0.0
 11
118.629556
 21
16.617606
 31
0.0
  0
LINE
  5
168
100
AcDbEntity
  8
LAY-1
  6
CONTINUOUS
 62
     3
100
AcDbLine
 10
118.327264
 20
18.431998
 30
0.0
 11
118.327264
 21
17.8272
 31
0.0
  0
LINE
  5
169
100
AcDbEntity
  8
LAY-1
  6
CONTINUOUS
 62
     3
100
AcDbLine
 10
118.327264
 20
18.431998
 30
0.0
 11
121.324487
 21
18.431998
 31
0.0
  0
LINE
  5
16A
100
AcDbEntity
  8
LAY-1
  6
CONTINUOUS
 62
     3
100
AcDbLine
 10
121.324487
 20
18.431998
 30
0.0
 11
121.17785
 21
18.835196
 31
0.0
  0
LINE
  5
16B
100
AcDbEntity
  8
LAY-1
  6
CONTINUOUS
 62
     3
100
AcDbLine
 10
121.17785
 20
18.835196
 30
0.0
 11
122.35766
 21
18.835196
 31
0.0
  0
LINE
  5
16C
100
AcDbEntity
  8
LAY-1
  6
CONTINUOUS
 62
     3
100
AcDbLine
 10
122.35766
 20
18.835196
 30
0.0
 11
122.504495
 21
18.431998
 31
0.0
  0
LINE
  5
16D
100
AcDbEntity
  8
LAY-1
  6
CONTINUOUS
 62
     3
100
AcDbLine
 10
122.504495
 20
18.431998
 30
0.0
 11
122.762491
 21
18.431998
 31
0.0
  0
LINE
  5
16E
100
AcDbEntity
  8
LAY-1
  6
CONTINUOUS
 62
     3
100
AcDbLine
 10
122.762491
 20
18.431998
 30
0.0
 11
122.762491
 21
18.835196
 31
0.0
  0
LINE
  5
16F
100
AcDbEntity
  8
LAY-1
  6
CONTINUOUS
 62
     3
100
AcDbLine
 10
122.762491
 20
18.835196
 30
0.0
 11
123.66955
 21
18.835196
 31
0.0
  0
LINE
  5
170
100
AcDbEntity
  8
LAY-1
  6
CONTINUOUS
 62
     3
100
AcDbLine
 10
123.66955
 20
18.835196
 30
0.0
 11
123.66955
 21
18.431998
 31
0.0
  0
LINE
  5
171
100
AcDbEntity
  8
LAY-1
  6
CONTINUOUS
 62
     3
100
AcDbLine
 10
123.66955
 20
18.431998
 30
0.0
 11
123.97204
 21
18.431998
 31
0.0
  0
LINE
  5
172
100
AcDbEntity
  8
LAY-1
  6
CONTINUOUS
 62
     3
100
AcDbLine
 10
123.97204
 20
18.431998
 30
0.0
 11
123.97204
 21
17.8272
 31
0.0
  0
LINE
  5
173
100
AcDbEntity
  8
LAY-1
  6
CONTINUOUS
 62
     3
100
AcDbLine
 10
123.97204
 20
17.8272
 30
0.0
 11
122.724542
 21
17.8272
 31
0.0
  0
LINE
  5
174
100
AcDbEntity
  8
LAY-1
  6
CONTINUOUS
 62
     3
100
AcDbLine
 10
122.724542
 20
17.8272
 30
0.0
 11
123.97204
 21
14.4
 31
0.0
  0
LINE
  5
175
100
AcDbEntity
  8
LAY-1
  6
CONTINUOUS
 62
     3
100
AcDbLine
 10
123.97204
 20
14.4
 30
0.0
 11
122.792017
 21
14.4
 31
0.0
  0
LINE
  5
176
100
AcDbEntity
  8
LAY-1
  6
CONTINUOUS
 62
     3
100
AcDbLine
 10
122.792017
 20
14.4
 30
0.0
 11
121.544733
 21
17.8272
 31
0.0
  0
LINE
  5
177
100
AcDbEntity
  8
LAY-1
  6
CONTINUOUS
 62
     3
100
AcDbLine
 10
121.544733
 20
17.8272
 30
0.0
 11
118.327264
 21
17.8272
 31
0.0
  0
LINE
  5
178
100
AcDbEntity
  8
LAY-1
  6
CONTINUOUS
 62
     3
100
AcDbLine
 10
124.173639
 20
17.974783
 30
0.0
 11
124.173639
 21
17.336996
 31
0.0
  0
LINE
  5
179
100
AcDbEntity
  8
LAY-1
  6
CONTINUOUS
 62
     3
100
AcDbLine
 10
124.173639
 20
17.974783
 30
0.0
 11
127.046365
 21
18.935995
 31
0.0
  0
LINE
  5
17A
100
AcDbEntity
  8
LAY-1
  6
CONTINUOUS
 62
     3
100
AcDbLine
 10
127.046365
 20
18.935995
 30
0.0
 11
129.919107
 21
17.974753
 31
0.0
  0
LINE
  5
17B
100
AcDbEntity
  8
LAY-1
  6
CONTINUOUS
 62
     3
100
AcDbLine
 10
129.919107
 20
17.974753
 30
0.0
 11
129.919107
 21
17.336996
 31
0.0
  0
LINE
  5
17C
100
AcDbEntity
  8
LAY-1
  6
CONTINUOUS
 62
     3
100
AcDbLine
 10
129.919107
 20
17.336996
 30
0.0
 11
129.062494
 21
17.623679
 31
0.0
  0
LINE
  5
17D
100
AcDbEntity
  8
LAY-1
  6
CONTINUOUS
 62
     3
100
AcDbLine
 10
129.062494
 20
17.623679
 30
0.0
 11
129.062494
 21
17.121603
 31
0.0
  0
LINE
  5
17E
100
AcDbEntity
  8
LAY-1
  6
CONTINUOUS
 62
     3
100
AcDbLine
 10
129.062494
 20
17.121603
 30
0.0
 11
125.03045
 21
17.121603
 31
0.0
  0
LINE
  5
17F
100
AcDbEntity
  8
LAY-1
  6
CONTINUOUS
 62
     3
100
AcDbLine
 10
125.03045
 20
17.121603
 30
0.0
 11
125.03045
 21
17.623679
 31
0.0
  0
LINE
  5
180
100
AcDbEntity
  8
LAY-1
  6
CONTINUOUS
 62
     3
100
AcDbLine
 10
125.03045
 20
17.623679
 30
0.0
 11
124.173639
 21
17.336996
 31
0.0
  0
LINE
  5
181
100
AcDbEntity
  8
LAY-1
  6
CONTINUOUS
 62
     3
100
AcDbLine
 10
125.337457
 20
17.726401
 30
0.0
 11
127.046365
 21
18.298224
 31
0.0
  0
LINE
  5
182
100
AcDbEntity
  8
LAY-1
  6
CONTINUOUS
 62
     3
100
AcDbLine
 10
127.046365
 20
18.298224
 30
0.0
 11
128.755487
 21
17.726401
 31
0.0
  0
LINE
  5
183
100
AcDbEntity
  8
LAY-1
  6
CONTINUOUS
 62
     3
100
AcDbLine
 10
128.755487
 20
17.726401
 30
0.0
 11
125.337457
 21
17.726401
 31
0.0
  0
LINE
  5
184
100
AcDbEntity
  8
LAY-1
  6
CONTINUOUS
 62
     3
100
AcDbLine
 10
124.173639
 20
16.71839
 30
0.0
 11
124.173639
 21
16.113593
 31
0.0
  0
LINE
  5
185
100
AcDbEntity
  8
LAY-1
  6
CONTINUOUS
 62
     3
100
AcDbLine
 10
124.173639
 20
16.71839
 30
0.0
 11
129.919107
 21
16.71839
 31
0.0
  0
LINE
  5
186
100
AcDbEntity
  8
LAY-1
  6
CONTINUOUS
 62
     3
100
AcDbLine
 10
129.919107
 20
16.71839
 30
0.0
 11
129.919107
 21
16.113593
 31
0.0
  0
LINE
  5
187
100
AcDbEntity
  8
LAY-1
  6
CONTINUOUS
 62
     3
100
AcDbLine
 10
129.919107
 20
16.113593
 30
0.0
 11
129.120111
 21
16.113593
 31
0.0
  0
LINE
  5
188
100
AcDbEntity
  8
LAY-1
  6
CONTINUOUS
 62
     3
100
AcDbLine
 10
129.120111
 20
16.113593
 30
0.0
 11
129.919107
 21
14.4
 31
0.0
  0
LINE
  5
189
100
AcDbEntity
  8
LAY-1
  6
CONTINUOUS
 62
     3
100
AcDbLine
 10
129.919107
 20
14.4
 30
0.0
 11
124.173639
 21
14.4
 31
0.0
  0
LINE
  5
18A
100
AcDbEntity
  8
LAY-1
  6
CONTINUOUS
 62
     3
100
AcDbLine
 10
124.173639
 20
14.4
 30
0.0
 11
124.97262
 21
16.113593
 31
0.0
  0
LINE
  5
18B
100
AcDbEntity
  8
LAY-1
  6
CONTINUOUS
 62
     3
100
AcDbLine
 10
124.97262
 20
16.113593
 30
0.0
 11
124.173639
 21
16.113593
 31
0.0
  0
LINE
  5
18C
100
AcDbEntity
  8
LAY-1
  6
CONTINUOUS
 62
     3
100
AcDbLine
 10
126.084756
 20
16.113593
 30
0.0
 11
128.007974
 21
16.113593
 31
0.0
  0
LINE
  5
18D
100
AcDbEntity
  8
LAY-1
  6
CONTINUOUS
 62
     3
100
AcDbLine
 10
128.007974
 20
16.113593
 30
0.0
 11
128.524973
 21
15.004797
 31
0.0
  0
LINE
  5
18E
100
AcDbEntity
  8
LAY-1
  6
CONTINUOUS
 62
     3
100
AcDbLine
 10
128.524973
 20
15.004797
 30
0.0
 11
125.567758
 21
15.004797
 31
0.0
  0
LINE
  5
18F
100
AcDbEntity
  8
LAY-1
  6
CONTINUOUS
 62
     3
100
AcDbLine
 10
126.084756
 20
16.113593
 30
0.0
 11
125.567758
 21
15.004797
 31
0.0
  0
LINE
  5
190
100
AcDbEntity
  8
LAY-1
  6
CONTINUOUS
 62
     3
100
AcDbLine
 10
132.842493
 20
17.726401
 30
0.0
 11
132.842493
 21
17.121603
 31
0.0
  0
LINE
  5
191
100
AcDbEntity
  8
LAY-1
  6
CONTINUOUS
 62
     3
100
AcDbLine
 10
132.842493
 20
17.726401
 30
0.0
 11
133.749551
 21
17.726401
 31
0.0
  0
LINE
  5
192
100
AcDbEntity
  8
LAY-1
  6
CONTINUOUS
 62
     3
100
AcDbLine
 10
133.749551
 20
17.726401
 30
0.0
 11
133.749551
 21
18.835196
 31
0.0
  0
LINE
  5
193
100
AcDbEntity
  8
LAY-1
  6
CONTINUOUS
 62
     3
100
AcDbLine
 10
133.749551
 20
18.835196
 30
0.0
 11
134.757501
 21
18.835196
 31
0.0
  0
LINE
  5
194
100
AcDbEntity
  8
LAY-1
  6
CONTINUOUS
 62
     3
100
AcDbLine
 10
134.757501
 20
18.835196
 30
0.0
 11
134.757501
 21
17.726401
 31
0.0
  0
LINE
  5
195
100
AcDbEntity
  8
LAY-1
  6
CONTINUOUS
 62
     3
100
AcDbLine
 10
134.757501
 20
17.726401
 30
0.0
 11
135.664774
 21
17.726401
 31
0.0
  0
LINE
  5
196
100
AcDbEntity
  8
LAY-1
  6
CONTINUOUS
 62
     3
100
AcDbLine
 10
135.664774
 20
17.726401
 30
0.0
 11
135.664774
 21
17.121603
 31
0.0
  0
LINE
  5
197
100
AcDbEntity
  8
LAY-1
  6
CONTINUOUS
 62
     3
100
AcDbLine
 10
135.664774
 20
17.121603
 30
0.0
 11
134.757501
 21
17.121603
 31
0.0
  0
LINE
  5
198
100
AcDbEntity
  8
LAY-1
  6
CONTINUOUS
 62
     3
100
AcDbLine
 10
134.757501
 20
17.121603
 30
0.0
 11
134.757501
 21
15.004797
 31
0.0
  0
LINE
  5
199
100
AcDbEntity
  8
LAY-1
  6
CONTINUOUS
 62
     3
100
AcDbLine
 10
134.757501
 20
15.004797
 30
0.0
 11
135.765665
 21
15.004797
 31
0.0
  0
LINE
  5
19A
100
AcDbEntity
  8
LAY-1
  6
CONTINUOUS
 62
     3
100
AcDbLine
 10
135.765665
 20
15.004797
 30
0.0
 11
135.765665
 21
14.4
 31
0.0
  0
LINE
  5
19B
100
AcDbEntity
  8
LAY-1
  6
CONTINUOUS
 62
     3
100
AcDbLine
 10
135.765665
 20
14.4
 30
0.0
 11
132.439096
 21
14.4
 31
0.0
  0
LINE
  5
19C
100
AcDbEntity
  8
LAY-1
  6
CONTINUOUS
 62
     3
100
AcDbLine
 10
132.439096
 20
14.4
 30
0.0
 11
132.439096
 21
15.004797
 31
0.0
  0
LINE
  5
19D
100
AcDbEntity
  8
LAY-1
  6
CONTINUOUS
 62
     3
100
AcDbLine
 10
132.439096
 20
15.004797
 30
0.0
 11
133.749551
 21
15.004797
 31
0.0
  0
LINE
  5
19E
100
AcDbEntity
  8
LAY-1
  6
CONTINUOUS
 62
     3
100
AcDbLine
 10
133.749551
 20
15.004797
 30
0.0
 11
133.749551
 21
17.121603
 31
0.0
  0
LINE
  5
19F
100
AcDbEntity
  8
LAY-1
  6
CONTINUOUS
 62
     3
100
AcDbLine
 10
133.749551
 20
17.121603
 30
0.0
 11
132.842493
 21
17.121603
 31
0.0
  0
LINE
  5
1A0
100
AcDbEntity
  8
LAY-1
  6
CONTINUOUS
 62
     3
100
AcDbLine
 10
130.120691
 20
18.431998
 30
0.0
 11
130.120691
 21
17.8272
 31
0.0
  0
LINE
  5
1A1
100
AcDbEntity
  8
LAY-1
  6
CONTINUOUS
 62
     3
100
AcDbLine
 10
130.120691
 20
18.431998
 30
0.0
 11
131.027963
 21
18.431998
 31
0.0
  0
LINE
  5
1A2
100
AcDbEntity
  8
LAY-1
  6
CONTINUOUS
 62
     3
100
AcDbLine
 10
131.027963
 20
18.431998
 30
0.0
 11
131.027963
 21
18.835196
 31
0.0
  0
LINE
  5
1A3
100
AcDbEntity
  8
LAY-1
  6
CONTINUOUS
 62
     3
100
AcDbLine
 10
131.027963
 20
18.835196
 30
0.0
 11
132.035913
 21
18.835196
 31
0.0
  0
LINE
  5
1A4
100
AcDbEntity
  8
LAY-1
  6
CONTINUOUS
 62
     3
100
AcDbLine
 10
132.035913
 20
18.835196
 30
0.0
 11
132.035913
 21
18.431998
 31
0.0
  0
LINE
  5
1A5
100
AcDbEntity
  8
LAY-1
  6
CONTINUOUS
 62
     3
100
AcDbLine
 10
132.035913
 20
18.431998
 30
0.0
 11
132.943185
 21
18.431998
 31
0.0
  0
LINE
  5
1A6
100
AcDbEntity
  8
LAY-1
  6
CONTINUOUS
 62
     3
100
AcDbLine
 10
132.943185
 20
18.431998
 30
0.0
 11
131.902612
 21
16.945578
 31
0.0
  0
LINE
  5
1A7
100
AcDbEntity
  8
LAY-1
  6
CONTINUOUS
 62
     3
100
AcDbLine
 10
131.902612
 20
16.945578
 30
0.0
 11
132.842493
 21
16.287588
 31
0.0
  0
LINE
  5
1A8
100
AcDbEntity
  8
LAY-1
  6
CONTINUOUS
 62
     3
100
AcDbLine
 10
132.842493
 20
16.287588
 30
0.0
 11
132.842493
 21
15.180121
 31
0.0
  0
LINE
  5
1A9
100
AcDbEntity
  8
LAY-1
  6
CONTINUOUS
 62
     3
100
AcDbLine
 10
132.842493
 20
15.180121
 30
0.0
 11
132.035913
 21
15.744772
 31
0.0
  0
LINE
  5
1AA
100
AcDbEntity
  8
LAY-1
  6
CONTINUOUS
 62
     3
100
AcDbLine
 10
132.035913
 20
15.744772
 30
0.0
 11
132.035913
 21
14.4
 31
0.0
  0
LINE
  5
1AB
100
AcDbEntity
  8
LAY-1
  6
CONTINUOUS
 62
     3
100
AcDbLine
 10
132.035913
 20
14.4
 30
0.0
 11
131.027963
 21
14.4
 31
0.0
  0
LINE
  5
1AC
100
AcDbEntity
  8
LAY-1
  6
CONTINUOUS
 62
     3
100
AcDbLine
 10
131.027963
 20
14.4
 30
0.0
 11
131.027963
 21
15.69599
 31
0.0
  0
LINE
  5
1AD
100
AcDbEntity
  8
LAY-1
  6
CONTINUOUS
 62
     3
100
AcDbLine
 10
131.027963
 20
15.69599
 30
0.0
 11
130.120691
 21
14.4
 31
0.0
  0
LINE
  5
1AE
100
AcDbEntity
  8
LAY-1
  6
CONTINUOUS
 62
     3
100
AcDbLine
 10
130.120691
 20
14.4
 30
0.0
 11
130.120691
 21
15.98194
 31
0.0
  0
LINE
  5
1AF
100
AcDbEntity
  8
LAY-1
  6
CONTINUOUS
 62
     3
100
AcDbLine
 10
130.120691
 20
15.98194
 30
0.0
 11
131.412485
 21
17.8272
 31
0.0
  0
LINE
  5
1B0
100
AcDbEntity
  8
LAY-1
  6
CONTINUOUS
 62
     3
100
AcDbLine
 10
131.412485
 20
17.8272
 30
0.0
 11
130.120691
 21
17.8272
 31
0.0
  0
ARC
  5
1B1
100
AcDbEntity
  8
LAY-1
  6
CONTINUOUS
 62
     2
100
AcDbCircle
 10
85.916101
 20
17.020041
 30
0.0
 40
0.630012
100
AcDbArc
 50
310.768311
 51
335.998779
  0
LINE
  5
1B2
100
AcDbEntity
  8
LAY-1
  6
CONTINUOUS
 62
     2
100
AcDbLine
 10
86.640024
 20
17.096411
 30
0.0
 11
86.491968
 21
16.763907
 31
0.0
  0
LINE
  5
1B3
100
AcDbEntity
  8
LAY-1
  6
CONTINUOUS
 62
     2
100
AcDbLine
 10
84.898508
 20
17.474402
 30
0.0
 11
87.221841
 21
17.474402
 31
0.0
  0
ARC
  5
1B4
100
AcDbEntity
  8
LAY-1
  6
CONTINUOUS
 62
     2
100
AcDbCircle
 10
95.229929
 20
16.214407
 30
0.0
 40
1.562401
100
AcDbArc
 50
270.000031
 51
324.00116
  0
ARC
  5
1B5
100
AcDbEntity
  8
LAY-1
  6
CONTINUOUS
 62
     2
100
AcDbCircle
 10
95.229929
 20
16.214407
 30
0.0
 40
1.310401
100
AcDbArc
 50
270.000031
 51
324.00116
  0
ARC
  5
1B6
100
AcDbEntity
  8
LAY-1
  6
CONTINUOUS
 62
     2
100
AcDbCircle
 10
79.956567
 20
16.214407
 30
0.0
 40
1.562398
100
AcDbArc
 50
270.000031
 51
333.99855
  0
ARC
  5
1B7
100
AcDbEntity
  8
LAY-1
  6
CONTINUOUS
 62
     2
100
AcDbCircle
 10
79.87655
 20
16.214407
 30
0.0
 40
1.058399
100
AcDbArc
 50
270.000031
 51
333.99855
  0
ARC
  5
1B8
100
AcDbEntity
  8
LAY-1
  6
CONTINUOUS
 62
     2
100
AcDbCircle
 10
79.916559
 20
16.214407
 30
0.0
 40
1.310399
100
AcDbArc
 50
270.000031
 51
333.99855
  0
LINE
  5
1B9
100
AcDbEntity
  8
LAY-1
  6
CONTINUOUS
 62
     2
100
AcDbLine
 10
77.284082
 20
18.603213
 30
0.0
 11
79.738397
 21
18.603213
 31
0.0
  0
LINE
  5
1BA
100
AcDbEntity
  8
LAY-1
  6
CONTINUOUS
 62
     2
100
AcDbLine
 10
77.284082
 20
18.371214
 30
0.0
 11
79.738397
 21
18.371214
 31
0.0
  0
LINE
  5
1BB
100
AcDbEntity
  8
LAY-1
  6
CONTINUOUS
 62
     2
100
AcDbLine
 10
77.284082
 20
18.139231
 30
0.0
 11
79.738397
 21
18.139231
 31
0.0
  0
LINE
  5
1BC
100
AcDbEntity
  8
LAY-1
  6
CONTINUOUS
 62
     2
100
AcDbLine
 10
77.284082
 20
17.413603
 30
0.0
 11
79.738397
 21
17.413603
 31
0.0
  0
LINE
  5
1BD
100
AcDbEntity
  8
LAY-1
  6
CONTINUOUS
 62
     2
100
AcDbLine
 10
77.284082
 20
17.161589
 30
0.0
 11
79.738397
 21
17.161589
 31
0.0
  0
LINE
  5
1BE
100
AcDbEntity
  8
LAY-1
  6
CONTINUOUS
 62
     2
100
AcDbLine
 10
77.284082
 20
16.929606
 30
0.0
 11
79.738397
 21
16.929606
 31
0.0
  0
LINE
  5
1BF
100
AcDbEntity
  8
LAY-1
  6
CONTINUOUS
 62
     2
100
AcDbLine
 10
77.284082
 20
15.155997
 30
0.0
 11
79.87655
 21
15.155997
 31
0.0
  0
LINE
  5
1C0
100
AcDbEntity
  8
LAY-1
  6
CONTINUOUS
 62
     2
100
AcDbLine
 10
77.284082
 20
14.903998
 30
0.0
 11
79.87655
 21
14.903998
 31
0.0
  0
LINE
  5
1C1
100
AcDbEntity
  8
LAY-1
  6
CONTINUOUS
 62
     2
100
AcDbLine
 10
77.284082
 20
14.651999
 30
0.0
 11
79.87655
 21
14.651999
 31
0.0
  0
LINE
  5
1C2
100
AcDbEntity
  8
LAY-1
  6
CONTINUOUS
 62
     2
100
AcDbLine
 10
80.827707
 20
15.750403
 30
0.0
 11
81.710825
 21
17.561036
 31
0.0
  0
LINE
  5
1C3
100
AcDbEntity
  8
LAY-1
  6
CONTINUOUS
 62
     2
100
AcDbLine
 10
81.094125
 20
15.63996
 30
0.0
 11
82.031168
 21
17.561037
 31
0.0
  0
LINE
  5
1C4
100
AcDbEntity
  8
LAY-1
  6
CONTINUOUS
 62
     2
100
AcDbLine
 10
81.360529
 20
15.529425
 30
0.0
 11
82.351312
 21
17.561035
 31
0.0
  0
LINE
  5
1C5
100
AcDbEntity
  8
LAY-1
  6
CONTINUOUS
 62
     2
100
AcDbLine
 10
81.013635
 20
18.569598
 30
0.0
 11
81.451837
 21
18.569598
 31
0.0
  0
LINE
  5
1C6
100
AcDbEntity
  8
LAY-1
  6
CONTINUOUS
 62
     2
100
AcDbLine
 10
81.013635
 20
18.283999
 30
0.0
 11
81.451837
 21
18.283999
 31
0.0
  0
LINE
  5
1C7
100
AcDbEntity
  8
LAY-1
  6
CONTINUOUS
 62
     2
100
AcDbLine
 10
82.122491
 20
18.569598
 30
0.0
 11
82.560693
 21
18.569598
 31
0.0
  0
LINE
  5
1C8
100
AcDbEntity
  8
LAY-1
  6
CONTINUOUS
 62
     2
100
AcDbLine
 10
82.122491
 20
18.283999
 30
0.0
 11
82.560693
 21
18.283999
 31
0.0
  0
LINE
  5
1C9
100
AcDbEntity
  8
LAY-1
  6
CONTINUOUS
 62
     2
100
AcDbLine
 10
83.231348
 20
17.222418
 30
0.0
 11
84.428064
 21
17.222418
 31
0.0
  0
LINE
  5
1CA
100
AcDbEntity
  8
LAY-1
  6
CONTINUOUS
 62
     2
100
AcDbLine
 10
84.137537
 20
18.250268
 30
0.0
 11
84.260507
 21
17.474402
 31
0.0
  0
LINE
  5
1CB
100
AcDbEntity
  8
LAY-1
  6
CONTINUOUS
 62
     2
100
AcDbLine
 10
84.718805
 20
14.58173
 30
0.0
 11
84.344904
 21
16.941904
 31
0.0
  0
ARC
  5
1CC
100
AcDbEntity
  8
LAY-1
  6
CONTINUOUS
 62
     2
100
AcDbCircle
 10
85.896097
 20
17.020041
 30
0.0
 40
0.882012
100
AcDbArc
 50
272.671387
 51
335.998779
  0
ARC
  5
1CD
100
AcDbEntity
  8
LAY-1
  6
CONTINUOUS
 62
     2
100
AcDbCircle
 10
85.876093
 20
17.020041
 30
0.0
 40
1.134011
100
AcDbArc
 50
267.367432
 51
335.998779
  0
LINE
  5
1CE
100
AcDbEntity
  8
LAY-1
  6
CONTINUOUS
 62
     2
100
AcDbLine
 10
87.335168
 20
17.509053
 30
0.0
 11
86.912149
 21
16.558859
 31
0.0
  0
LINE
  5
1CF
100
AcDbEntity
  8
LAY-1
  6
CONTINUOUS
 62
     2
100
AcDbLine
 10
85.309061
 20
14.58173
 30
0.0
 11
84.922037
 21
17.024882
 31
0.0
  0
LINE
  5
1D0
100
AcDbEntity
  8
LAY-1
  6
CONTINUOUS
 62
     2
100
AcDbLine
 10
85.033929
 20
14.58173
 30
0.0
 11
84.452844
 21
18.250267
 31
0.0
  0
LINE
  5
1D1
100
AcDbEntity
  8
LAY-1
  6
CONTINUOUS
 62
     2
100
AcDbLine
 10
84.727975
 20
18.250267
 30
0.0
 11
84.839563
 21
17.545946
 31
0.0
  0
LINE
  5
1D2
100
AcDbEntity
  8
LAY-1
  6
CONTINUOUS
 62
     2
100
AcDbLine
 10
83.231348
 20
17.474402
 30
0.0
 11
84.06051
 21
17.474402
 31
0.0
  0
LINE
  5
1D3
100
AcDbEntity
  8
LAY-1
  6
CONTINUOUS
 62
     2
100
AcDbLine
 10
86.966989
 20
17.257039
 30
0.0
 11
86.702051
 21
16.661353
 31
0.0
  0
LINE
  5
1D4
100
AcDbEntity
  8
LAY-1
  6
CONTINUOUS
 62
     2
100
AcDbLine
 10
84.810739
 20
17.222418
 30
0.0
 11
86.73382
 21
17.222418
 31
0.0
  0
ARC
  5
1D5
100
AcDbEntity
  8
LAY-1
  6
CONTINUOUS
 62
     2
100
AcDbCircle
 10
85.856088
 20
17.020041
 30
0.0
 40
1.386011
100
AcDbArc
 50
269.611328
 51
335.998779
  0
LINE
  5
1D6
100
AcDbEntity
  8
LAY-1
  6
CONTINUOUS
 62
     2
100
AcDbLine
 10
87.590982
 20
17.509056
 30
0.0
 11
87.122247
 21
16.456335
 31
0.0
  0
LINE
  5
1D7
100
AcDbEntity
  8
LAY-1
  6
CONTINUOUS
 62
     2
100
AcDbLine
 10
98.331262
 20
18.331213
 30
0.0
 11
96.288065
 21
15.518271
 31
0.0
  0
LINE
  5
1D8
100
AcDbEntity
  8
LAY-1
  6
CONTINUOUS
 62
     2
100
AcDbLine
 10
97.786813
 20
18.07923
 30
0.0
 11
96.034204
 21
15.666403
 31
0.0
  0
ARC
  5
1D9
100
AcDbEntity
  8
LAY-1
  6
CONTINUOUS
 62
     2
100
AcDbCircle
 10
95.299936
 20
16.174406
 30
0.0
 40
0.932402
100
AcDbArc
 50
270.000031
 51
324.00116
  0
LINE
  5
1DA
100
AcDbEntity
  8
LAY-1
  6
CONTINUOUS
 62
     2
100
AcDbLine
 10
88.387949
 20
18.601559
 30
0.0
 11
92.826364
 21
18.601559
 31
0.0
  0
LINE
  5
1DB
100
AcDbEntity
  8
LAY-1
  6
CONTINUOUS
 62
     2
100
AcDbLine
 10
88.387949
 20
18.339575
 30
0.0
 11
92.826364
 21
18.339575
 31
0.0
  0
LINE
  5
1DC
100
AcDbEntity
  8
LAY-1
  6
CONTINUOUS
 62
     2
100
AcDbLine
 10
88.387949
 20
18.067591
 30
0.0
 11
92.826364
 21
18.067591
 31
0.0
  0
LINE
  5
1DD
100
AcDbEntity
  8
LAY-1
  6
CONTINUOUS
 62
     2
100
AcDbLine
 10
87.984766
 20
15.164404
 30
0.0
 11
93.229547
 21
15.164404
 31
0.0
  0
LINE
  5
1DE
100
AcDbEntity
  8
LAY-1
  6
CONTINUOUS
 62
     2
100
AcDbLine
 10
87.984766
 20
14.912405
 30
0.0
 11
93.229547
 21
14.912405
 31
0.0
  0
LINE
  5
1DF
100
AcDbEntity
  8
LAY-1
  6
CONTINUOUS
 62
     2
100
AcDbLine
 10
87.984766
 20
14.640391
 30
0.0
 11
93.229547
 21
14.640391
 31
0.0
  0
LINE
  5
1E0
100
AcDbEntity
  8
LAY-1
  6
CONTINUOUS
 62
     2
100
AcDbLine
 10
94.335214
 20
18.593213
 30
0.0
 11
98.625681
 21
18.593213
 31
0.0
  0
LINE
  5
1E1
100
AcDbEntity
  8
LAY-1
  6
CONTINUOUS
 62
     2
100
AcDbLine
 10
98.88569
 20
18.583212
 30
0.0
 11
96.551904
 21
15.370062
 31
0.0
  0
LINE
  5
1E2
100
AcDbEntity
  8
LAY-1
  6
CONTINUOUS
 62
     2
100
AcDbLine
 10
94.335214
 20
18.331213
 30
0.0
 11
98.13125
 21
18.331213
 31
0.0
  0
LINE
  5
1E3
100
AcDbEntity
  8
LAY-1
  6
CONTINUOUS
 62
     2
100
AcDbLine
 10
95.229929
 20
15.165997
 30
0.0
 11
93.932031
 21
15.165997
 31
0.0
  0
LINE
  5
1E4
100
AcDbEntity
  8
LAY-1
  6
CONTINUOUS
 62
     2
100
AcDbLine
 10
95.229929
 20
14.903998
 30
0.0
 11
93.932031
 21
14.903998
 31
0.0
  0
LINE
  5
1E5
100
AcDbEntity
  8
LAY-1
  6
CONTINUOUS
 62
     2
100
AcDbLine
 10
95.229929
 20
14.641999
 30
0.0
 11
93.932031
 21
14.641999
 31
0.0
  0
LINE
  5
1E6
100
AcDbEntity
  8
LAY-1
  6
CONTINUOUS
 62
     2
100
AcDbLine
 10
97.243188
 20
15.973715
 30
0.0
 11
98.437158
 21
14.6
 31
0.0
  0
LINE
  5
1E7
100
AcDbEntity
  8
LAY-1
  6
CONTINUOUS
 62
     2
100
AcDbLine
 10
97.395349
 20
16.153051
 30
0.0
 11
98.745172
 21
14.6
 31
0.0
  0
LINE
  5
1E8
100
AcDbEntity
  8
LAY-1
  6
CONTINUOUS
 62
     2
100
AcDbLine
 10
97.547311
 20
16.332295
 30
0.0
 11
99.052942
 21
14.6
 31
0.0
  0
LINE
  5
1E9
100
AcDbEntity
  8
LAY-1
  6
CONTINUOUS
 62
     2
100
AcDbLine
 10
97.699274
 20
16.511585
 30
0.0
 11
99.360925
 21
14.6
 31
0.0
  0
LINE
  5
1EA
100
AcDbEntity
  8
LAY-1
  6
CONTINUOUS
 62
     2
100
AcDbLine
 10
94.335214
 20
18.059229
 30
0.0
 11
97.536798
 21
18.059229
 31
0.0
  0
LINE
  5
1EB
100
AcDbEntity
  8
LAY-1
  6
CONTINUOUS
 62
     2
100
AcDbLine
 10
101.189554
 20
18.603213
 30
0.0
 11
106.031137
 21
18.603213
 31
0.0
  0
LINE
  5
1EC
100
AcDbEntity
  8
LAY-1
  6
CONTINUOUS
 62
     2
100
AcDbLine
 10
101.189554
 20
18.351214
 30
0.0
 11
106.031137
 21
18.351214
 31
0.0
  0
LINE
  5
1ED
100
AcDbEntity
  8
LAY-1
  6
CONTINUOUS
 62
     2
100
AcDbLine
 10
103.26774
 20
15.147992
 30
0.0
 11
103.26774
 21
18.121222
 31
0.0
  0
LINE
  5
1EE
100
AcDbEntity
  8
LAY-1
  6
CONTINUOUS
 62
     2
100
AcDbLine
 10
103.519586
 20
15.147992
 30
0.0
 11
103.519586
 21
18.121222
 31
0.0
  0
LINE
  5
1EF
100
AcDbEntity
  8
LAY-1
  6
CONTINUOUS
 62
     2
100
AcDbLine
 10
103.771417
 20
15.147992
 30
0.0
 11
103.771417
 21
18.121222
 31
0.0
  0
LINE
  5
1F0
100
AcDbEntity
  8
LAY-1
  6
CONTINUOUS
 62
     2
100
AcDbLine
 10
104.003244
 20
15.147992
 30
0.0
 11
104.003244
 21
18.121222
 31
0.0
  0
LINE
  5
1F1
100
AcDbEntity
  8
LAY-1
  6
CONTINUOUS
 62
     2
100
AcDbLine
 10
100.987955
 20
14.947992
 30
0.0
 11
106.232736
 21
14.947992
 31
0.0
  0
LINE
  5
1F2
100
AcDbEntity
  8
LAY-1
  6
CONTINUOUS
 62
     2
100
AcDbLine
 10
100.987955
 20
14.645993
 30
0.0
 11
106.232736
 21
14.645993
 31
0.0
  0
LINE
  5
1F3
100
AcDbEntity
  8
LAY-1
  6
CONTINUOUS
 62
     2
100
AcDbLine
 10
107.412759
 20
18.635196
 30
0.0
 11
107.787088
 21
18.15615
 31
0.0
  0
LINE
  5
1F4
100
AcDbEntity
  8
LAY-1
  6
CONTINUOUS
 62
     2
100
AcDbLine
 10
107.732477
 20
18.635196
 30
0.0
 11
108.106805
 21
18.15615
 31
0.0
  0
LINE
  5
1F5
100
AcDbEntity
  8
LAY-1
  6
CONTINUOUS
 62
     2
100
AcDbLine
 10
108.731134
 20
18.635196
 30
0.0
 11
108.731134
 21
18.198556
 31
0.0
  0
LINE
  5
1F6
100
AcDbEntity
  8
LAY-1
  6
CONTINUOUS
 62
     2
100
AcDbLine
 10
109.002985
 20
18.635196
 30
0.0
 11
109.002985
 21
18.198556
 31
0.0
  0
LINE
  5
1F7
100
AcDbEntity
  8
LAY-1
  6
CONTINUOUS
 62
     2
100
AcDbLine
 10
109.739099
 20
18.635196
 30
0.0
 11
109.739099
 21
18.198556
 31
0.0
  0
LINE
  5
1F8
100
AcDbEntity
  8
LAY-1
  6
CONTINUOUS
 62
     2
100
AcDbLine
 10
110.030939
 20
18.635196
 30
0.0
 11
110.030939
 21
18.198556
 31
0.0
  0
LINE
  5
1F9
100
AcDbEntity
  8
LAY-1
  6
CONTINUOUS
 62
     2
100
AcDbLine
 10
110.999567
 20
18.635196
 30
0.0
 11
110.625238
 21
18.15615
 31
0.0
  0
LINE
  5
1FA
100
AcDbEntity
  8
LAY-1
  6
CONTINUOUS
 62
     2
100
AcDbLine
 10
111.339288
 20
18.635196
 30
0.0
 11
110.96496
 21
18.15615
 31
0.0
  0
LINE
  5
1FB
100
AcDbEntity
  8
LAY-1
  6
CONTINUOUS
 62
     2
100
AcDbLine
 10
106.733621
 20
17.998557
 30
0.0
 11
111.978403
 21
17.998557
 31
0.0
  0
LINE
  5
1FC
100
AcDbEntity
  8
LAY-1
  6
CONTINUOUS
 62
     2
100
AcDbLine
 10
108.043176
 20
17.218829
 30
0.0
 11
107.827783
 21
17.810618
 31
0.0
  0
LINE
  5
1FD
100
AcDbEntity
  8
LAY-1
  6
CONTINUOUS
 62
     2
100
AcDbLine
 10
108.351221
 20
17.218829
 30
0.0
 11
108.135828
 21
17.810618
 31
0.0
  0
LINE
  5
1FE
100
AcDbEntity
  8
LAY-1
  6
CONTINUOUS
 62
     2
100
AcDbLine
 10
108.639261
 20
17.218851
 30
0.0
 11
108.424112
 21
17.810595
 31
0.0
  0
LINE
  5
1FF
100
AcDbEntity
  8
LAY-1
  6
CONTINUOUS
 62
     2
100
AcDbLine
 10
110.091943
 20
17.218807
 30
0.0
 11
110.307565
 21
17.81064
 31
0.0
  0
LINE
  5
200
100
AcDbEntity
  8
LAY-1
  6
CONTINUOUS
 62
     2
100
AcDbLine
 10
110.400201
 20
17.218807
 30
0.0
 11
110.615823
 21
17.81064
 31
0.0
  0
LINE
  5
201
100
AcDbEntity
  8
LAY-1
  6
CONTINUOUS
 62
     2
100
AcDbLine
 10
110.688242
 20
17.218807
 30
0.0
 11
110.903864
 21
17.81064
 31
0.0
  0
LINE
  5
202
100
AcDbEntity
  8
LAY-1
  6
CONTINUOUS
 62
     2
100
AcDbLine
 10
106.733621
 20
17.03089
 30
0.0
 11
111.978403
 21
17.03089
 31
0.0
  0
LINE
  5
203
100
AcDbEntity
  8
LAY-1
  6
CONTINUOUS
 62
     2
100
AcDbLine
 10
106.733621
 20
16.335364
 30
0.0
 11
108.883875
 21
16.335364
 31
0.0
  0
LINE
  5
204
100
AcDbEntity
  8
LAY-1
  6
CONTINUOUS
 62
     2
100
AcDbLine
 10
106.733621
 20
15.639838
 30
0.0
 11
108.883875
 21
15.639838
 31
0.0
  0
LINE
  5
205
100
AcDbEntity
  8
LAY-1
  6
CONTINUOUS
 62
     2
100
AcDbLine
 10
109.847559
 20
15.639838
 30
0.0
 11
111.978403
 21
15.639838
 31
0.0
  0
LINE
  5
206
100
AcDbEntity
  8
LAY-1
  6
CONTINUOUS
 62
     2
100
AcDbLine
 10
107.050882
 20
14.6
 30
0.0
 11
108.053323
 21
15.505754
 31
0.0
  0
LINE
  5
207
100
AcDbEntity
  8
LAY-1
  6
CONTINUOUS
 62
     2
100
AcDbLine
 10
107.386774
 20
14.6
 30
0.0
 11
108.389246
 21
15.505756
 31
0.0
  0
LINE
  5
208
100
AcDbEntity
  8
LAY-1
  6
CONTINUOUS
 62
     2
100
AcDbLine
 10
107.702875
 20
14.6
 30
0.0
 11
108.705347
 21
15.505756
 31
0.0
  0
LINE
  5
209
100
AcDbEntity
  8
LAY-1
  6
CONTINUOUS
 62
     2
100
AcDbLine
 10
109.083871
 20
14.6
 30
0.0
 11
109.083871
 21
16.83089
 31
0.0
  0
LINE
  5
20A
100
AcDbEntity
  8
LAY-1
  6
CONTINUOUS
 62
     2
100
AcDbLine
 10
109.375711
 20
14.6
 30
0.0
 11
109.375711
 21
16.83089
 31
0.0
  0
LINE
  5
20B
100
AcDbEntity
  8
LAY-1
  6
CONTINUOUS
 62
     2
100
AcDbLine
 10
109.647562
 20
14.6
 30
0.0
 11
109.647562
 21
16.83089
 31
0.0
  0
LINE
  5
20C
100
AcDbEntity
  8
LAY-1
  6
CONTINUOUS
 62
     2
100
AcDbLine
 10
111.017175
 20
14.6
 30
0.0
 11
110.014734
 21
15.505754
 31
0.0
  0
LINE
  5
20D
100
AcDbEntity
  8
LAY-1
  6
CONTINUOUS
 62
     2
100
AcDbLine
 10
111.353082
 20
14.6
 30
0.0
 11
110.35061
 21
15.505756
 31
0.0
  0
LINE
  5
20E
100
AcDbEntity
  8
LAY-1
  6
CONTINUOUS
 62
     2
100
AcDbLine
 10
111.689188
 20
14.6
 30
0.0
 11
110.686716
 21
15.505756
 31
0.0
  0
LINE
  5
20F
100
AcDbEntity
  8
LAY-1
  6
CONTINUOUS
 62
     2
100
AcDbLine
 10
113.599786
 20
18.635196
 30
0.0
 11
113.599786
 21
18.279199
 31
0.0
  0
LINE
  5
210
100
AcDbEntity
  8
LAY-1
  6
CONTINUOUS
 62
     2
100
AcDbLine
 10
113.851617
 20
18.635196
 30
0.0
 11
113.851617
 21
18.279199
 31
0.0
  0
LINE
  5
211
100
AcDbEntity
  8
LAY-1
  6
CONTINUOUS
 62
     2
100
AcDbLine
 10
114.103464
 20
18.635196
 30
0.0
 11
114.103464
 21
18.279199
 31
0.0
  0
LINE
  5
212
100
AcDbEntity
  8
LAY-1
  6
CONTINUOUS
 62
     2
100
AcDbLine
 10
112.579996
 20
18.079199
 30
0.0
 11
114.397516
 21
18.079199
 31
0.0
  0
LINE
  5
213
100
AcDbEntity
  8
LAY-1
  6
CONTINUOUS
 62
     2
100
AcDbLine
 10
112.594415
 20
14.598905
 30
0.0
 11
112.939203
 21
17.880294
 31
0.0
  0
LINE
  5
214
100
AcDbEntity
  8
LAY-1
  6
CONTINUOUS
 62
     2
100
AcDbLine
 10
112.827676
 20
14.598905
 30
0.0
 11
113.172479
 21
17.880294
 31
0.0
  0
LINE
  5
215
100
AcDbEntity
  8
LAY-1
  6
CONTINUOUS
 62
     2
100
AcDbLine
 10
113.599786
 20
14.6
 30
0.0
 11
113.599786
 21
17.879199
 31
0.0
  0
LINE
  5
216
100
AcDbEntity
  8
LAY-1
  6
CONTINUOUS
 62
     2
100
AcDbLine
 10
113.851617
 20
14.6
 30
0.0
 11
113.851617
 21
17.879199
 31
0.0
  0
LINE
  5
217
100
AcDbEntity
  8
LAY-1
  6
CONTINUOUS
 62
     2
100
AcDbLine
 10
114.103464
 20
14.6
 30
0.0
 11
114.103464
 21
17.879199
 31
0.0
  0
LINE
  5
218
100
AcDbEntity
  8
LAY-1
  6
CONTINUOUS
 62
     2
100
AcDbLine
 10
114.220926
 20
17.615425
 30
0.0
 11
114.480035
 21
17.258384
 31
0.0
  0
LINE
  5
219
100
AcDbEntity
  8
LAY-1
  6
CONTINUOUS
 62
     2
100
AcDbLine
 10
114.220926
 20
17.226425
 30
0.0
 11
114.480035
 21
16.869384
 31
0.0
  0
LINE
  5
21A
100
AcDbEntity
  8
LAY-1
  6
CONTINUOUS
 62
     2
100
AcDbLine
 10
114.846918
 20
17.71886
 30
0.0
 11
115.076883
 21
18.641138
 31
0.0
  0
LINE
  5
21B
100
AcDbEntity
  8
LAY-1
  6
CONTINUOUS
 62
     2
100
AcDbLine
 10
115.08674
 20
17.718869
 30
0.0
 11
115.316522
 21
18.641129
 31
0.0
  0
LINE
  5
21C
100
AcDbEntity
  8
LAY-1
  6
CONTINUOUS
 62
     2
100
AcDbLine
 10
115.296381
 20
17.71886
 30
0.0
 11
115.526346
 21
18.641138
 31
0.0
  0
LINE
  5
21D
100
AcDbEntity
  8
LAY-1
  6
CONTINUOUS
 62
     2
100
AcDbLine
 10
116.170236
 20
18.279199
 30
0.0
 11
116.170236
 21
18.635196
 31
0.0
  0
LINE
  5
21E
100
AcDbEntity
  8
LAY-1
  6
CONTINUOUS
 62
     2
100
AcDbLine
 10
116.442072
 20
18.279199
 30
0.0
 11
116.442072
 21
18.635196
 31
0.0
  0
LINE
  5
21F
100
AcDbEntity
  8
LAY-1
  6
CONTINUOUS
 62
     2
100
AcDbLine
 10
116.693918
 20
18.279199
 30
0.0
 11
116.693918
 21
18.635196
 31
0.0
  0
LINE
  5
220
100
AcDbEntity
  8
LAY-1
  6
CONTINUOUS
 62
     2
100
AcDbLine
 10
115.586221
 20
18.079199
 30
0.0
 11
117.824777
 21
18.079199
 31
0.0
  0
LINE
  5
221
100
AcDbEntity
  8
LAY-1
  6
CONTINUOUS
 62
     2
100
AcDbLine
 10
116.170236
 20
17.879199
 30
0.0
 11
116.170236
 21
17.271203
 31
0.0
  0
LINE
  5
222
100
AcDbEntity
  8
LAY-1
  6
CONTINUOUS
 62
     2
100
AcDbLine
 10
116.442072
 20
17.879199
 30
0.0
 11
116.442072
 21
17.271203
 31
0.0
  0
LINE
  5
223
100
AcDbEntity
  8
LAY-1
  6
CONTINUOUS
 62
     2
100
AcDbLine
 10
116.693918
 20
17.879199
 30
0.0
 11
116.693918
 21
17.271203
 31
0.0
  0
LINE
  5
224
100
AcDbEntity
  8
LAY-1
  6
CONTINUOUS
 62
     2
100
AcDbLine
 10
114.898401
 20
17.071204
 30
0.0
 11
117.925668
 21
17.071204
 31
0.0
  0
LINE
  5
225
100
AcDbEntity
  8
LAY-1
  6
CONTINUOUS
 62
     2
100
AcDbLine
 10
115.344797
 20
16.874439
 30
0.0
 11
114.930078
 21
14.596765
 31
0.0
  0
LINE
  5
226
100
AcDbEntity
  8
LAY-1
  6
CONTINUOUS
 62
     2
100
AcDbLine
 10
115.580728
 20
16.874439
 30
0.0
 11
115.166025
 21
14.596765
 31
0.0
  0
LINE
  5
227
100
AcDbEntity
  8
LAY-1
  6
CONTINUOUS
 62
     2
100
AcDbLine
 10
115.788919
 20
16.874442
 30
0.0
 11
115.374002
 21
14.596762
 31
0.0
  0
LINE
  5
228
100
AcDbEntity
  8
LAY-1
  6
CONTINUOUS
 62
     2
100
AcDbLine
 10
116.170236
 20
16.871204
 30
0.0
 11
116.170236
 21
14.6
 31
0.0
  0
LINE
  5
229
100
AcDbEntity
  8
LAY-1
  6
CONTINUOUS
 62
     2
100
AcDbLine
 10
116.422067
 20
16.871204
 30
0.0
 11
116.422067
 21
14.6
 31
0.0
  0
LINE
  5
22A
100
AcDbEntity
  8
LAY-1
  6
CONTINUOUS
 62
     2
100
AcDbLine
 10
116.693918
 20
16.871204
 30
0.0
 11
116.693918
 21
14.6
 31
0.0
  0
LINE
  5
22B
100
AcDbEntity
  8
LAY-1
  6
CONTINUOUS
 62
     2
100
AcDbLine
 10
117.034952
 20
16.874442
 30
0.0
 11
117.449869
 21
14.596762
 31
0.0
  0
LINE
  5
22C
100
AcDbEntity
  8
LAY-1
  6
CONTINUOUS
 62
     2
100
AcDbLine
 10
117.251093
 20
16.874442
 30
0.0
 11
117.66601
 21
14.596762
 31
0.0
  0
LINE
  5
22D
100
AcDbEntity
  8
LAY-1
  6
CONTINUOUS
 62
     2
100
AcDbLine
 10
117.507028
 20
16.874442
 30
0.0
 11
117.921945
 21
14.596762
 31
0.0
  0
LINE
  5
22E
100
AcDbEntity
  8
LAY-1
  6
CONTINUOUS
 62
     2
100
AcDbLine
 10
118.527261
 20
18.240015
 30
0.0
 11
121.38241
 21
18.240015
 31
0.0
  0
LINE
  5
22F
100
AcDbEntity
  8
LAY-1
  6
CONTINUOUS
 62
     2
100
AcDbLine
 10
118.527261
 20
17.988017
 30
0.0
 11
121.47413
 21
17.988017
 31
0.0
  0
LINE
  5
230
100
AcDbEntity
  8
LAY-1
  6
CONTINUOUS
 62
     2
100
AcDbLine
 10
122.911661
 20
14.587939
 30
0.0
 11
121.434198
 21
18.647257
 31
0.0
  0
LINE
  5
231
100
AcDbEntity
  8
LAY-1
  6
CONTINUOUS
 62
     2
100
AcDbLine
 10
123.179697
 20
14.58794
 30
0.0
 11
121.702295
 21
18.647256
 31
0.0
  0
LINE
  5
232
100
AcDbEntity
  8
LAY-1
  6
CONTINUOUS
 62
     2
100
AcDbLine
 10
123.447733
 20
14.58794
 30
0.0
 11
121.970331
 21
18.647256
 31
0.0
  0
LINE
  5
233
100
AcDbEntity
  8
LAY-1
  6
CONTINUOUS
 62
     2
100
AcDbLine
 10
123.715768
 20
14.587936
 30
0.0
 11
122.238138
 21
18.647259
 31
0.0
  0
LINE
  5
234
100
AcDbEntity
  8
LAY-1
  6
CONTINUOUS
 62
     2
100
AcDbLine
 10
122.954309
 20
18.440015
 30
0.0
 11
122.954309
 21
18.635196
 31
0.0
  0
LINE
  5
235
100
AcDbEntity
  8
LAY-1
  6
CONTINUOUS
 62
     2
100
AcDbLine
 10
123.22616
 20
18.440015
 30
0.0
 11
123.22616
 21
18.635196
 31
0.0
  0
LINE
  5
236
100
AcDbEntity
  8
LAY-1
  6
CONTINUOUS
 62
     2
100
AcDbLine
 10
123.497995
 20
18.440015
 30
0.0
 11
123.497995
 21
18.635196
 31
0.0
  0
LINE
  5
237
100
AcDbEntity
  8
LAY-1
  6
CONTINUOUS
 62
     2
100
AcDbLine
 10
122.586374
 20
18.240015
 30
0.0
 11
123.772043
 21
18.240015
 31
0.0
  0
LINE
  5
238
100
AcDbEntity
  8
LAY-1
  6
CONTINUOUS
 62
     2
100
AcDbLine
 10
122.67811
 20
17.988017
 30
0.0
 11
123.772043
 21
17.988017
 31
0.0
  0
LINE
  5
239
100
AcDbEntity
  8
LAY-1
  6
CONTINUOUS
 62
     2
100
AcDbLine
 10
118.829553
 20
17.03641
 30
0.0
 11
121.453638
 21
17.03641
 31
0.0
  0
LINE
  5
23A
100
AcDbEntity
  8
LAY-1
  6
CONTINUOUS
 62
     2
100
AcDbLine
 10
118.829553
 20
16.784396
 30
0.0
 11
121.453638
 21
16.784396
 31
0.0
  0
LINE
  5
23B
100
AcDbEntity
  8
LAY-1
  6
CONTINUOUS
 62
     2
100
AcDbLine
 10
119.779092
 20
16.584396
 30
0.0
 11
119.779092
 21
15.579115
 31
0.0
  0
LINE
  5
23C
100
AcDbEntity
  8
LAY-1
  6
CONTINUOUS
 62
     2
100
AcDbLine
 10
120.030923
 20
16.584396
 30
0.0
 11
120.030923
 21
15.632643
 31
0.0
  0
LINE
  5
23D
100
AcDbEntity
  8
LAY-1
  6
CONTINUOUS
 62
     2
100
AcDbLine
 10
120.282755
 20
16.584396
 30
0.0
 11
120.282755
 21
15.686172
 31
0.0
  0
LINE
  5
23E
100
AcDbEntity
  8
LAY-1
  6
CONTINUOUS
 62
     2
100
AcDbLine
 10
120.534601
 20
16.584396
 30
0.0
 11
120.534601
 21
15.739703
 31
0.0
  0
LINE
  5
23F
100
AcDbEntity
  8
LAY-1
  6
CONTINUOUS
 62
     2
100
AcDbLine
 10
118.774728
 20
15.165632
 30
0.0
 11
121.508447
 21
15.7467
 31
0.0
  0
LINE
  5
240
100
AcDbEntity
  8
LAY-1
  6
CONTINUOUS
 62
     2
100
AcDbLine
 10
118.774728
 20
14.888003
 30
0.0
 11
121.508447
 21
15.469085
 31
0.0
  0
LINE
  5
241
100
AcDbEntity
  8
LAY-1
  6
CONTINUOUS
 62
     2
100
AcDbLine
 10
118.774728
 20
14.650373
 30
0.0
 11
121.508447
 21
15.231441
 31
0.0
  0
LINE
  5
242
100
AcDbEntity
  8
LAY-1
  6
CONTINUOUS
 62
     2
100
AcDbLine
 10
124.363306
 20
17.832594
 30
0.0
 11
126.951532
 21
18.69854
 31
0.0
  0
LINE
  5
243
100
AcDbEntity
  8
LAY-1
  6
CONTINUOUS
 62
     2
100
AcDbLine
 10
124.363306
 20
17.566862
 30
0.0
 11
126.951532
 21
18.432824
 31
0.0
  0
LINE
  5
244
100
AcDbEntity
  8
LAY-1
  6
CONTINUOUS
 62
     2
100
AcDbLine
 10
127.141199
 20
18.698539
 30
0.0
 11
129.72944
 21
17.83253
 31
0.0
  0
LINE
  5
245
100
AcDbEntity
  8
LAY-1
  6
CONTINUOUS
 62
     2
100
AcDbLine
 10
127.141199
 20
18.452823
 30
0.0
 11
129.72944
 21
17.586814
 31
0.0
  0
LINE
  5
246
100
AcDbEntity
  8
LAY-1
  6
CONTINUOUS
 62
     2
100
AcDbLine
 10
128.862497
 20
17.559611
 30
0.0
 11
125.230447
 21
17.559611
 31
0.0
  0
LINE
  5
247
100
AcDbEntity
  8
LAY-1
  6
CONTINUOUS
 62
     2
100
AcDbLine
 10
128.862497
 20
17.287596
 30
0.0
 11
125.230447
 21
17.287596
 31
0.0
  0
LINE
  5
248
100
AcDbEntity
  8
LAY-1
  6
CONTINUOUS
 62
     2
100
AcDbLine
 10
124.373636
 20
16.506392
 30
0.0
 11
129.71911
 21
16.506392
 31
0.0
  0
LINE
  5
249
100
AcDbEntity
  8
LAY-1
  6
CONTINUOUS
 62
     2
100
AcDbLine
 10
124.373636
 20
16.274409
 30
0.0
 11
129.71911
 21
16.274409
 31
0.0
  0
LINE
  5
24A
100
AcDbEntity
  8
LAY-1
  6
CONTINUOUS
 62
     2
100
AcDbLine
 10
125.201334
 20
16.093153
 30
0.0
 11
124.691125
 21
14.999246
 31
0.0
  0
LINE
  5
24B
100
AcDbEntity
  8
LAY-1
  6
CONTINUOUS
 62
     2
100
AcDbLine
 10
125.519434
 20
16.093154
 30
0.0
 11
125.00921
 21
14.999246
 31
0.0
  0
LINE
  5
24C
100
AcDbEntity
  8
LAY-1
  6
CONTINUOUS
 62
     2
100
AcDbLine
 10
125.837534
 20
16.093154
 30
0.0
 11
125.32731
 21
14.999246
 31
0.0
  0
LINE
  5
24D
100
AcDbEntity
  8
LAY-1
  6
CONTINUOUS
 62
     2
100
AcDbLine
 10
128.255411
 20
16.093167
 30
0.0
 11
128.765833
 21
14.999234
 31
0.0
  0
LINE
  5
24E
100
AcDbEntity
  8
LAY-1
  6
CONTINUOUS
 62
     2
100
AcDbLine
 10
128.573709
 20
16.093142
 30
0.0
 11
129.083704
 21
14.999258
 31
0.0
  0
LINE
  5
24F
100
AcDbEntity
  8
LAY-1
  6
CONTINUOUS
 62
     2
100
AcDbLine
 10
128.891992
 20
16.093131
 30
0.0
 11
129.401819
 21
14.999269
 31
0.0
  0
LINE
  5
250
100
AcDbEntity
  8
LAY-1
  6
CONTINUOUS
 62
     2
100
AcDbLine
 10
124.568536
 20
14.817992
 30
0.0
 11
129.52421
 21
14.817992
 31
0.0
  0
LINE
  5
251
100
AcDbEntity
  8
LAY-1
  6
CONTINUOUS
 62
     2
100
AcDbLine
 10
124.451028
 20
14.565993
 30
0.0
 11
129.641718
 21
14.565993
 31
0.0
  0
LINE
  5
252
100
AcDbEntity
  8
LAY-1
  6
CONTINUOUS
 62
     2
100
AcDbLine
 10
131.239786
 20
18.440015
 30
0.0
 11
131.239786
 21
18.635196
 31
0.0
  0
LINE
  5
253
100
AcDbEntity
  8
LAY-1
  6
CONTINUOUS
 62
     2
100
AcDbLine
 10
131.531625
 20
18.440015
 30
0.0
 11
131.531625
 21
18.635196
 31
0.0
  0
LINE
  5
254
100
AcDbEntity
  8
LAY-1
  6
CONTINUOUS
 62
     2
100
AcDbLine
 10
131.82348
 20
18.440015
 30
0.0
 11
131.82348
 21
18.635196
 31
0.0
  0
LINE
  5
255
100
AcDbEntity
  8
LAY-1
  6
CONTINUOUS
 62
     2
100
AcDbLine
 10
130.320688
 20
18.240015
 30
0.0
 11
132.608789
 21
18.240015
 31
0.0
  0
LINE
  5
256
100
AcDbEntity
  8
LAY-1
  6
CONTINUOUS
 62
     2
100
AcDbLine
 10
130.320688
 20
17.988017
 30
0.0
 11
132.432382
 21
17.988017
 31
0.0
  0
LINE
  5
257
100
AcDbEntity
  8
LAY-1
  6
CONTINUOUS
 62
     2
100
AcDbLine
 10
131.637918
 20
17.824168
 30
0.0
 11
130.235376
 21
15.820472
 31
0.0
  0
LINE
  5
258
100
AcDbEntity
  8
LAY-1
  6
CONTINUOUS
 62
     2
100
AcDbLine
 10
131.965662
 20
17.82418
 30
0.0
 11
130.235391
 21
15.352851
 31
0.0
  0
LINE
  5
259
100
AcDbEntity
  8
LAY-1
  6
CONTINUOUS
 62
     2
100
AcDbLine
 10
132.273798
 20
17.824177
 30
0.0
 11
130.235391
 21
14.912573
 31
0.0
  0
LINE
  5
25A
100
AcDbEntity
  8
LAY-1
  6
CONTINUOUS
 62
     2
100
AcDbLine
 10
131.792993
 20
16.788691
 30
0.0
 11
132.678674
 21
16.168464
 31
0.0
  0
LINE
  5
25B
100
AcDbEntity
  8
LAY-1
  6
CONTINUOUS
 62
     2
100
AcDbLine
 10
131.648447
 20
16.582199
 30
0.0
 11
132.678659
 21
15.860799
 31
0.0
  0
LINE
  5
25C
100
AcDbEntity
  8
LAY-1
  6
CONTINUOUS
 62
     2
100
AcDbLine
 10
131.494501
 20
16.362313
 30
0.0
 11
132.678659
 21
15.53315
 31
0.0
  0
LINE
  5
25D
100
AcDbEntity
  8
LAY-1
  6
CONTINUOUS
 62
     2
100
AcDbLine
 10
131.239786
 20
16.147223
 30
0.0
 11
131.239786
 21
14.6
 31
0.0
  0
LINE
  5
25E
100
AcDbEntity
  8
LAY-1
  6
CONTINUOUS
 62
     2
100
AcDbLine
 10
131.531625
 20
16.136316
 30
0.0
 11
131.531625
 21
14.6
 31
0.0
  0
LINE
  5
25F
100
AcDbEntity
  8
LAY-1
  6
CONTINUOUS
 62
     2
100
AcDbLine
 10
131.82348
 20
15.931957
 30
0.0
 11
131.82348
 21
14.6
 31
0.0
  0
LINE
  5
260
100
AcDbEntity
  8
LAY-1
  6
CONTINUOUS
 62
     2
100
AcDbLine
 10
133.961374
 20
15.017991
 30
0.0
 11
133.961374
 21
18.635196
 31
0.0
  0
LINE
  5
261
100
AcDbEntity
  8
LAY-1
  6
CONTINUOUS
 62
     2
100
AcDbLine
 10
134.253214
 20
15.017991
 30
0.0
 11
134.253214
 21
18.635196
 31
0.0
  0
LINE
  5
262
100
AcDbEntity
  8
LAY-1
  6
CONTINUOUS
 62
     2
100
AcDbLine
 10
134.545068
 20
15.017991
 30
0.0
 11
134.545068
 21
18.635196
 31
0.0
  0
LINE
  5
263
100
AcDbEntity
  8
LAY-1
  6
CONTINUOUS
 62
     2
100
AcDbLine
 10
133.04249
 20
17.534403
 30
0.0
 11
133.761377
 21
17.534403
 31
0.0
  0
LINE
  5
264
100
AcDbEntity
  8
LAY-1
  6
CONTINUOUS
 62
     2
100
AcDbLine
 10
133.04249
 20
17.28242
 30
0.0
 11
133.761377
 21
17.28242
 31
0.0
  0
LINE
  5
265
100
AcDbEntity
  8
LAY-1
  6
CONTINUOUS
 62
     2
100
AcDbLine
 10
134.745065
 20
17.534403
 30
0.0
 11
135.464777
 21
17.534403
 31
0.0
  0
LINE
  5
266
100
AcDbEntity
  8
LAY-1
  6
CONTINUOUS
 62
     2
100
AcDbLine
 10
134.745065
 20
17.262419
 30
0.0
 11
135.464777
 21
17.262419
 31
0.0
  0
LINE
  5
267
100
AcDbEntity
  8
LAY-1
  6
CONTINUOUS
 62
     2
100
AcDbLine
 10
132.639093
 20
14.817992
 30
0.0
 11
135.565668
 21
14.817992
 31
0.0
  0
LINE
  5
268
100
AcDbEntity
  8
LAY-1
  6
CONTINUOUS
 62
     2
100
AcDbLine
 10
132.639093
 20
14.565993
 30
0.0
 11
135.565668
 21
14.565993
 31
0.0
  0
LINE
  5
269
100
AcDbEntity
  8
LAY-1
  6
CONTINUOUS
 62
     2
100
AcDbLine
 10
109.847559
 20
16.335364
 30
0.0
 11
111.978403
 21
16.335364
 31
0.0
  0
LINE
  5
26A
100
AcDbEntity
  8
LAY-1
  6
EXLTYPE2
 62
     6
100
AcDbLine
 10
0.0
 20
148.5
 30
0.0
 11
18.0
 21
148.5
 31
0.0
  0
LINE
  5
26B
100
AcDbEntity
  8
LAY-1
  6
CONTINUOUS
 62
     7
100
AcDbLine
 10
18.0
 20
289.5
 30
0.0
 11
200.0
 21
289.5
 31
0.0
  0
TEXT
  5
26C
100
AcDbEntity
  8
LAY-1
  6
CONTINUOUS
 62
     2
100
AcDbText
 10
85.0
 20
24.25
 30
0.0
 40
6.5
  1
ふた付前丸便座
 41
0.904615
  7
EXCADSTD
 72
     5
 11
134.0
 21
24.25
 31
0.0
100
AcDbText
  0
TEXT
  5
26D
100
AcDbEntity
  8
LAY-1
  6
CONTINUOUS
 62
     2
100
AcDbText
 10
146.4
 20
24.5
 30
0.0
 40
6.0
  1
ＮＣ８０１Ｗ
 41
0.77
  7
EXCADSTD
 72
     5
 11
179.4
 21
24.5
 31
0.0
100
AcDbText
  0
TEXT
  5
26E
100
AcDbEntity
  8
LAY-1
  6
CONTINUOUS
 62
     6
100
AcDbText
 10
63.35
 20
20.0
 30
0.0
 40
5.0
  1
又場
 41
0.8568
  7
EXCADSTD
 72
     5
 11
72.69932
 21
20.0
 31
0.0
100
AcDbText
  0
TEXT
  5
26F
100
AcDbEntity
  8
LAY-1
  6
CONTINUOUS
 62
     6
100
AcDbText
 10
20.65
 20
20.0
 30
0.0
 40
5.0
  1
風穴
 41
0.8568
  7
EXCADSTD
 72
     5
 11
29.99932
 21
20.0
 31
0.0
100
AcDbText
  0
TEXT
  5
270
100
AcDbEntity
  8
LAY-1
  6
CONTINUOUS
 62
     6
100
AcDbText
 10
18.484412
 20
12.695007
 30
0.0
 40
2.5
  1
１６
 41
0.75768
  7
EXCADSTD
 72
     5
 11
22.618278
 21
12.695007
 31
0.0
100
AcDbText
  0
TEXT
  5
271
100
AcDbEntity
  8
LAY-1
  6
CONTINUOUS
 62
     6
100
AcDbText
 10
23.484412
 20
12.695007
 30
0.0
 40
2.5
  1
　１
 41
0.75768
  7
EXCADSTD
 72
     5
 11
27.618278
 21
12.695007
 31
0.0
100
AcDbText
  0
TEXT
  5
272
100
AcDbEntity
  8
LAY-1
  6
CONTINUOUS
 62
     6
100
AcDbText
 10
28.484412
 20
12.695007
 30
0.0
 40
2.5
  1
２３
 41
0.75768
  7
EXCADSTD
 72
     5
 11
32.618278
 21
12.695007
 31
0.0
100
AcDbText
  0
TEXT
  5
273
100
AcDbEntity
  8
LAY-1
  6
CONTINUOUS
 62
     6
100
AcDbText
 10
49.35
 20
20.0
 30
0.0
 40
5.0
  1
地名坊
 41
0.7504
  7
EXCADSTD
 72
     5
 11
62.75
 21
20.0
 31
0.0
100
AcDbText
  0
TEXT
  5
274
100
AcDbEntity
  8
LAY-1
  6
CONTINUOUS
 62
     7
100
AcDbText
 10
151.75
 20
13.15
 30
0.0
 40
7.0
  1
２０３１３０
 41
0.81
  7
EXCADSTD
 72
     5
 11
192.25
 21
13.15
 31
0.0
100
AcDbText
  0
LINE
  5
275
100
AcDbEntity
  8
LAY-2
  6
CONTINUOUS
 62
     6
100
AcDbLine
 10
57.238106
 20
122.036394
 30
0.0
 11
57.238106
 21
121.236391
 31
0.0
  0
LINE
  5
276
100
AcDbEntity
  8
LAY-2
  6
CONTINUOUS
 62
     6
100
AcDbLine
 10
62.856361
 20
122.636385
 30
0.0
 11
62.538002
 21
121.236391
 31
0.0
  0
ARC
  5
277
100
AcDbEntity
  8
LAY-2
  6
CONTINUOUS
 62
     6
100
AcDbCircle
 10
62.183266
 20
123.736391
 30
0.0
 40
0.900065
100
AcDbArc
 50
347.196423
 51
90.0
  0
LINE
  5
278
100
AcDbEntity
  8
LAY-2
  6
CONTINUOUS
 62
     6
100
AcDbLine
 10
61.288002
 20
124.636385
 30
0.0
 11
62.183266
 21
124.636385
 31
0.0
  0
LINE
  5
279
100
AcDbEntity
  8
LAY-2
  6
CONTINUOUS
 62
     6
100
AcDbLine
 10
60.871498
 20
122.803652
 30
0.0
 11
61.288002
 21
124.636385
 31
0.0
  0
ARC
  5
27A
100
AcDbEntity
  8
LAY-2
  6
CONTINUOUS
 62
     6
100
AcDbCircle
 10
60.286537
 20
122.936632
 30
0.0
 40
0.599985
100
AcDbArc
 50
275.862109
 51
347.192521
  0
LINE
  5
27B
100
AcDbEntity
  8
LAY-2
  6
CONTINUOUS
 62
     6
100
AcDbLine
 10
57.238106
 20
122.036394
 30
0.0
 11
60.347816
 21
122.339785
 31
0.0
  0
LINE
  5
27C
100
AcDbEntity
  8
LAY-2
  6
CONTINUOUS
 62
     6
100
AcDbLine
 10
61.557289
 20
125.90964
 30
0.0
 11
61.30558
 21
124.636385
 31
0.0
  0
LINE
  5
27D
100
AcDbEntity
  8
LAY-2
  6
CONTINUOUS
 62
     6
100
AcDbLine
 10
61.874431
 20
127.513968
 30
0.0
 11
61.557289
 21
125.90964
 31
0.0
  0
ARC
  5
27E
100
AcDbEntity
  8
LAY-2
  6
CONTINUOUS
 62
     6
100
AcDbCircle
 10
59.243812
 20
25.936388
 30
0.0
 40
99.999974
100
AcDbArc
 50
85.814773
 51
88.674324
  0
LINE
  5
27F
100
AcDbEntity
  8
LAY-2
  6
CONTINUOUS
 62
     6
100
AcDbLine
 10
63.096107
 20
124.636385
 30
0.0
 11
63.160316
 21
125.859638
 31
0.0
  0
LINE
  5
280
100
AcDbEntity
  8
LAY-2
  6
CONTINUOUS
 62
     6
100
AcDbLine
 10
62.183266
 20
124.636385
 30
0.0
 11
64.228187
 21
124.636385
 31
0.0
  0
ARC
  5
281
100
AcDbEntity
  8
LAY-2
  6
CONTINUOUS
 62
     6
100
AcDbCircle
 10
64.228187
 20
123.936388
 30
0.0
 40
0.699997
100
AcDbArc
 50
90.0
 51
162.582827
  0
ARC
  5
282
100
AcDbEntity
  8
LAY-2
  6
CONTINUOUS
 62
     6
100
AcDbCircle
 10
69.291176
 20
122.369723
 30
0.0
 40
5.999901
100
AcDbArc
 50
162.780069
 51
177.452688
  0
LINE
  5
283
100
AcDbEntity
  8
LAY-2
  6
CONTINUOUS
 62
     6
100
AcDbLine
 10
62.856361
 20
122.636385
 30
0.0
 11
63.297279
 21
122.636385
 31
0.0
  0
ARC
  5
284
100
AcDbEntity
  8
LAY-2
  6
CONTINUOUS
 62
     6
100
AcDbCircle
 10
63.449867
 20
122.686388
 30
0.0
 40
0.149936
100
AcDbArc
 50
199.474967
 51
270.0
  0
LINE
  5
285
100
AcDbEntity
  8
LAY-2
  6
CONTINUOUS
 62
     6
100
AcDbLine
 10
63.3881
 20
122.536394
 30
0.0
 11
103.944252
 21
122.536394
 31
0.0
  0
LINE
  5
286
100
AcDbEntity
  8
LAY-2
  6
CONTINUOUS
 62
     6
100
AcDbLine
 10
103.062971
 20
124.636385
 30
0.0
 11
64.228187
 21
124.636385
 31
0.0
  0
ARC
  5
287
100
AcDbEntity
  8
LAY-2
  6
CONTINUOUS
 62
     6
100
AcDbCircle
 10
91.838051
 20
125.286394
 30
0.0
 40
0.90004
100
AcDbArc
 50
189.594227
 51
226.247088
  0
ARC
  5
288
100
AcDbEntity
  8
LAY-2
  6
CONTINUOUS
 62
     6
100
AcDbCircle
 10
81.138099
 20
325.136538
 30
0.0
 40
200.000027
100
AcDbArc
 50
265.814642
 51
270.000017
  0
LINE
  5
289
100
AcDbEntity
  8
LAY-2
  6
CONTINUOUS
 62
     6
100
AcDbLine
 10
81.137611
 20
125.136507
 30
0.0
 11
101.486429
 21
125.136293
 31
0.0
  0
LINE
  5
28A
100
AcDbEntity
  8
LAY-2
  6
CONTINUOUS
 62
     6
100
AcDbLine
 10
78.268159
 20
127.836397
 30
0.0
 11
62.266838
 21
127.836397
 31
0.0
  0
LINE
  5
28B
100
AcDbEntity
  8
LAY-2
  6
CONTINUOUS
 62
     6
100
AcDbLine
 10
76.304115
 20
121.823504
 30
0.0
 11
90.07682
 21
122.178164
 31
0.0
  0
LINE
  5
28C
100
AcDbEntity
  8
LAY-2
  6
CONTINUOUS
 62
     6
100
AcDbLine
 10
73.68473
 20
121.736391
 30
0.0
 11
76.304115
 21
121.736391
 31
0.0
  0
LINE
  5
28D
100
AcDbEntity
  8
LAY-2
  6
CONTINUOUS
 62
     6
100
AcDbLine
 10
69.038002
 20
121.636385
 30
0.0
 11
73.68473
 21
121.756045
 31
0.0
  0
LINE
  5
28E
100
AcDbEntity
  8
LAY-2
  6
CONTINUOUS
 62
     6
100
AcDbLine
 10
69.038002
 20
121.636385
 30
0.0
 11
68.899574
 21
122.536394
 31
0.0
  0
LINE
  5
28F
100
AcDbEntity
  8
LAY-2
  6
CONTINUOUS
 62
     6
100
AcDbLine
 10
73.68473
 20
121.736391
 30
0.0
 11
73.68473
 21
122.536394
 31
0.0
  0
ARC
  5
290
100
AcDbEntity
  8
LAY-2
  6
CONTINUOUS
 62
     6
100
AcDbCircle
 10
73.984779
 20
121.536394
 30
0.0
 40
0.300049
100
AcDbArc
 50
180.000023
 51
270.0
  0
ARC
  5
291
100
AcDbEntity
  8
LAY-2
  6
CONTINUOUS
 62
     6
100
AcDbCircle
 10
76.004066
 20
121.536394
 30
0.0
 40
0.300003
100
AcDbArc
 50
270.0
 51
0.0
  0
LINE
  5
292
100
AcDbEntity
  8
LAY-2
  6
CONTINUOUS
 62
     6
100
AcDbLine
 10
76.304115
 20
121.536394
 30
0.0
 11
76.304115
 21
122.536394
 31
0.0
  0
LINE
  5
293
100
AcDbEntity
  8
LAY-2
  6
CONTINUOUS
 62
     6
100
AcDbLine
 10
90.07682
 20
121.736391
 30
0.0
 11
90.07682
 21
122.536394
 31
0.0
  0
ARC
  5
294
100
AcDbEntity
  8
LAY-2
  6
CONTINUOUS
 62
     6
100
AcDbCircle
 10
90.376869
 20
121.536394
 30
0.0
 40
0.300049
100
AcDbArc
 50
180.000023
 51
270.0
  0
LINE
  5
295
100
AcDbEntity
  8
LAY-2
  6
CONTINUOUS
 62
     6
100
AcDbLine
 10
90.07682
 20
121.736391
 30
0.0
 11
93.072182
 21
121.736391
 31
0.0
  0
LINE
  5
296
100
AcDbEntity
  8
LAY-2
  6
CONTINUOUS
 62
     6
100
AcDbLine
 10
93.072182
 20
121.536394
 30
0.0
 11
93.072182
 21
122.536394
 31
0.0
  0
LINE
  5
297
100
AcDbEntity
  8
LAY-2
  6
CONTINUOUS
 62
     6
100
AcDbLine
 10
93.072182
 20
122.255282
 30
0.0
 11
104.1381
 21
122.540257
 31
0.0
  0
LINE
  5
298
100
AcDbEntity
  8
LAY-2
  6
CONTINUOUS
 62
     6
100
AcDbLine
 10
63.060951
 20
123.536928
 30
0.0
 11
62.856361
 21
122.636385
 31
0.0
  0
LINE
  5
299
100
AcDbEntity
  8
LAY-2
  6
CONTINUOUS
 62
     6
100
AcDbLine
 10
90.07682
 20
121.736391
 30
0.0
 11
90.07682
 21
121.536394
 31
0.0
  0
ARC
  5
29A
100
AcDbEntity
  8
LAY-2
  6
CONTINUOUS
 62
     6
100
AcDbCircle
 10
92.772133
 20
121.536394
 30
0.0
 40
0.300003
100
AcDbArc
 50
270.0
 51
0.0
  0
ARC
  5
29B
100
AcDbEntity
  8
LAY-2
  6
CONTINUOUS
 62
     6
100
AcDbCircle
 10
91.838051
 20
125.286394
 30
0.0
 40
0.900051
100
AcDbArc
 50
313.764264
 51
350.405815
  0
LINE
  5
29C
100
AcDbEntity
  8
LAY-2
  6
CONTINUOUS
 62
     6
100
AcDbLine
 10
73.68473
 20
121.536394
 30
0.0
 11
73.68473
 21
121.736391
 31
0.0
  0
ARC
  5
29D
100
AcDbEntity
  8
LAY-2
  6
CONTINUOUS
 62
     6
100
AcDbCircle
 10
62.266838
 20
127.436397
 30
0.0
 40
0.4
100
AcDbArc
 50
90.0
 51
168.817978
  0
ARC
  5
29E
100
AcDbEntity
  8
LAY-2
  6
CONTINUOUS
 62
     6
100
AcDbCircle
 10
100.638102
 20
122.536382
 30
0.0
 40
3.5
100
AcDbArc
 50
0.063434
 51
30.000068
  0
ARC
  5
29F
100
AcDbEntity
  8
LAY-2
  6
CONTINUOUS
 62
     6
100
AcDbCircle
 10
103.062971
 20
123.936385
 30
0.0
 40
0.7
100
AcDbArc
 50
30.000068
 51
90.0
  0
LINE
  5
2A0
100
AcDbEntity
  8
LAY-2
  6
CONTINUOUS
 62
     6
100
AcDbLine
 10
81.137624
 20
126.336507
 30
0.0
 11
101.99
 21
126.336288
 31
0.0
  0
ARC
  5
2A1
100
AcDbEntity
  8
LAY-2
  6
CONTINUOUS
 62
     6
100
AcDbCircle
 10
78.268159
 20
-122.163603
 30
0.0
 40
250.0
100
AcDbArc
 50
85.909561
 51
90.0
  0
ARC
  5
2A2
100
AcDbEntity
  8
LAY-2
  6
CONTINUOUS
 62
     6
100
AcDbCircle
 10
92.534361
 20
77.326937
 30
0.0
 40
50.0
100
AcDbArc
 50
78.934073
 51
85.909561
  0
ARC
  5
2A3
100
AcDbEntity
  8
LAY-2
  6
CONTINUOUS
 62
     6
100
AcDbCircle
 10
100.415128
 20
124.120976
 30
0.0
 40
3.0
100
AcDbArc
 50
30.338019
 51
40.349757
  0
ARC
  5
2A4
100
AcDbEntity
  8
LAY-2
  6
CONTINUOUS
 62
     6
100
AcDbCircle
 10
101.939341
 20
125.415879
 30
0.0
 40
1.0
100
AcDbArc
 50
40.349757
 51
78.934073
  0
ARC
  5
2A5
100
AcDbEntity
  8
LAY-2
  6
CONTINUOUS
 62
     6
100
AcDbCircle
 10
81.138141
 20
325.136507
 30
0.0
 40
198.8
100
AcDbArc
 50
265.81463
 51
269.999851
  0
ARC
  5
2A6
100
AcDbEntity
  8
LAY-2
  6
CONTINUOUS
 62
     6
100
AcDbCircle
 10
59.24593
 20
25.936355
 30
0.0
 40
101.2
100
AcDbArc
 50
85.816249
 51
88.381474
  0
LINE
  5
2A7
100
AcDbEntity
  8
LAY-2
  6
CONTINUOUS
 62
     6
100
AcDbLine
 10
101.486429
 20
125.136293
 30
0.0
 11
103.00431
 21
125.636277
 31
0.0
  0
ARC
  5
2A8
100
AcDbEntity
  8
LAY-2
  6
CONTINUOUS
 62
     6
100
AcDbCircle
 10
167.512939
 20
125.486391
 30
0.0
 40
0.900022
100
AcDbArc
 50
202.8852
 51
250.808121
  0
ARC
  5
2A9
100
AcDbEntity
  8
LAY-2
  6
CONTINUOUS
 62
     6
100
AcDbCircle
 10
167.512939
 20
125.486391
 30
0.0
 40
0.900123
100
AcDbArc
 50
289.191818
 51
337.117509
  0
LINE
  5
2AA
100
AcDbEntity
  8
LAY-2
  6
CONTINUOUS
 62
     6
100
AcDbLine
 10
171.362305
 20
121.53644
 30
0.0
 11
171.362305
 21
122.53644
 31
0.0
  0
LINE
  5
2AB
100
AcDbEntity
  8
LAY-2
  6
CONTINUOUS
 62
     6
100
AcDbLine
 10
169.709717
 20
121.53644
 30
0.0
 11
169.709717
 21
122.53644
 31
0.0
  0
ARC
  5
2AC
100
AcDbEntity
  8
LAY-2
  6
CONTINUOUS
 62
     6
100
AcDbCircle
 10
169.409668
 20
121.53644
 30
0.0
 40
0.300049
100
AcDbArc
 50
270.000031
 51
0.0
  0
ARC
  5
2AD
100
AcDbEntity
  8
LAY-2
  6
CONTINUOUS
 62
     6
100
AcDbCircle
 10
171.062256
 20
121.53644
 30
0.0
 40
0.300049
100
AcDbArc
 50
270.000031
 51
0.0
  0
ARC
  5
2AE
100
AcDbEntity
  8
LAY-2
  6
CONTINUOUS
 62
     6
100
AcDbCircle
 10
155.013184
 20
332.624804
 30
0.0
 40
211.088562
100
AcDbArc
 50
267.302094
 51
272.697845
  0
LINE
  5
2AF
100
AcDbEntity
  8
LAY-2
  6
CONTINUOUS
 62
     6
100
AcDbLine
 10
164.94873
 20
121.770327
 30
0.0
 11
164.94873
 21
122.53644
 31
0.0
  0
LINE
  5
2B0
100
AcDbEntity
  8
LAY-2
  6
CONTINUOUS
 62
     6
100
AcDbLine
 10
163.212891
 20
121.236391
 30
0.0
 11
163.212891
 21
121.695864
 31
0.0
  0
LINE
  5
2B1
100
AcDbEntity
  8
LAY-2
  6
CONTINUOUS
 62
     6
100
AcDbLine
 10
160.212891
 20
121.236391
 30
0.0
 11
160.212891
 21
121.600405
 31
0.0
  0
LINE
  5
2B2
100
AcDbEntity
  8
LAY-2
  6
CONTINUOUS
 62
     6
100
AcDbLine
 10
149.812988
 20
121.236391
 30
0.0
 11
149.812988
 21
121.600405
 31
0.0
  0
LINE
  5
2B3
100
AcDbEntity
  8
LAY-2
  6
CONTINUOUS
 62
     6
100
AcDbLine
 10
146.812988
 20
121.236391
 30
0.0
 11
146.812988
 21
121.695864
 31
0.0
  0
LINE
  5
2B4
100
AcDbEntity
  8
LAY-2
  6
CONTINUOUS
 62
     6
100
AcDbLine
 10
145.077148
 20
121.53644
 30
0.0
 11
145.077148
 21
122.53644
 31
0.0
  0
ARC
  5
2B5
100
AcDbEntity
  8
LAY-2
  6
CONTINUOUS
 62
     6
100
AcDbCircle
 10
144.777344
 20
121.53644
 30
0.0
 40
0.300049
100
AcDbArc
 50
270.000031
 51
0.0
  0
LINE
  5
2B6
100
AcDbEntity
  8
LAY-2
  6
CONTINUOUS
 62
     6
100
AcDbLine
 10
140.31665
 20
121.736391
 30
0.0
 11
140.31665
 21
122.53644
 31
0.0
  0
LINE
  5
2B7
100
AcDbEntity
  8
LAY-2
  6
CONTINUOUS
 62
     6
100
AcDbLine
 10
138.664063
 20
121.736391
 30
0.0
 11
138.664063
 21
122.53644
 31
0.0
  0
ARC
  5
2B8
100
AcDbEntity
  8
LAY-2
  6
CONTINUOUS
 62
     6
100
AcDbCircle
 10
138.963867
 20
121.53644
 30
0.0
 40
0.300049
100
AcDbArc
 50
180.0
 51
270.0
  0
LINE
  5
2B9
100
AcDbEntity
  8
LAY-2
  6
CONTINUOUS
 62
     6
100
AcDbLine
 10
140.31665
 20
121.736391
 30
0.0
 11
140.31665
 21
121.53644
 31
0.0
  0
ARC
  5
2BA
100
AcDbEntity
  8
LAY-2
  6
CONTINUOUS
 62
     6
100
AcDbCircle
 10
165.248535
 20
121.53644
 30
0.0
 40
0.300049
100
AcDbArc
 50
180.0
 51
270.0
  0
LINE
  5
2BB
100
AcDbEntity
  8
LAY-2
  6
CONTINUOUS
 62
     6
100
AcDbLine
 10
164.94873
 20
121.770327
 30
0.0
 11
164.94873
 21
121.53644
 31
0.0
  0
LINE
  5
2BC
100
AcDbEntity
  8
LAY-2
  6
CONTINUOUS
 62
     6
100
AcDbLine
 10
138.664063
 20
121.736391
 30
0.0
 11
138.664063
 21
121.53644
 31
0.0
  0
LINE
  5
2BD
100
AcDbEntity
  8
LAY-2
  6
CONTINUOUS
 62
     6
100
AcDbLine
 10
171.362305
 20
121.736391
 30
0.0
 11
164.94873
 21
121.736391
 31
0.0
  0
LINE
  5
2BE
100
AcDbEntity
  8
LAY-2
  6
CONTINUOUS
 62
     6
100
AcDbLine
 10
172.274871
 20
124.636294
 30
0.0
 11
137.725129
 21
124.636294
 31
0.0
  0
LINE
  5
2BF
100
AcDbEntity
  8
LAY-2
  6
CONTINUOUS
 62
     6
100
AcDbLine
 10
138.664063
 20
121.736391
 30
0.0
 11
145.077148
 21
121.736391
 31
0.0
  0
ARC
  5
2C0
100
AcDbEntity
  8
LAY-2
  6
CONTINUOUS
 62
     6
100
AcDbCircle
 10
155.0
 20
-2.163615
 30
0.0
 40
130.0
100
AcDbArc
 50
85.070152
 51
94.929848
  0
ARC
  5
2C1
100
AcDbEntity
  8
LAY-2
  6
CONTINUOUS
 62
     6
100
AcDbCircle
 10
163.593596
 20
97.466452
 30
0.0
 40
30.0
100
AcDbArc
 50
74.738257
 51
85.070152
  0
ARC
  5
2C2
100
AcDbEntity
  8
LAY-2
  6
CONTINUOUS
 62
     6
100
AcDbCircle
 10
146.406404
 20
97.466452
 30
0.0
 40
30.0
100
AcDbArc
 50
94.929848
 51
105.261743
  0
ARC
  5
2C3
100
AcDbEntity
  8
LAY-2
  6
CONTINUOUS
 62
     6
100
AcDbCircle
 10
140.272967
 20
124.121074
 30
0.0
 40
3.0
100
AcDbArc
 50
138.599147
 51
160.218317
  0
ARC
  5
2C4
100
AcDbEntity
  8
LAY-2
  6
CONTINUOUS
 62
     6
100
AcDbCircle
 10
169.727033
 20
124.121074
 30
0.0
 40
3.0
100
AcDbArc
 50
19.781683
 51
41.400853
  0
LINE
  5
2C5
100
AcDbEntity
  8
LAY-2
  6
CONTINUOUS
 62
     6
100
AcDbLine
 10
138.75
 20
126.336385
 30
0.0
 11
171.25
 21
126.336385
 31
0.0
  0
ARC
  5
2C6
100
AcDbEntity
  8
LAY-2
  6
CONTINUOUS
 62
     6
100
AcDbCircle
 10
138.772765
 20
125.44372
 30
0.0
 40
1.0
100
AcDbArc
 50
105.261743
 51
138.599147
  0
ARC
  5
2C7
100
AcDbEntity
  8
LAY-2
  6
CONTINUOUS
 62
     6
100
AcDbCircle
 10
171.227235
 20
125.44372
 30
0.0
 40
1.0
100
AcDbArc
 50
41.400853
 51
74.738257
  0
ARC
  5
2C8
100
AcDbEntity
  8
LAY-2
  6
CONTINUOUS
 62
     6
100
AcDbCircle
 10
155.0
 20
95.636385
 30
0.0
 40
30.0
100
AcDbArc
 50
80.931278
 51
99.068722
  0
LINE
  5
2C9
100
AcDbEntity
  8
LAY-2
  6
CONTINUOUS
 62
     6
100
AcDbLine
 10
137.45
 20
125.136385
 30
0.0
 11
148.69524
 21
125.136385
 31
0.0
  0
LINE
  5
2CA
100
AcDbEntity
  8
LAY-2
  6
CONTINUOUS
 62
     6
100
AcDbLine
 10
161.30476
 20
125.136385
 30
0.0
 11
172.55
 21
125.136385
 31
0.0
  0
LINE
  5
2CB
100
AcDbEntity
  8
LAY-2
  6
CONTINUOUS
 62
     6
100
AcDbLine
 10
151.925
 20
124.636294
 30
0.0
 11
151.925
 21
125.478375
 31
0.0
  0
LINE
  5
2CC
100
AcDbEntity
  8
LAY-2
  6
CONTINUOUS
 62
     6
100
AcDbLine
 10
158.075
 20
124.636294
 30
0.0
 11
158.075
 21
125.478375
 31
0.0
  0
ARC
  5
2CD
100
AcDbEntity
  8
LAY-2
  6
CONTINUOUS
 62
     6
100
AcDbCircle
 10
148.69524
 20
135.136385
 30
0.0
 40
10.0
100
AcDbArc
 50
270.0
 51
279.068722
  0
ARC
  5
2CE
100
AcDbEntity
  8
LAY-2
  6
CONTINUOUS
 62
     6
100
AcDbCircle
 10
161.30476
 20
135.136385
 30
0.0
 40
10.0
100
AcDbArc
 50
260.931278
 51
270.0
  0
ARC
  5
2CF
100
AcDbEntity
  8
LAY-2
  6
CONTINUOUS
 62
     6
100
AcDbCircle
 10
142.487061
 20
125.486391
 30
0.0
 40
0.900022
100
AcDbArc
 50
289.191879
 51
337.1148
  0
ARC
  5
2D0
100
AcDbEntity
  8
LAY-2
  6
CONTINUOUS
 62
     6
100
AcDbCircle
 10
142.487061
 20
125.486391
 30
0.0
 40
0.900123
100
AcDbArc
 50
202.882491
 51
250.808182
  0
ARC
  5
2D1
100
AcDbEntity
  8
LAY-2
  6
CONTINUOUS
 62
     6
100
AcDbCircle
 10
140.590332
 20
121.53644
 30
0.0
 40
0.300049
100
AcDbArc
 50
180.0
 51
269.999969
  0
ARC
  5
2D2
100
AcDbEntity
  8
LAY-2
  6
CONTINUOUS
 62
     6
100
AcDbCircle
 10
140.15
 20
122.536294
 30
0.0
 40
3.5
100
AcDbArc
 50
150.0
 51
179.997602
  0
ARC
  5
2D3
100
AcDbEntity
  8
LAY-2
  6
CONTINUOUS
 62
     6
100
AcDbCircle
 10
169.85
 20
122.536294
 30
0.0
 40
3.5
100
AcDbArc
 50
0.002398
 51
30.0
  0
LINE
  5
2D4
100
AcDbEntity
  8
LAY-2
  6
CONTINUOUS
 62
     6
100
AcDbLine
 10
136.65
 20
122.53644
 30
0.0
 11
173.35
 21
122.53644
 31
0.0
  0
ARC
  5
2D5
100
AcDbEntity
  8
LAY-2
  6
CONTINUOUS
 62
     6
100
AcDbCircle
 10
172.274871
 20
123.936294
 30
0.0
 40
0.7
100
AcDbArc
 50
30.0
 51
90.0
  0
ARC
  5
2D6
100
AcDbEntity
  8
LAY-2
  6
CONTINUOUS
 62
     6
100
AcDbCircle
 10
137.725129
 20
123.936294
 30
0.0
 40
0.7
100
AcDbArc
 50
90.0
 51
150.0
  0
CIRCLE
  5
2D7
100
AcDbEntity
  8
LAY-2
  6
EXLTYPE2
 62
     6
100
AcDbCircle
 10
59.6381
 20
186.1799
 30
0.0
 40
0.600098
  0
CIRCLE
  5
2D8
100
AcDbEntity
  8
LAY-2
  6
EXLTYPE2
 62
     6
100
AcDbCircle
 10
59.6381
 20
200.1799
 30
0.0
 40
0.600098
  0
LINE
  5
2D9
100
AcDbEntity
  8
LAY-2
  6
CONTINUOUS
 62
     6
100
AcDbLine
 10
57.238197
 20
198.379897
 30
0.0
 11
57.238197
 21
201.379897
 31
0.0
  0
LINE
  5
2DA
100
AcDbEntity
  8
LAY-2
  6
CONTINUOUS
 62
     6
100
AcDbLine
 10
57.238197
 20
198.379897
 30
0.0
 11
61.088051
 21
198.379897
 31
0.0
  0
LINE
  5
2DB
100
AcDbEntity
  8
LAY-2
  6
CONTINUOUS
 62
     6
100
AcDbLine
 10
57.238197
 20
187.979903
 30
0.0
 11
61.088051
 21
187.979903
 31
0.0
  0
LINE
  5
2DC
100
AcDbEntity
  8
LAY-2
  6
CONTINUOUS
 62
     6
100
AcDbLine
 10
57.238197
 20
187.979903
 30
0.0
 11
57.238197
 21
184.979903
 31
0.0
  0
LINE
  5
2DD
100
AcDbEntity
  8
LAY-2
  6
CONTINUOUS
 62
     6
100
AcDbLine
 10
57.238197
 20
184.979903
 30
0.0
 11
61.588051
 21
184.979903
 31
0.0
  0
LINE
  5
2DE
100
AcDbEntity
  8
LAY-2
  6
CONTINUOUS
 62
     6
100
AcDbLine
 10
61.588051
 20
186.9299
 30
0.0
 11
60.238197
 21
186.9299
 31
0.0
  0
LINE
  5
2DF
100
AcDbEntity
  8
LAY-2
  6
CONTINUOUS
 62
     6
100
AcDbLine
 10
61.588051
 20
199.4299
 30
0.0
 11
60.238197
 21
199.4299
 31
0.0
  0
LINE
  5
2E0
100
AcDbEntity
  8
LAY-2
  6
CONTINUOUS
 62
     6
100
AcDbLine
 10
61.588051
 20
201.379897
 30
0.0
 11
57.238197
 21
201.379897
 31
0.0
  0
ARC
  5
2E1
100
AcDbEntity
  8
LAY-2
  6
CONTINUOUS
 62
     6
100
AcDbCircle
 10
81.138099
 20
177.2299
 30
0.0
 40
33.5
100
AcDbArc
 50
85.315374
 51
122.557614
  0
ARC
  5
2E2
100
AcDbEntity
  8
LAY-2
  6
CONTINUOUS
 62
     6
100
AcDbCircle
 10
81.138099
 20
177.2299
 30
0.0
 40
32.7
100
AcDbArc
 50
85.315374
 51
123.571704
  0
ARC
  5
2E3
100
AcDbEntity
  8
LAY-2
  6
CONTINUOUS
 62
     6
100
AcDbCircle
 10
90.638099
 20
193.1799
 30
0.0
 40
11.8
100
AcDbArc
 50
329.426629
 51
30.573371
  0
ARC
  5
2E4
100
AcDbEntity
  8
LAY-2
  6
CONTINUOUS
 62
     6
100
AcDbCircle
 10
90.638099
 20
193.1799
 30
0.0
 40
13.5
100
AcDbArc
 50
328.738377
 51
31.261623
  0
LINE
  5
2E5
100
AcDbEntity
  8
LAY-2
  6
CONTINUOUS
 62
     6
100
AcDbLine
 10
61.9381
 20
202.392372
 30
0.0
 11
61.9381
 21
183.967428
 31
0.0
  0
LINE
  5
2E6
100
AcDbEntity
  8
LAY-2
  6
CONTINUOUS
 62
     6
100
AcDbLine
 10
61.088099
 20
186.9299
 30
0.0
 11
61.088099
 21
199.4299
 31
0.0
  0
LINE
  5
2E7
100
AcDbEntity
  8
LAY-2
  6
CONTINUOUS
 62
     6
100
AcDbLine
 10
61.724603
 20
183.422953
 30
0.0
 11
61.724603
 21
190.1049
 31
0.0
  0
LINE
  5
2E8
100
AcDbEntity
  8
LAY-2
  6
CONTINUOUS
 62
     6
100
AcDbLine
 10
61.724603
 20
196.2549
 30
0.0
 11
61.724603
 21
202.936848
 31
0.0
  0
LINE
  5
2E9
100
AcDbEntity
  8
LAY-2
  6
CONTINUOUS
 62
     6
100
AcDbLine
 10
61.088099
 20
196.2549
 30
0.0
 11
61.724603
 21
196.2549
 31
0.0
  0
LINE
  5
2EA
100
AcDbEntity
  8
LAY-2
  6
CONTINUOUS
 62
     6
100
AcDbLine
 10
61.088099
 20
190.1049
 30
0.0
 11
61.724603
 21
190.1049
 31
0.0
  0
ARC
  5
2EB
100
AcDbEntity
  8
LAY-2
  6
CONTINUOUS
 62
     6
100
AcDbCircle
 10
81.138099
 20
209.1299
 30
0.0
 40
33.5
100
AcDbArc
 50
237.442386
 51
274.684626
  0
ARC
  5
2EC
100
AcDbEntity
  8
LAY-2
  6
CONTINUOUS
 62
     6
100
AcDbCircle
 10
81.138099
 20
209.1299
 30
0.0
 40
32.7
100
AcDbArc
 50
236.428296
 51
274.684626
  0
ARC
  5
2ED
100
AcDbEntity
  8
LAY-2
  6
CONTINUOUS
 62
     6
100
AcDbCircle
 10
82.028314
 20
198.266313
 30
0.0
 40
22.6
100
AcDbArc
 50
274.684626
 51
329.426629
  0
ARC
  5
2EE
100
AcDbEntity
  8
LAY-2
  6
CONTINUOUS
 62
     6
100
AcDbCircle
 10
82.028314
 20
198.266313
 30
0.0
 40
21.8
100
AcDbArc
 50
274.684626
 51
329.426629
  0
ARC
  5
2EF
100
AcDbEntity
  8
LAY-2
  6
CONTINUOUS
 62
     6
100
AcDbCircle
 10
82.028314
 20
188.093487
 30
0.0
 40
22.6
100
AcDbArc
 50
30.573371
 51
85.315374
  0
ARC
  5
2F0
100
AcDbEntity
  8
LAY-2
  6
CONTINUOUS
 62
     6
100
AcDbCircle
 10
82.028314
 20
188.093487
 30
0.0
 40
21.8
100
AcDbArc
 50
30.573371
 51
85.315374
  0
ARC
  5
2F1
100
AcDbEntity
  8
LAY-2
  6
CONTINUOUS
 62
     6
100
AcDbCircle
 10
64.4381
 20
202.392372
 30
0.0
 40
2.5
100
AcDbArc
 50
123.571704
 51
180.0
  0
ARC
  5
2F2
100
AcDbEntity
  8
LAY-2
  6
CONTINUOUS
 62
     6
100
AcDbCircle
 10
64.4381
 20
183.967428
 30
0.0
 40
2.5
100
AcDbArc
 50
180.0
 51
236.428296
  0
ARC
  5
2F3
100
AcDbEntity
  8
LAY-2
  6
CONTINUOUS
 62
     6
100
AcDbCircle
 10
64.724603
 20
202.936848
 30
0.0
 40
3.0
100
AcDbArc
 50
122.557614
 51
180.0
  0
ARC
  5
2F4
100
AcDbEntity
  8
LAY-2
  6
CONTINUOUS
 62
     6
100
AcDbCircle
 10
64.724603
 20
183.422953
 30
0.0
 40
3.0
100
AcDbArc
 50
180.0
 51
237.442386
  0
ARC
  5
2F5
100
AcDbEntity
  8
LAY-2
  6
CONTINUOUS
 62
     6
100
AcDbCircle
 10
81.138099
 20
176.5299
 30
0.0
 40
35.0
100
AcDbArc
 50
85.251802
 51
117.689613
  0
ARC
  5
2F6
100
AcDbEntity
  8
LAY-2
  6
CONTINUOUS
 62
     6
100
AcDbCircle
 10
81.138099
 20
209.8299
 30
0.0
 40
35.0
100
AcDbArc
 50
242.310387
 51
274.748198
  0
ARC
  5
2F7
100
AcDbEntity
  8
LAY-2
  6
CONTINUOUS
 62
     6
100
AcDbCircle
 10
82.090033
 20
198.369367
 30
0.0
 40
23.5
100
AcDbArc
 50
274.748198
 51
328.738377
  0
ARC
  5
2F8
100
AcDbEntity
  8
LAY-2
  6
CONTINUOUS
 62
     6
100
AcDbCircle
 10
82.090033
 20
187.990433
 30
0.0
 40
23.5
100
AcDbArc
 50
31.261623
 51
85.251802
  0
ARC
  5
2F9
100
AcDbEntity
  8
LAY-2
  6
CONTINUOUS
 62
     6
100
AcDbCircle
 10
66.03595
 20
205.307931
 30
0.0
 40
2.5
100
AcDbArc
 50
117.689613
 51
169.629498
  0
ARC
  5
2FA
100
AcDbEntity
  8
LAY-2
  6
CONTINUOUS
 62
     6
100
AcDbCircle
 10
66.03595
 20
181.051869
 30
0.0
 40
2.5
100
AcDbArc
 50
190.370502
 51
242.310387
  0
ARC
  5
2FB
100
AcDbEntity
  8
LAY-2
  6
CONTINUOUS
 62
     6
100
AcDbCircle
 10
88.631332
 20
193.1799
 30
0.0
 40
14.372978
100
AcDbArc
 50
334.0031
 51
25.9969
  0
LINE
  5
2FC
100
AcDbEntity
  8
LAY-2
  6
CONTINUOUS
 62
     6
100
AcDbLine
 10
57.038002
 20
200.1799
 30
0.0
 11
62.238197
 21
200.1799
 31
0.0
  0
LINE
  5
2FD
100
AcDbEntity
  8
LAY-2
  6
CONTINUOUS
 62
     6
100
AcDbLine
 10
59.6381
 20
197.579803
 30
0.0
 11
59.6381
 21
202.779998
 31
0.0
  0
LINE
  5
2FE
100
AcDbEntity
  8
LAY-2
  6
CONTINUOUS
 62
     6
100
AcDbLine
 10
57.038002
 20
186.1799
 30
0.0
 11
62.238197
 21
186.1799
 31
0.0
  0
LINE
  5
2FF
100
AcDbEntity
  8
LAY-2
  6
CONTINUOUS
 62
     6
100
AcDbLine
 10
59.6381
 20
188.779998
 30
0.0
 11
59.6381
 21
183.579803
 31
0.0
  0
ARC
  5
300
100
AcDbEntity
  8
LAY-2
  6
CONTINUOUS
 62
     6
100
AcDbCircle
 10
148.0
 20
118.036391
 30
0.0
 40
1.25
100
AcDbArc
 50
0.0
 51
61.314598
  0
ARC
  5
301
100
AcDbEntity
  8
LAY-2
  6
CONTINUOUS
 62
     6
100
AcDbCircle
 10
148.0
 20
118.036391
 30
0.0
 40
1.25
100
AcDbArc
 50
118.685402
 51
180.0
  0
LINE
  5
302
100
AcDbEntity
  8
LAY-2
  6
CONTINUOUS
 62
     6
100
AcDbLine
 10
147.4
 20
119.136391
 30
0.0
 11
148.6
 21
119.136391
 31
0.0
  0
LINE
  5
303
100
AcDbEntity
  8
LAY-2
  6
CONTINUOUS
 62
     6
100
AcDbLine
 10
146.75
 20
118.036391
 30
0.0
 11
149.25
 21
118.036391
 31
0.0
  0
LINE
  5
304
100
AcDbEntity
  8
LAY-2
  6
CONTINUOUS
 62
     6
100
AcDbLine
 10
146.75
 20
117.986391
 30
0.0
 11
149.25
 21
117.986391
 31
0.0
  0
LINE
  5
305
100
AcDbEntity
  8
LAY-2
  6
CONTINUOUS
 62
     6
100
AcDbLine
 10
146.75
 20
117.786391
 30
0.0
 11
149.25
 21
117.786391
 31
0.0
  0
LINE
  5
306
100
AcDbEntity
  8
LAY-2
  6
CONTINUOUS
 62
     6
100
AcDbLine
 10
147.4
 20
119.636391
 30
0.0
 11
148.6
 21
119.636391
 31
0.0
  0
LINE
  5
307
100
AcDbEntity
  8
LAY-2
  6
CONTINUOUS
 62
     6
100
AcDbLine
 10
147.5
 20
119.636391
 30
0.0
 11
147.4
 21
119.809596
 31
0.0
  0
LINE
  5
308
100
AcDbEntity
  8
LAY-2
  6
CONTINUOUS
 62
     6
100
AcDbLine
 10
148.5
 20
119.636391
 30
0.0
 11
148.6
 21
119.809596
 31
0.0
  0
LINE
  5
309
100
AcDbEntity
  8
LAY-2
  6
CONTINUOUS
 62
     6
100
AcDbLine
 10
147.5
 20
114.636391
 30
0.0
 11
148.5
 21
114.636391
 31
0.0
  0
LINE
  5
30A
100
AcDbEntity
  8
LAY-2
  6
CONTINUOUS
 62
     6
100
AcDbLine
 10
147.5
 20
114.736391
 30
0.0
 11
148.5
 21
114.736391
 31
0.0
  0
LINE
  5
30B
100
AcDbEntity
  8
LAY-2
  6
CONTINUOUS
 62
     6
100
AcDbLine
 10
148.6
 20
114.794126
 30
0.0
 11
147.4
 21
114.794126
 31
0.0
  0
LINE
  5
30C
100
AcDbEntity
  8
LAY-2
  6
CONTINUOUS
 62
     6
100
AcDbLine
 10
147.5
 20
114.736391
 30
0.0
 11
147.4
 21
114.794126
 31
0.0
  0
LINE
  5
30D
100
AcDbEntity
  8
LAY-2
  6
CONTINUOUS
 62
     6
100
AcDbLine
 10
148.5
 20
114.736391
 30
0.0
 11
148.6
 21
114.794126
 31
0.0
  0
LINE
  5
30E
100
AcDbEntity
  8
LAY-2
  6
CONTINUOUS
 62
     6
100
AcDbLine
 10
147.4
 20
114.794126
 30
0.0
 11
147.4
 21
116.786391
 31
0.0
  0
LINE
  5
30F
100
AcDbEntity
  8
LAY-2
  6
CONTINUOUS
 62
     6
100
AcDbLine
 10
147.5
 20
114.636391
 30
0.0
 11
147.5
 21
116.786391
 31
0.0
  0
LINE
  5
310
100
AcDbEntity
  8
LAY-2
  6
CONTINUOUS
 62
     6
100
AcDbLine
 10
147.5
 20
119.136391
 30
0.0
 11
147.5
 21
119.636391
 31
0.0
  0
LINE
  5
311
100
AcDbEntity
  8
LAY-2
  6
CONTINUOUS
 62
     6
100
AcDbLine
 10
148.5
 20
119.636391
 30
0.0
 11
148.5
 21
119.136391
 31
0.0
  0
LINE
  5
312
100
AcDbEntity
  8
LAY-2
  6
CONTINUOUS
 62
     6
100
AcDbLine
 10
148.5
 20
116.786391
 30
0.0
 11
148.5
 21
114.636391
 31
0.0
  0
LINE
  5
313
100
AcDbEntity
  8
LAY-2
  6
CONTINUOUS
 62
     6
100
AcDbLine
 10
148.6
 20
116.786391
 30
0.0
 11
148.6
 21
114.794126
 31
0.0
  0
LINE
  5
314
100
AcDbEntity
  8
LAY-2
  6
CONTINUOUS
 62
     6
100
AcDbLine
 10
147.077239
 20
117.036391
 30
0.0
 11
147.15
 21
116.786391
 31
0.0
  0
LINE
  5
315
100
AcDbEntity
  8
LAY-2
  6
CONTINUOUS
 62
     6
100
AcDbLine
 10
148.922761
 20
117.036391
 30
0.0
 11
148.85
 21
116.786391
 31
0.0
  0
LINE
  5
316
100
AcDbEntity
  8
LAY-2
  6
CONTINUOUS
 62
     6
100
AcDbLine
 10
147.15
 20
116.786391
 30
0.0
 11
148.85
 21
116.786391
 31
0.0
  0
ARC
  5
317
100
AcDbEntity
  8
LAY-2
  6
CONTINUOUS
 62
     6
100
AcDbCircle
 10
148.0
 20
117.628415
 30
0.0
 40
0.842024
100
AcDbArc
 50
224.675943
 51
315.324057
  0
LINE
  5
318
100
AcDbEntity
  8
LAY-2
  6
CONTINUOUS
 62
     6
100
AcDbLine
 10
147.077239
 20
117.036391
 30
0.0
 11
147.401241
 21
117.036391
 31
0.0
  0
LINE
  5
319
100
AcDbEntity
  8
LAY-2
  6
CONTINUOUS
 62
     6
100
AcDbLine
 10
148.598759
 20
117.036391
 30
0.0
 11
148.922761
 21
117.036391
 31
0.0
  0
LINE
  5
31A
100
AcDbEntity
  8
LAY-2
  6
CONTINUOUS
 62
     6
100
AcDbLine
 10
147.077239
 20
117.036391
 30
0.0
 11
147.077239
 21
117.786391
 31
0.0
  0
LINE
  5
31B
100
AcDbEntity
  8
LAY-2
  6
CONTINUOUS
 62
     6
100
AcDbLine
 10
147.401241
 20
117.036391
 30
0.0
 11
147.401241
 21
117.786391
 31
0.0
  0
LINE
  5
31C
100
AcDbEntity
  8
LAY-2
  6
CONTINUOUS
 62
     6
100
AcDbLine
 10
148.598759
 20
117.036391
 30
0.0
 11
148.598759
 21
117.786391
 31
0.0
  0
LINE
  5
31D
100
AcDbEntity
  8
LAY-2
  6
CONTINUOUS
 62
     6
100
AcDbLine
 10
148.922761
 20
117.036391
 30
0.0
 11
148.922761
 21
117.786391
 31
0.0
  0
LINE
  5
31E
100
AcDbEntity
  8
LAY-2
  6
CONTINUOUS
 62
     6
100
AcDbLine
 10
146.75
 20
117.786391
 30
0.0
 11
146.75
 21
118.036391
 31
0.0
  0
LINE
  5
31F
100
AcDbEntity
  8
LAY-2
  6
CONTINUOUS
 62
     6
100
AcDbLine
 10
149.25
 20
117.786391
 30
0.0
 11
149.25
 21
118.036391
 31
0.0
  0
ARC
  5
320
100
AcDbEntity
  8
LAY-2
  6
CONTINUOUS
 62
     6
100
AcDbCircle
 10
162.0
 20
118.036391
 30
0.0
 40
1.25
100
AcDbArc
 50
0.0
 51
61.314598
  0
ARC
  5
321
100
AcDbEntity
  8
LAY-2
  6
CONTINUOUS
 62
     6
100
AcDbCircle
 10
162.0
 20
118.036391
 30
0.0
 40
1.25
100
AcDbArc
 50
118.685402
 51
180.0
  0
LINE
  5
322
100
AcDbEntity
  8
LAY-2
  6
CONTINUOUS
 62
     6
100
AcDbLine
 10
161.4
 20
119.136391
 30
0.0
 11
162.6
 21
119.136391
 31
0.0
  0
LINE
  5
323
100
AcDbEntity
  8
LAY-2
  6
CONTINUOUS
 62
     6
100
AcDbLine
 10
160.75
 20
118.036391
 30
0.0
 11
163.25
 21
118.036391
 31
0.0
  0
LINE
  5
324
100
AcDbEntity
  8
LAY-2
  6
CONTINUOUS
 62
     6
100
AcDbLine
 10
160.75
 20
117.986391
 30
0.0
 11
163.25
 21
117.986391
 31
0.0
  0
LINE
  5
325
100
AcDbEntity
  8
LAY-2
  6
CONTINUOUS
 62
     6
100
AcDbLine
 10
160.75
 20
117.786391
 30
0.0
 11
163.25
 21
117.786391
 31
0.0
  0
LINE
  5
326
100
AcDbEntity
  8
LAY-2
  6
CONTINUOUS
 62
     6
100
AcDbLine
 10
161.4
 20
119.636391
 30
0.0
 11
162.6
 21
119.636391
 31
0.0
  0
LINE
  5
327
100
AcDbEntity
  8
LAY-2
  6
CONTINUOUS
 62
     6
100
AcDbLine
 10
161.5
 20
119.636391
 30
0.0
 11
161.4
 21
119.809596
 31
0.0
  0
LINE
  5
328
100
AcDbEntity
  8
LAY-2
  6
CONTINUOUS
 62
     6
100
AcDbLine
 10
162.5
 20
119.636391
 30
0.0
 11
162.6
 21
119.809596
 31
0.0
  0
LINE
  5
329
100
AcDbEntity
  8
LAY-2
  6
CONTINUOUS
 62
     6
100
AcDbLine
 10
161.5
 20
114.636391
 30
0.0
 11
162.5
 21
114.636391
 31
0.0
  0
LINE
  5
32A
100
AcDbEntity
  8
LAY-2
  6
CONTINUOUS
 62
     6
100
AcDbLine
 10
161.5
 20
114.736391
 30
0.0
 11
162.5
 21
114.736391
 31
0.0
  0
LINE
  5
32B
100
AcDbEntity
  8
LAY-2
  6
CONTINUOUS
 62
     6
100
AcDbLine
 10
162.6
 20
114.794126
 30
0.0
 11
161.4
 21
114.794126
 31
0.0
  0
LINE
  5
32C
100
AcDbEntity
  8
LAY-2
  6
CONTINUOUS
 62
     6
100
AcDbLine
 10
161.5
 20
114.736391
 30
0.0
 11
161.4
 21
114.794126
 31
0.0
  0
LINE
  5
32D
100
AcDbEntity
  8
LAY-2
  6
CONTINUOUS
 62
     6
100
AcDbLine
 10
162.5
 20
114.736391
 30
0.0
 11
162.6
 21
114.794126
 31
0.0
  0
LINE
  5
32E
100
AcDbEntity
  8
LAY-2
  6
CONTINUOUS
 62
     6
100
AcDbLine
 10
161.4
 20
114.794126
 30
0.0
 11
161.4
 21
116.786391
 31
0.0
  0
LINE
  5
32F
100
AcDbEntity
  8
LAY-2
  6
CONTINUOUS
 62
     6
100
AcDbLine
 10
161.5
 20
114.636391
 30
0.0
 11
161.5
 21
116.786391
 31
0.0
  0
LINE
  5
330
100
AcDbEntity
  8
LAY-2
  6
CONTINUOUS
 62
     6
100
AcDbLine
 10
161.5
 20
119.136391
 30
0.0
 11
161.5
 21
119.636391
 31
0.0
  0
LINE
  5
331
100
AcDbEntity
  8
LAY-2
  6
CONTINUOUS
 62
     6
100
AcDbLine
 10
162.5
 20
119.636391
 30
0.0
 11
162.5
 21
119.136391
 31
0.0
  0
LINE
  5
332
100
AcDbEntity
  8
LAY-2
  6
CONTINUOUS
 62
     6
100
AcDbLine
 10
162.5
 20
116.786391
 30
0.0
 11
162.5
 21
114.636391
 31
0.0
  0
LINE
  5
333
100
AcDbEntity
  8
LAY-2
  6
CONTINUOUS
 62
     6
100
AcDbLine
 10
162.6
 20
116.786391
 30
0.0
 11
162.6
 21
114.794126
 31
0.0
  0
LINE
  5
334
100
AcDbEntity
  8
LAY-2
  6
CONTINUOUS
 62
     6
100
AcDbLine
 10
161.077239
 20
117.036391
 30
0.0
 11
161.15
 21
116.786391
 31
0.0
  0
LINE
  5
335
100
AcDbEntity
  8
LAY-2
  6
CONTINUOUS
 62
     6
100
AcDbLine
 10
162.922761
 20
117.036391
 30
0.0
 11
162.85
 21
116.786391
 31
0.0
  0
LINE
  5
336
100
AcDbEntity
  8
LAY-2
  6
CONTINUOUS
 62
     6
100
AcDbLine
 10
161.15
 20
116.786391
 30
0.0
 11
162.85
 21
116.786391
 31
0.0
  0
ARC
  5
337
100
AcDbEntity
  8
LAY-2
  6
CONTINUOUS
 62
     6
100
AcDbCircle
 10
162.0
 20
117.628415
 30
0.0
 40
0.842024
100
AcDbArc
 50
224.675943
 51
315.324057
  0
LINE
  5
338
100
AcDbEntity
  8
LAY-2
  6
CONTINUOUS
 62
     6
100
AcDbLine
 10
161.077239
 20
117.036391
 30
0.0
 11
161.401241
 21
117.036391
 31
0.0
  0
LINE
  5
339
100
AcDbEntity
  8
LAY-2
  6
CONTINUOUS
 62
     6
100
AcDbLine
 10
162.598759
 20
117.036391
 30
0.0
 11
162.922761
 21
117.036391
 31
0.0
  0
LINE
  5
33A
100
AcDbEntity
  8
LAY-2
  6
CONTINUOUS
 62
     6
100
AcDbLine
 10
161.077239
 20
117.036391
 30
0.0
 11
161.077239
 21
117.786391
 31
0.0
  0
LINE
  5
33B
100
AcDbEntity
  8
LAY-2
  6
CONTINUOUS
 62
     6
100
AcDbLine
 10
161.401241
 20
117.036391
 30
0.0
 11
161.401241
 21
117.786391
 31
0.0
  0
LINE
  5
33C
100
AcDbEntity
  8
LAY-2
  6
CONTINUOUS
 62
     6
100
AcDbLine
 10
162.598759
 20
117.036391
 30
0.0
 11
162.598759
 21
117.786391
 31
0.0
  0
LINE
  5
33D
100
AcDbEntity
  8
LAY-2
  6
CONTINUOUS
 62
     6
100
AcDbLine
 10
162.922761
 20
117.036391
 30
0.0
 11
162.922761
 21
117.786391
 31
0.0
  0
LINE
  5
33E
100
AcDbEntity
  8
LAY-2
  6
CONTINUOUS
 62
     6
100
AcDbLine
 10
160.75
 20
117.786391
 30
0.0
 11
160.75
 21
118.036391
 31
0.0
  0
LINE
  5
33F
100
AcDbEntity
  8
LAY-2
  6
CONTINUOUS
 62
     6
100
AcDbLine
 10
163.25
 20
117.786391
 30
0.0
 11
163.25
 21
118.036391
 31
0.0
  0
LINE
  5
340
100
AcDbEntity
  8
LAY-2
  6
CONTINUOUS
 62
     6
100
AcDbLine
 10
147.4
 20
119.136391
 30
0.0
 11
147.4
 21
121.236391
 31
0.0
  0
LINE
  5
341
100
AcDbEntity
  8
LAY-2
  6
CONTINUOUS
 62
     6
100
AcDbLine
 10
148.6
 20
121.236391
 30
0.0
 11
148.6
 21
119.136391
 31
0.0
  0
LINE
  5
342
100
AcDbEntity
  8
LAY-2
  6
CONTINUOUS
 62
     6
100
AcDbLine
 10
161.4
 20
119.136391
 30
0.0
 11
161.4
 21
121.236391
 31
0.0
  0
LINE
  5
343
100
AcDbEntity
  8
LAY-2
  6
CONTINUOUS
 62
     6
100
AcDbLine
 10
162.6
 20
121.236391
 30
0.0
 11
162.6
 21
119.136391
 31
0.0
  0
ARC
  5
344
100
AcDbEntity
  8
LAY-2
  6
CONTINUOUS
 62
     6
100
AcDbCircle
 10
59.6381
 20
118.036391
 30
0.0
 40
1.25
100
AcDbArc
 50
0.0
 51
61.314598
  0
ARC
  5
345
100
AcDbEntity
  8
LAY-2
  6
CONTINUOUS
 62
     6
100
AcDbCircle
 10
59.6381
 20
118.036391
 30
0.0
 40
1.25
100
AcDbArc
 50
118.685402
 51
180.0
  0
LINE
  5
346
100
AcDbEntity
  8
LAY-2
  6
CONTINUOUS
 62
     6
100
AcDbLine
 10
59.0381
 20
119.136391
 30
0.0
 11
60.238099
 21
119.136391
 31
0.0
  0
LINE
  5
347
100
AcDbEntity
  8
LAY-2
  6
CONTINUOUS
 62
     6
100
AcDbLine
 10
58.3881
 20
118.036391
 30
0.0
 11
60.8881
 21
118.036391
 31
0.0
  0
LINE
  5
348
100
AcDbEntity
  8
LAY-2
  6
CONTINUOUS
 62
     6
100
AcDbLine
 10
58.3881
 20
117.986391
 30
0.0
 11
60.8881
 21
117.986391
 31
0.0
  0
LINE
  5
349
100
AcDbEntity
  8
LAY-2
  6
CONTINUOUS
 62
     6
100
AcDbLine
 10
58.3881
 20
117.786391
 30
0.0
 11
60.8881
 21
117.786391
 31
0.0
  0
LINE
  5
34A
100
AcDbEntity
  8
LAY-2
  6
CONTINUOUS
 62
     6
100
AcDbLine
 10
59.0381
 20
119.636391
 30
0.0
 11
60.238099
 21
119.636391
 31
0.0
  0
LINE
  5
34B
100
AcDbEntity
  8
LAY-2
  6
CONTINUOUS
 62
     6
100
AcDbLine
 10
59.1381
 20
119.636391
 30
0.0
 11
59.0381
 21
119.809596
 31
0.0
  0
LINE
  5
34C
100
AcDbEntity
  8
LAY-2
  6
CONTINUOUS
 62
     6
100
AcDbLine
 10
60.1381
 20
119.636391
 30
0.0
 11
60.238099
 21
119.809596
 31
0.0
  0
LINE
  5
34D
100
AcDbEntity
  8
LAY-2
  6
CONTINUOUS
 62
     6
100
AcDbLine
 10
59.1381
 20
114.636391
 30
0.0
 11
60.1381
 21
114.636391
 31
0.0
  0
LINE
  5
34E
100
AcDbEntity
  8
LAY-2
  6
CONTINUOUS
 62
     6
100
AcDbLine
 10
59.1381
 20
114.736391
 30
0.0
 11
60.1381
 21
114.736391
 31
0.0
  0
LINE
  5
34F
100
AcDbEntity
  8
LAY-2
  6
CONTINUOUS
 62
     6
100
AcDbLine
 10
60.238099
 20
114.794126
 30
0.0
 11
59.0381
 21
114.794126
 31
0.0
  0
LINE
  5
350
100
AcDbEntity
  8
LAY-2
  6
CONTINUOUS
 62
     6
100
AcDbLine
 10
59.1381
 20
114.736391
 30
0.0
 11
59.0381
 21
114.794126
 31
0.0
  0
LINE
  5
351
100
AcDbEntity
  8
LAY-2
  6
CONTINUOUS
 62
     6
100
AcDbLine
 10
60.1381
 20
114.736391
 30
0.0
 11
60.238099
 21
114.794126
 31
0.0
  0
LINE
  5
352
100
AcDbEntity
  8
LAY-2
  6
CONTINUOUS
 62
     6
100
AcDbLine
 10
59.0381
 20
114.794126
 30
0.0
 11
59.0381
 21
116.786391
 31
0.0
  0
LINE
  5
353
100
AcDbEntity
  8
LAY-2
  6
CONTINUOUS
 62
     6
100
AcDbLine
 10
59.1381
 20
114.636391
 30
0.0
 11
59.1381
 21
116.786391
 31
0.0
  0
LINE
  5
354
100
AcDbEntity
  8
LAY-2
  6
CONTINUOUS
 62
     6
100
AcDbLine
 10
59.1381
 20
119.136391
 30
0.0
 11
59.1381
 21
119.636391
 31
0.0
  0
LINE
  5
355
100
AcDbEntity
  8
LAY-2
  6
CONTINUOUS
 62
     6
100
AcDbLine
 10
60.1381
 20
119.636391
 30
0.0
 11
60.1381
 21
119.136391
 31
0.0
  0
LINE
  5
356
100
AcDbEntity
  8
LAY-2
  6
CONTINUOUS
 62
     6
100
AcDbLine
 10
60.1381
 20
116.786391
 30
0.0
 11
60.1381
 21
114.636391
 31
0.0
  0
LINE
  5
357
100
AcDbEntity
  8
LAY-2
  6
CONTINUOUS
 62
     6
100
AcDbLine
 10
60.238099
 20
116.786391
 30
0.0
 11
60.238099
 21
114.794126
 31
0.0
  0
LINE
  5
358
100
AcDbEntity
  8
LAY-2
  6
CONTINUOUS
 62
     6
100
AcDbLine
 10
58.715338
 20
117.036391
 30
0.0
 11
58.7881
 21
116.786391
 31
0.0
  0
LINE
  5
359
100
AcDbEntity
  8
LAY-2
  6
CONTINUOUS
 62
     6
100
AcDbLine
 10
60.560861
 20
117.036391
 30
0.0
 11
60.488099
 21
116.786391
 31
0.0
  0
LINE
  5
35A
100
AcDbEntity
  8
LAY-2
  6
CONTINUOUS
 62
     6
100
AcDbLine
 10
58.7881
 20
116.786391
 30
0.0
 11
60.488099
 21
116.786391
 31
0.0
  0
ARC
  5
35B
100
AcDbEntity
  8
LAY-2
  6
CONTINUOUS
 62
     6
100
AcDbCircle
 10
59.6381
 20
117.628415
 30
0.0
 40
0.842024
100
AcDbArc
 50
224.675943
 51
315.324057
  0
LINE
  5
35C
100
AcDbEntity
  8
LAY-2
  6
CONTINUOUS
 62
     6
100
AcDbLine
 10
58.715338
 20
117.036391
 30
0.0
 11
59.039341
 21
117.036391
 31
0.0
  0
LINE
  5
35D
100
AcDbEntity
  8
LAY-2
  6
CONTINUOUS
 62
     6
100
AcDbLine
 10
60.236858
 20
117.036391
 30
0.0
 11
60.560861
 21
117.036391
 31
0.0
  0
LINE
  5
35E
100
AcDbEntity
  8
LAY-2
  6
CONTINUOUS
 62
     6
100
AcDbLine
 10
58.715338
 20
117.036391
 30
0.0
 11
58.715338
 21
117.786391
 31
0.0
  0
LINE
  5
35F
100
AcDbEntity
  8
LAY-2
  6
CONTINUOUS
 62
     6
100
AcDbLine
 10
59.039341
 20
117.036391
 30
0.0
 11
59.039341
 21
117.786391
 31
0.0
  0
LINE
  5
360
100
AcDbEntity
  8
LAY-2
  6
CONTINUOUS
 62
     6
100
AcDbLine
 10
60.236858
 20
117.036391
 30
0.0
 11
60.236858
 21
117.786391
 31
0.0
  0
LINE
  5
361
100
AcDbEntity
  8
LAY-2
  6
CONTINUOUS
 62
     6
100
AcDbLine
 10
60.560861
 20
117.036391
 30
0.0
 11
60.560861
 21
117.786391
 31
0.0
  0
LINE
  5
362
100
AcDbEntity
  8
LAY-2
  6
CONTINUOUS
 62
     6
100
AcDbLine
 10
58.3881
 20
117.786391
 30
0.0
 11
58.3881
 21
118.036391
 31
0.0
  0
LINE
  5
363
100
AcDbEntity
  8
LAY-2
  6
CONTINUOUS
 62
     6
100
AcDbLine
 10
60.8881
 20
117.786391
 30
0.0
 11
60.8881
 21
118.036391
 31
0.0
  0
LINE
  5
364
100
AcDbEntity
  8
LAY-2
  6
CONTINUOUS
 62
     6
100
AcDbLine
 10
59.0381
 20
119.136391
 30
0.0
 11
59.0381
 21
121.236391
 31
0.0
  0
LINE
  5
365
100
AcDbEntity
  8
LAY-2
  6
CONTINUOUS
 62
     6
100
AcDbLine
 10
60.238099
 20
121.236391
 30
0.0
 11
60.238099
 21
119.136391
 31
0.0
  0
LINE
  5
366
100
AcDbEntity
  8
LAY-2
  6
EXLTYPE3
 62
     1
100
AcDbLine
 10
59.088099
 20
193.1799
 30
0.0
 11
106.1381
 21
193.1799
 31
0.0
  0
ARC
  5
367
100
AcDbEntity
  8
LAY-2
  6
EXLTYPE2
 62
     6
100
AcDbCircle
 10
90.638099
 20
193.1799
 30
0.0
 40
6.5
100
AcDbArc
 50
319.752332
 51
40.247668
  0
ARC
  5
368
100
AcDbEntity
  8
LAY-2
  6
EXLTYPE2
 62
     6
100
AcDbCircle
 10
81.6881
 20
193.1799
 30
0.0
 40
12.0
100
AcDbArc
 50
143.48141
 51
216.51859
  0
ARC
  5
369
100
AcDbEntity
  8
LAY-2
  6
EXLTYPE2
 62
     6
100
AcDbCircle
 10
81.138099
 20
203.8299
 30
0.0
 40
21.3
100
AcDbArc
 50
258.442572
 51
282.647176
  0
ARC
  5
36A
100
AcDbEntity
  8
LAY-2
  6
EXLTYPE2
 62
     6
100
AcDbCircle
 10
78.473444
 20
190.799566
 30
0.0
 40
8.0
100
AcDbArc
 50
216.51859
 51
258.442572
  0
ARC
  5
36B
100
AcDbEntity
  8
LAY-2
  6
EXLTYPE2
 62
     6
100
AcDbCircle
 10
81.860624
 20
200.609969
 30
0.0
 40
18.0
100
AcDbArc
 50
282.647176
 51
319.752332
  0
ARC
  5
36C
100
AcDbEntity
  8
LAY-2
  6
EXLTYPE2
 62
     6
100
AcDbCircle
 10
81.860624
 20
185.749832
 30
0.0
 40
18.0
100
AcDbArc
 50
40.247668
 51
77.352824
  0
ARC
  5
36D
100
AcDbEntity
  8
LAY-2
  6
EXLTYPE2
 62
     6
100
AcDbCircle
 10
81.138099
 20
182.5299
 30
0.0
 40
21.3
100
AcDbArc
 50
77.352824
 51
101.557428
  0
ARC
  5
36E
100
AcDbEntity
  8
LAY-2
  6
EXLTYPE2
 62
     6
100
AcDbCircle
 10
78.473444
 20
195.560235
 30
0.0
 40
8.0
100
AcDbArc
 50
101.557428
 51
143.48141
  0
LINE
  5
36F
100
AcDbEntity
  8
LAY-2
  6
CONTINUOUS
 62
     6
100
AcDbLine
 10
57.238106
 20
121.236391
 30
0.0
 11
62.538002
 21
121.236391
 31
0.0
  0
LINE
  5
370
100
AcDbEntity
  8
LAY-2
  6
CONTINUOUS
 62
     6
100
AcDbLine
 10
73.984779
 20
121.236346
 30
0.0
 11
76.004066
 21
121.236346
 31
0.0
  0
LINE
  5
371
100
AcDbEntity
  8
LAY-2
  6
CONTINUOUS
 62
     6
100
AcDbLine
 10
90.376869
 20
121.236346
 30
0.0
 11
92.772133
 21
121.236346
 31
0.0
  0
LINE
  5
372
100
AcDbEntity
  8
LAY-2
  6
CONTINUOUS
 62
     6
100
AcDbLine
 10
138.963867
 20
121.236391
 30
0.0
 11
144.777344
 21
121.236391
 31
0.0
  0
LINE
  5
373
100
AcDbEntity
  8
LAY-2
  6
CONTINUOUS
 62
     6
100
AcDbLine
 10
146.812988
 20
121.236391
 30
0.0
 11
149.812988
 21
121.236391
 31
0.0
  0
LINE
  5
374
100
AcDbEntity
  8
LAY-2
  6
CONTINUOUS
 62
     6
100
AcDbLine
 10
160.212891
 20
121.236391
 30
0.0
 11
163.212891
 21
121.236391
 31
0.0
  0
LINE
  5
375
100
AcDbEntity
  8
LAY-2
  6
CONTINUOUS
 62
     6
100
AcDbLine
 10
165.248535
 20
121.236391
 30
0.0
 11
171.062256
 21
121.236391
 31
0.0
  0
LINE
  5
376
100
AcDbEntity
  8
LAY-3
  6
CONTINUOUS
 62
     3
100
AcDbLine
 10
104.1381
 20
220.0299
 30
0.0
 11
104.1381
 21
194.6799
 31
0.0
  0
LINE
  5
377
100
AcDbEntity
  8
LAY-3
  6
CONTINUOUS
 62
     3
100
AcDbLine
 10
97.138099
 20
191.6799
 30
0.0
 11
97.138099
 21
164.8299
 31
0.0
  0
LINE
  5
378
100
AcDbEntity
  8
LAY-3
  6
CONTINUOUS
 62
     3
100
AcDbLine
 10
69.6881
 20
191.6799
 30
0.0
 11
69.6881
 21
164.8299
 31
0.0
  0
LINE
  5
379
100
AcDbEntity
  8
LAY-3
  6
CONTINUOUS
 62
     3
100
AcDbLine
 10
82.638099
 20
203.8299
 30
0.0
 11
89.2
 21
203.8299
 31
0.0
  0
LINE
  5
37A
100
AcDbEntity
  8
LAY-3
  6
CONTINUOUS
 62
     3
100
AcDbLine
 10
82.638099
 20
182.5299
 30
0.0
 11
89.2
 21
182.5299
 31
0.0
  0
LINE
  5
37B
100
AcDbEntity
  8
LAY-3
  6
CONTINUOUS
 62
     3
100
AcDbLine
 10
82.638099
 20
211.5299
 30
0.0
 11
114.1381
 21
211.5299
 31
0.0
  0
LINE
  5
37C
100
AcDbEntity
  8
LAY-3
  6
CONTINUOUS
 62
     3
100
AcDbLine
 10
82.638099
 20
174.8299
 30
0.0
 11
114.1381
 21
174.8299
 31
0.0
  0
LINE
  5
37D
100
AcDbEntity
  8
LAY-3
  6
CONTINUOUS
 62
     3
100
AcDbLine
 10
59.6381
 20
202.779998
 30
0.0
 11
59.6381
 21
220.0299
 31
0.0
  0
LINE
  5
37E
100
AcDbEntity
  8
LAY-3
  6
CONTINUOUS
 62
     3
100
AcDbLine
 10
57.038002
 20
200.1799
 30
0.0
 11
49.5
 21
200.1799
 31
0.0
  0
LINE
  5
37F
100
AcDbEntity
  8
LAY-3
  6
CONTINUOUS
 62
     3
100
AcDbLine
 10
57.038002
 20
186.1799
 30
0.0
 11
49.5
 21
186.1799
 31
0.0
  0
TEXT
  5
380
100
AcDbEntity
  8
LAY-3
  6
CONTINUOUS
 62
     2
100
AcDbText
 10
75.9381
 20
218.3799
 30
0.0
 40
4.0
  1
^J４４５
 41
0.6545
  7
EXCADSTD
 72
     5
 11
87.838099
 21
218.3799
 31
0.0
100
AcDbText
  0
TEXT
  5
381
100
AcDbEntity
  8
LAY-3
  6
CONTINUOUS
 62
     2
100
AcDbText
 10
87.438099
 20
218.3799
 30
0.0
 40
4.0
  1
^J
 41
0.0
  7
EXCADSTD
 72
     5
 11
87.438099
 21
218.3799
 31
0.0
100
AcDbText
  0
LINE
  5
382
100
AcDbEntity
  8
LAY-3
  6
CONTINUOUS
 62
     3
100
AcDbLine
 10
59.6381
 20
218.0299
 30
0.0
 11
104.1381
 21
218.0299
 31
0.0
  0
LINE
  5
383
100
AcDbEntity
  8
LAY-3
  6
CONTINUOUS
 62
     3
100
AcDbLine
 10
63.1381
 20
218.613234
 30
0.0
 11
59.6381
 21
218.0299
 31
0.0
  0
LINE
  5
384
100
AcDbEntity
  8
LAY-3
  6
CONTINUOUS
 62
     3
100
AcDbLine
 10
59.6381
 20
218.0299
 30
0.0
 11
63.1381
 21
217.446567
 31
0.0
  0
LINE
  5
385
100
AcDbEntity
  8
LAY-3
  6
CONTINUOUS
 62
     3
100
AcDbLine
 10
100.6381
 20
217.446567
 30
0.0
 11
104.1381
 21
218.0299
 31
0.0
  0
LINE
  5
386
100
AcDbEntity
  8
LAY-3
  6
CONTINUOUS
 62
     3
100
AcDbLine
 10
104.1381
 20
218.0299
 30
0.0
 11
100.6381
 21
218.613234
 31
0.0
  0
TEXT
  5
387
100
AcDbEntity
  8
LAY-3
  6
CONTINUOUS
 62
     2
100
AcDbText
 10
86.85
 20
187.2299
 30
0.0
 40
4.0
  1
^J２１３
 50
90.0
 41
0.6545
  7
EXCADSTD
 72
     5
 11
86.85
 21
199.1299
 31
0.0
100
AcDbText
  0
TEXT
  5
388
100
AcDbEntity
  8
LAY-3
  6
CONTINUOUS
 62
     2
100
AcDbText
 10
86.85
 20
198.7299
 30
0.0
 40
4.0
  1
^J
 50
90.0
 41
0.0
  7
EXCADSTD
 72
     5
 11
86.85
 21
198.7299
 31
0.0
100
AcDbText
  0
LINE
  5
389
100
AcDbEntity
  8
LAY-3
  6
CONTINUOUS
 62
     3
100
AcDbLine
 10
87.2
 20
182.5299
 30
0.0
 11
87.2
 21
203.8299
 31
0.0
  0
LINE
  5
38A
100
AcDbEntity
  8
LAY-3
  6
CONTINUOUS
 62
     3
100
AcDbLine
 10
86.616667
 20
186.0299
 30
0.0
 11
87.2
 21
182.5299
 31
0.0
  0
LINE
  5
38B
100
AcDbEntity
  8
LAY-3
  6
CONTINUOUS
 62
     3
100
AcDbLine
 10
87.2
 20
182.5299
 30
0.0
 11
87.783333
 21
186.0299
 31
0.0
  0
LINE
  5
38C
100
AcDbEntity
  8
LAY-3
  6
CONTINUOUS
 62
     3
100
AcDbLine
 10
87.783333
 20
200.3299
 30
0.0
 11
87.2
 21
203.8299
 31
0.0
  0
LINE
  5
38D
100
AcDbEntity
  8
LAY-3
  6
CONTINUOUS
 62
     3
100
AcDbLine
 10
87.2
 20
203.8299
 30
0.0
 11
86.616667
 21
200.3299
 31
0.0
  0
TEXT
  5
38E
100
AcDbEntity
  8
LAY-3
  6
CONTINUOUS
 62
     2
100
AcDbText
 10
51.15
 20
187.2299
 30
0.0
 40
4.0
  1
^J１４０
 50
90.0
 41
0.6545
  7
EXCADSTD
 72
     5
 11
51.15
 21
199.1299
 31
0.0
100
AcDbText
  0
TEXT
  5
38F
100
AcDbEntity
  8
LAY-3
  6
CONTINUOUS
 62
     2
100
AcDbText
 10
51.15
 20
198.7299
 30
0.0
 40
4.0
  1
^J
 50
90.0
 41
0.0
  7
EXCADSTD
 72
     5
 11
51.15
 21
198.7299
 31
0.0
100
AcDbText
  0
LINE
  5
390
100
AcDbEntity
  8
LAY-3
  6
CONTINUOUS
 62
     3
100
AcDbLine
 10
51.5
 20
186.1799
 30
0.0
 11
51.5
 21
200.1799
 31
0.0
  0
LINE
  5
391
100
AcDbEntity
  8
LAY-3
  6
CONTINUOUS
 62
     3
100
AcDbLine
 10
50.916667
 20
189.6799
 30
0.0
 11
51.5
 21
186.1799
 31
0.0
  0
LINE
  5
392
100
AcDbEntity
  8
LAY-3
  6
CONTINUOUS
 62
     3
100
AcDbLine
 10
51.5
 20
186.1799
 30
0.0
 11
52.083333
 21
189.6799
 31
0.0
  0
LINE
  5
393
100
AcDbEntity
  8
LAY-3
  6
CONTINUOUS
 62
     3
100
AcDbLine
 10
52.083333
 20
196.6799
 30
0.0
 11
51.5
 21
200.1799
 31
0.0
  0
LINE
  5
394
100
AcDbEntity
  8
LAY-3
  6
CONTINUOUS
 62
     3
100
AcDbLine
 10
51.5
 20
200.1799
 30
0.0
 11
50.916667
 21
196.6799
 31
0.0
  0
TEXT
  5
395
100
AcDbEntity
  8
LAY-3
  6
CONTINUOUS
 62
     2
100
AcDbText
 10
74.5631
 20
167.1799
 30
0.0
 40
4.0
  1
^J２７４．５
 41
0.639167
  7
EXCADSTD
 72
     5
 11
92.263099
 21
167.1799
 31
0.0
100
AcDbText
  0
TEXT
  5
396
100
AcDbEntity
  8
LAY-3
  6
CONTINUOUS
 62
     2
100
AcDbText
 10
91.663099
 20
167.1799
 30
0.0
 40
4.0
  1
^J
 41
0.0
  7
EXCADSTD
 72
     5
 11
91.663099
 21
167.1799
 31
0.0
100
AcDbText
  0
LINE
  5
397
100
AcDbEntity
  8
LAY-3
  6
CONTINUOUS
 62
     3
100
AcDbLine
 10
69.6881
 20
166.8299
 30
0.0
 11
97.1381
 21
166.8299
 31
0.0
  0
LINE
  5
398
100
AcDbEntity
  8
LAY-3
  6
CONTINUOUS
 62
     3
100
AcDbLine
 10
73.1881
 20
167.413234
 30
0.0
 11
69.6881
 21
166.8299
 31
0.0
  0
LINE
  5
399
100
AcDbEntity
  8
LAY-3
  6
CONTINUOUS
 62
     3
100
AcDbLine
 10
69.6881
 20
166.8299
 30
0.0
 11
73.1881
 21
166.246567
 31
0.0
  0
LINE
  5
39A
100
AcDbEntity
  8
LAY-3
  6
CONTINUOUS
 62
     3
100
AcDbLine
 10
93.638099
 20
166.246567
 30
0.0
 11
97.138099
 21
166.8299
 31
0.0
  0
LINE
  5
39B
100
AcDbEntity
  8
LAY-3
  6
CONTINUOUS
 62
     3
100
AcDbLine
 10
97.138099
 20
166.8299
 30
0.0
 11
93.638099
 21
167.413234
 31
0.0
  0
TEXT
  5
39C
100
AcDbEntity
  8
LAY-3
  6
CONTINUOUS
 62
     2
100
AcDbText
 10
111.7881
 20
187.2299
 30
0.0
 40
4.0
  1
^J３６７
 50
90.0
 41
0.6545
  7
EXCADSTD
 72
     5
 11
111.7881
 21
199.1299
 31
0.0
100
AcDbText
  0
TEXT
  5
39D
100
AcDbEntity
  8
LAY-3
  6
CONTINUOUS
 62
     2
100
AcDbText
 10
111.7881
 20
198.7299
 30
0.0
 40
4.0
  1
^J
 50
90.0
 41
0.0
  7
EXCADSTD
 72
     5
 11
111.7881
 21
198.7299
 31
0.0
100
AcDbText
  0
LINE
  5
39E
100
AcDbEntity
  8
LAY-3
  6
CONTINUOUS
 62
     3
100
AcDbLine
 10
112.1381
 20
174.8299
 30
0.0
 11
112.1381
 21
211.5299
 31
0.0
  0
LINE
  5
39F
100
AcDbEntity
  8
LAY-3
  6
CONTINUOUS
 62
     3
100
AcDbLine
 10
111.554766
 20
178.3299
 30
0.0
 11
112.1381
 21
174.8299
 31
0.0
  0
LINE
  5
3A0
100
AcDbEntity
  8
LAY-3
  6
CONTINUOUS
 62
     3
100
AcDbLine
 10
112.1381
 20
174.8299
 30
0.0
 11
112.721433
 21
178.3299
 31
0.0
  0
LINE
  5
3A1
100
AcDbEntity
  8
LAY-3
  6
CONTINUOUS
 62
     3
100
AcDbLine
 10
112.721433
 20
208.0299
 30
0.0
 11
112.1381
 21
211.5299
 31
0.0
  0
LINE
  5
3A2
100
AcDbEntity
  8
LAY-3
  6
CONTINUOUS
 62
     3
100
AcDbLine
 10
112.1381
 20
211.5299
 30
0.0
 11
111.554766
 21
208.0299
 31
0.0
  0
LINE
  5
3A3
100
AcDbEntity
  8
LAY-3
  6
CONTINUOUS
 62
     3
100
AcDbLine
 10
62.1381
 20
111.3
 30
0.0
 11
62.1381
 21
124.93
 31
0.0
  0
LINE
  5
3A4
100
AcDbEntity
  8
LAY-3
  6
CONTINUOUS
 62
     3
100
AcDbLine
 10
104.1381
 20
111.3
 30
0.0
 11
104.1381
 21
121.536394
 31
0.0
  0
LINE
  5
3A5
100
AcDbEntity
  8
LAY-3
  6
CONTINUOUS
 62
     3
100
AcDbLine
 10
60.58
 20
123.536385
 30
0.0
 11
63.3
 21
123.536385
 31
0.0
  0
TEXT
  5
3A6
100
AcDbEntity
  8
LAY-3
  6
CONTINUOUS
 62
     2
100
AcDbText
 10
77.1881
 20
113.65
 30
0.0
 40
4.0
  1
^J４２０
 41
0.6545
  7
EXCADSTD
 72
     5
 11
89.088099
 21
113.65
 31
0.0
100
AcDbText
  0
TEXT
  5
3A7
100
AcDbEntity
  8
LAY-3
  6
CONTINUOUS
 62
     2
100
AcDbText
 10
88.688099
 20
113.65
 30
0.0
 40
4.0
  1
^J
 41
0.0
  7
EXCADSTD
 72
     5
 11
88.688099
 21
113.65
 31
0.0
100
AcDbText
  0
LINE
  5
3A8
100
AcDbEntity
  8
LAY-3
  6
CONTINUOUS
 62
     3
100
AcDbLine
 10
62.1381
 20
113.3
 30
0.0
 11
104.1381
 21
113.3
 31
0.0
  0
LINE
  5
3A9
100
AcDbEntity
  8
LAY-3
  6
CONTINUOUS
 62
     3
100
AcDbLine
 10
65.6381
 20
113.883333
 30
0.0
 11
62.1381
 21
113.3
 31
0.0
  0
LINE
  5
3AA
100
AcDbEntity
  8
LAY-3
  6
CONTINUOUS
 62
     3
100
AcDbLine
 10
62.1381
 20
113.3
 30
0.0
 11
65.638099
 21
112.716667
 31
0.0
  0
LINE
  5
3AB
100
AcDbEntity
  8
LAY-3
  6
CONTINUOUS
 62
     3
100
AcDbLine
 10
100.6381
 20
112.716667
 30
0.0
 11
104.1381
 21
113.3
 31
0.0
  0
LINE
  5
3AC
100
AcDbEntity
  8
LAY-3
  6
CONTINUOUS
 62
     3
100
AcDbLine
 10
104.1381
 20
113.3
 30
0.0
 11
100.6381
 21
113.883333
 31
0.0
  0
LINE
  5
3AD
100
AcDbEntity
  8
LAY-3
  6
EXLTYPE3
 62
     1
100
AcDbLine
 10
155.0
 20
129.836385
 30
0.0
 11
155.0
 21
119.0
 31
0.0
  0
LINE
  5
3AE
100
AcDbEntity
  8
LAY-3
  6
CONTINUOUS
 62
     3
100
AcDbLine
 10
153.0
 20
127.836385
 30
0.0
 11
128.65
 21
127.836385
 31
0.0
  0
LINE
  5
3AF
100
AcDbEntity
  8
LAY-3
  6
CONTINUOUS
 62
     3
100
AcDbLine
 10
137.463867
 20
121.236391
 30
0.0
 11
128.65
 21
121.236391
 31
0.0
  0
LINE
  5
3B0
100
AcDbEntity
  8
LAY-3
  6
CONTINUOUS
 62
     3
100
AcDbLine
 10
147.5
 20
114.636391
 30
0.0
 11
140.54
 21
114.636391
 31
0.0
  0
LINE
  5
3B1
100
AcDbEntity
  8
LAY-3
  6
CONTINUOUS
 62
     3
100
AcDbLine
 10
130.65
 20
116.736391
 30
0.0
 11
130.65
 21
132.336385
 31
0.0
  0
LINE
  5
3B2
100
AcDbEntity
  8
LAY-3
  6
CONTINUOUS
 62
     3
100
AcDbLine
 10
131.233333
 20
117.736391
 30
0.0
 11
130.65
 21
121.236391
 31
0.0
  0
LINE
  5
3B3
100
AcDbEntity
  8
LAY-3
  6
CONTINUOUS
 62
     3
100
AcDbLine
 10
130.65
 20
121.236391
 30
0.0
 11
130.066667
 21
117.736391
 31
0.0
  0
LINE
  5
3B4
100
AcDbEntity
  8
LAY-3
  6
CONTINUOUS
 62
     3
100
AcDbLine
 10
130.066667
 20
131.336385
 30
0.0
 11
130.65
 21
127.836385
 31
0.0
  0
LINE
  5
3B5
100
AcDbEntity
  8
LAY-3
  6
CONTINUOUS
 62
     3
100
AcDbLine
 10
130.65
 20
127.836385
 30
0.0
 11
131.233333
 21
131.336385
 31
0.0
  0
TEXT
  5
3B6
100
AcDbEntity
  8
LAY-3
  6
CONTINUOUS
 62
     2
100
AcDbText
 10
130.3
 20
120.436388
 30
0.0
 40
4.0
  1
^J６６
 50
90.0
 41
0.610444
  7
EXCADSTD
 72
     5
 11
130.3
 21
128.636388
 31
0.0
100
AcDbText
  0
TEXT
  5
3B7
100
AcDbEntity
  8
LAY-3
  6
CONTINUOUS
 62
     2
100
AcDbText
 10
130.3
 20
128.236388
 30
0.0
 40
4.0
  1
^J
 50
90.0
 41
0.0
  7
EXCADSTD
 72
     5
 11
130.3
 21
128.236388
 31
0.0
100
AcDbText
  0
LINE
  5
3B8
100
AcDbEntity
  8
LAY-3
  6
CONTINUOUS
 62
     3
100
AcDbLine
 10
142.54
 20
110.136391
 30
0.0
 11
142.54
 21
125.736391
 31
0.0
  0
LINE
  5
3B9
100
AcDbEntity
  8
LAY-3
  6
CONTINUOUS
 62
     3
100
AcDbLine
 10
143.123333
 20
111.136391
 30
0.0
 11
142.54
 21
114.636391
 31
0.0
  0
LINE
  5
3BA
100
AcDbEntity
  8
LAY-3
  6
CONTINUOUS
 62
     3
100
AcDbLine
 10
142.54
 20
114.636391
 30
0.0
 11
141.956667
 21
111.136391
 31
0.0
  0
LINE
  5
3BB
100
AcDbEntity
  8
LAY-3
  6
CONTINUOUS
 62
     3
100
AcDbLine
 10
141.956667
 20
124.736391
 30
0.0
 11
142.54
 21
121.236391
 31
0.0
  0
LINE
  5
3BC
100
AcDbEntity
  8
LAY-3
  6
CONTINUOUS
 62
     3
100
AcDbLine
 10
142.54
 20
121.236391
 30
0.0
 11
143.123333
 21
124.736391
 31
0.0
  0
TEXT
  5
3BD
100
AcDbEntity
  8
LAY-3
  6
CONTINUOUS
 62
     2
100
AcDbText
 10
142.19
 20
113.836391
 30
0.0
 40
4.0
  1
^J６５
 50
90.0
 41
0.610444
  7
EXCADSTD
 72
     5
 11
142.19
 21
122.036391
 31
0.0
100
AcDbText
  0
TEXT
  5
3BE
100
AcDbEntity
  8
LAY-3
  6
CONTINUOUS
 62
     2
100
AcDbText
 10
142.19
 20
121.636391
 30
0.0
 40
4.0
  1
^J
 50
90.0
 41
0.0
  7
EXCADSTD
 72
     5
 11
142.19
 21
121.636391
 31
0.0
100
AcDbText
  0
ENDSEC
  0
SECTION
  2
OBJECTS
  0
DICTIONARY
  5
19
100
AcDbDictionary
  3
ACAD_GROUP
350
1A
  3
ACAD_MLINESTYLE
350
1B
  0
DICTIONARY
  5
1A
102
{ACAD_REACTORS
330
19
102
}
100
AcDbDictionary
  0
DICTIONARY
  5
1B
102
{ACAD_REACTORS
330
19
102
}
100
AcDbDictionary
  3
STANDARD
350
1C
  0
MLINESTYLE
  5
1C
102
{ACAD_REACTORS
330
1B
102
}
100
AcDbMlineStyle
  2
Standard
 70
     0
  3

 62
     0
 51
90.0
 52
90.0
 71
     2
 49
0.5
 62
   256
  6
ByLayer
 49
-0.5
 62
   256
  6
ByLayer
  0
ENDSEC
  0
EOF
