  0
SECTION
  2
HEADER
  9
$ACADVER
  1
AC1014
  9
$ACADMAINTVER
 70
     0
  9
$DWGCODEPAGE
  3
ANSI_932
  9
$INSBASE
 10
0.0
 20
0.0
 30
0.0
  9
$EXTMIN
 10
-2.0
 20
8.5
 30
0.0
  9
$EXTMAX
 10
200.0
 20
288.5
 30
0.0
  9
$LIMMIN
 10
0.0
 20
0.0
  9
$LIMMAX
 10
210.0
 20
297.0
  9
$ORTHOMODE
 70
     0
  9
$REGENMODE
 70
     1
  9
$FILLMODE
 70
     1
  9
$QTEXTMODE
 70
     0
  9
$MIRRTEXT
 70
     1
  9
$DRAGMODE
 70
     2
  9
$LTSCALE
 40
1.0
  9
$OSMODE
 70
     0
  9
$ATTMODE
 70
     1
  9
$TEXTSIZE
 40
0.2
  9
$TRACEWID
 40
0.05
  9
$TEXTSTYLE
  7
STANDARD
  9
$CLAYER
  8
_2
  9
$CELTYPE
  6
CONTINUOUS
  9
$CECOLOR
 62
   256
  9
$CELTSCALE
 40
1.0
  9
$DELOBJ
 70
     1
  9
$DISPSILH
 70
     0
  9
$DIMSCALE
 40
1.0
  9
$DIMASZ
 40
0.18
  9
$DIMEXO
 40
0.0625
  9
$DIMDLI
 40
0.38
  9
$DIMRND
 40
0.0
  9
$DIMDLE
 40
0.0
  9
$DIMEXE
 40
0.18
  9
$DIMTP
 40
0.0
  9
$DIMTM
 40
0.0
  9
$DIMTXT
 40
0.18
  9
$DIMCEN
 40
0.09
  9
$DIMTSZ
 40
0.0
  9
$DIMTOL
 70
     0
  9
$DIMLIM
 70
     0
  9
$DIMTIH
 70
     1
  9
$DIMTOH
 70
     1
  9
$DIMSE1
 70
     0
  9
$DIMSE2
 70
     0
  9
$DIMTAD
 70
     0
  9
$DIMZIN
 70
     0
  9
$DIMBLK
  1

  9
$DIMASO
 70
     1
  9
$DIMSHO
 70
     1
  9
$DIMPOST
  1

  9
$DIMAPOST
  1

  9
$DIMALT
 70
     0
  9
$DIMALTD
 70
     2
  9
$DIMALTF
 40
25.4
  9
$DIMLFAC
 40
1.0
  9
$DIMTOFL
 70
     0
  9
$DIMTVP
 40
0.0
  9
$DIMTIX
 70
     0
  9
$DIMSOXD
 70
     0
  9
$DIMSAH
 70
     0
  9
$DIMBLK1
  1

  9
$DIMBLK2
  1

  9
$DIMSTYLE
  2
STANDARD
  9
$DIMCLRD
 70
     0
  9
$DIMCLRE
 70
     0
  9
$DIMCLRT
 70
     0
  9
$DIMTFAC
 40
1.0
  9
$DIMGAP
 40
0.09
  9
$DIMJUST
 70
     0
  9
$DIMSD1
 70
     0
  9
$DIMSD2
 70
     0
  9
$DIMTOLJ
 70
     1
  9
$DIMTZIN
 70
     0
  9
$DIMALTZ
 70
     0
  9
$DIMALTTZ
 70
     0
  9
$DIMFIT
 70
     3
  9
$DIMUPT
 70
     0
  9
$DIMUNIT
 70
     2
  9
$DIMDEC
 70
     4
  9
$DIMTDEC
 70
     4
  9
$DIMALTU
 70
     2
  9
$DIMALTTD
 70
     2
  9
$DIMTXSTY
  7
STANDARD
  9
$DIMAUNIT
 70
     0
  9
$LUNITS
 70
     2
  9
$LUPREC
 70
     4
  9
$SKETCHINC
 40
0.1
  9
$FILLETRAD
 40
0.0
  9
$AUNITS
 70
     0
  9
$AUPREC
 70
     0
  9
$MENU
  1
acad
  9
$ELEVATION
 40
0.0
  9
$PELEVATION
 40
0.0
  9
$THICKNESS
 40
0.0
  9
$LIMCHECK
 70
     0
  9
$BLIPMODE
 70
     1
  9
$CHAMFERA
 40
0.0
  9
$CHAMFERB
 40
0.0
  9
$CHAMFERC
 40
0.0
  9
$CHAMFERD
 40
0.0
  9
$SKPOLY
 70
     0
  9
$TDCREATE
 40
2454518.393982084
  9
$TDUPDATE
 40
2454518.393982084
  9
$TDINDWG
 40
0.0000000000
  9
$TDUSRTIMER
 40
0.0000000000
  9
$USRTIMER
 70
     1
  9
$ANGBASE
 50
0.0
  9
$ANGDIR
 70
     0
  9
$PDMODE
 70
     0
  9
$PDSIZE
 40
0.0
  9
$PLINEWID
 40
0.0
  9
$COORDS
 70
     1
  9
$SPLFRAME
 70
     0
  9
$SPLINETYPE
 70
     6
  9
$SPLINESEGS
 70
     8
  9
$ATTDIA
 70
     0
  9
$ATTREQ
 70
     1
  9
$HANDLING
 70
     1
  9
$HANDSEED
  5
63D
  9
$SURFTAB1
 70
     6
  9
$SURFTAB2
 70
     6
  9
$SURFTYPE
 70
     6
  9
$SURFU
 70
     6
  9
$SURFV
 70
     6
  9
$UCSNAME
  2

  9
$UCSORG
 10
0.0
 20
0.0
 30
0.0
  9
$UCSXDIR
 10
1.0
 20
0.0
 30
0.0
  9
$UCSYDIR
 10
0.0
 20
1.0
 30
0.0
  9
$PUCSNAME
  2

  9
$PUCSORG
 10
0.0
 20
0.0
 30
0.0
  9
$PUCSXDIR
 10
1.0
 20
0.0
 30
0.0
  9
$PUCSYDIR
 10
0.0
 20
1.0
 30
0.0
  9
$USERI1
 70
     0
  9
$USERI2
 70
     0
  9
$USERI3
 70
     0
  9
$USERI4
 70
     0
  9
$USERI5
 70
     0
  9
$USERR1
 40
0.0
  9
$USERR2
 40
0.0
  9
$USERR3
 40
0.0
  9
$USERR4
 40
0.0
  9
$USERR5
 40
0.0
  9
$WORLDVIEW
 70
     1
  9
$SHADEDGE
 70
     3
  9
$SHADEDIF
 70
    70
  9
$TILEMODE
 70
     1
  9
$MAXACTVP
 70
    16
  9
$PINSBASE
 10
0.0
 20
0.0
 30
0.0
  9
$PLIMCHECK
 70
     0
  9
$PEXTMIN
 10
1.000000E+20
 20
1.000000E+20
 30
1.000000E+20
  9
$PEXTMAX
 10
-1.000000E+20
 20
-1.000000E+20
 30
-1.000000E+20
  9
$PLIMMIN
 10
0.0
 20
0.0
  9
$PLIMMAX
 10
12.0
 20
9.0
  9
$UNITMODE
 70
     0
  9
$VISRETAIN
 70
     0
  9
$PLINEGEN
 70
     1
  9
$PSLTSCALE
 70
     0
  9
$TREEDEPTH
 70
  3020
  9
$PICKSTYLE
 70
     1
  9
$CMLSTYLE
  2
Standard
  9
$CMLJUST
 70
     0
  9
$CMLSCALE
 40
1.0
  9
$PROXYGRAPHICS
 70
     0
  9
$MEASUREMENT
 70
     0
  0
ENDSEC
  0
SECTION
  2
CLASSES
  0
CLASS
  1
LWPOLYLINE
  2
AcDbPolyline
  3
"AutoCAD"
 90
        0
280
     0
281
     1
  0
CLASS
  1
IMAGE
  2
AcDbRasterImage
  3
ISM
 90
      127
280
     0
281
     1
  0
CLASS
  1
OLE2FRAME
  2
AcDbOle2Frame
  3
""
 90
        0
280
     0
281
     1
  0
CLASS
  1
HATCH
  2
AcDbHatch
  3
"ACAD_SEDONA"
 90
        0
280
     0
281
     1
  0
CLASS
  1
DICTIONARYVAR
  2
AcDbDictionaryVar
  3
"AutoCAD"
 90
        0
280
     0
281
     0
  0
CLASS
  1
RASTERVARIABLES
  2
AcDbRasterVariables
  3
ISM
 90
        0
280
     0
281
     0
  0
CLASS
  1
IMAGEDEF
  2
AcDbRasterImageDef
  3
ISM
 90
        0
280
     0
281
     0
  0
CLASS
  1
IMAGEDEF_REACTOR
  2
AcDbRasterImageDefReactor
  3
ISM
 90
        1
280
     0
281
     0
  0
CLASS
  1
IDBUFFER
  2
AcDbIdBuffer
  3
"Acad"
 90
        0
280
     0
281
     0
  0
CLASS
  1
SPATIAL_FILTER
  2
AcDbSpatialFilter
  3
"Acad"
 90
        0
280
     0
281
     0
  0
CLASS
  1
XRECORD
  2
AcDbXrecord
  3
"<Built In>"
 90
        0
280
     0
281
     0
  0
CLASS
  1
SORTENTSTABLE
  2
AcDbSortentsTable
  3
"AutoCAD"
 90
        0
280
     0
281
     0
  0
CLASS
  1
LAYER_INDEX
  2
AcDbLayerIndex
  3
"Acad"
 90
        0
280
     0
281
     0
  0
CLASS
  1
SPATIAL_INDEX
  2
AcDbSpatialIndex
  3
"Acad"
 90
        0
280
     0
281
     0
  0
CLASS
  1
OBJECT_PTR
  2
CAseDLPNTableRecord
  3
"ASE-LPNTableRecord"
 90
        1
280
     0
281
     0
  0
CLASS
  1
LAYOUT
  2
AcDbLayout
  3
"AutoCAD 2000"
 90
        1
280
     0
281
     0
  0
CLASS
  1
PLOTSETTINGS
  2
AcDbPlotSettings
  3
"AutoCAD 2000"
 90
        1
280
     0
281
     0
  0
CLASS
  1
ACDBDICTIONARYWDFLT
  2
AcDbDictionaryWithDefault
  3
"AutoCAD 2000"
 90
        1
280
     0
281
     0
  0
CLASS
  1
ACDBPLACEHOLDER
  2
AcDbPlaceHolder
  3
"AutoCAD 2000"
 90
        1
280
     0
281
     0
  0
CLASS
  1
VBA_PROJECT
  2
AcDbVbaProject
  3
"acadvba"
 90
        1
280
     0
281
     0
  0
CLASS
  1
WIPEOUT
  2
AcDbWipeout
  3
WipeOut|AutoCAD Express Tool|expresstools@autodesk.com
 90
      127
280
     0
281
     1
  0
CLASS
  1
WIPEOUTVARIABLES
  2
AcDbWipeoutVariables
  3
WipeOut|AutoCAD Express Tool|expresstools@autodesk.com
 90
        0
280
     0
281
     0
  0
CLASS
  1
RTEXT
  2
RText
  3
RText|AutoCAD Express Tool|expresstools@autodesk.com
 90
        0
280
     0
281
     1
  0
CLASS
  1
ARCALIGNEDTEXT
  2
AcDbArcAlignedText
  3
ATEXT|AutoCAD Express Tool|expresstools@autodesk.com
 90
        0
280
     0
281
     1
  0
ENDSEC
  0
SECTION
  2
TABLES
  0
TABLE
  2
VPORT
  5
7
100
AcDbSymbolTable
 70
     1
  0
VPORT
  5
15
100
AcDbSymbolTableRecord
100
AcDbViewportTableRecord
  2
*ACTIVE
 70
     0
 10
0.0
 20
0.0
 11
1.0
 21
1.0
 12
198.0
 22
297.0
 13
0.0
 23
0.0
 14
1.0
 24
1.0
 15
0.0
 25
0.0
 16
0.0
 26
0.0
 36
1.0
 17
0.0
 27
0.0
 37
0.0
 40
560.0
 41
1.722533
 42
50.0
 43
0.0
 44
0.0
 50
0.0
 51
0.0
 71
     0
 72
   100
 73
     1
 74
     1
 75
     0
 76
     0
 77
     0
 78
     0
  0
ENDTAB
  0
TABLE
  2
LTYPE
  5
4
100
AcDbSymbolTable
 70
     9
  0
LTYPE
  5
11
100
AcDbSymbolTableRecord
100
AcDbLinetypeTableRecord
  2
BYBLOCK
 70
    64
  3

 72
    65
 73
     0
 40
0.0
  0
LTYPE
  5
12
100
AcDbSymbolTableRecord
100
AcDbLinetypeTableRecord
  2
BYLAYER
 70
    64
  3

 72
    65
 73
     0
 40
0.0
  0
LTYPE
  5
13
100
AcDbSymbolTableRecord
100
AcDbLinetypeTableRecord
  2
CONTINUOUS
 70
    64
  3
実線
 72
    65
 73
     0
 40
0.0
  0
LTYPE
  5
1D
100
AcDbSymbolTableRecord
100
AcDbLinetypeTableRecord
  2
EXLTYPE1
 70
    64
  3
破線
 72
    65
 73
     2
 40
3.0
 49
2.0
 74
     0
 49
-1.0
 74
     0
  0
LTYPE
  5
1E
100
AcDbSymbolTableRecord
100
AcDbLinetypeTableRecord
  2
EXLTYPE2
 70
    64
  3
点線
 72
    65
 73
     2
 40
2.0
 49
1.0
 74
     0
 49
-1.0
 74
     0
  0
LTYPE
  5
1F
100
AcDbSymbolTableRecord
100
AcDbLinetypeTableRecord
  2
EXLTYPE3
 70
    64
  3
一点鎖線
 72
    65
 73
     4
 40
10.0
 49
7.0
 74
     0
 49
-1.0
 74
     0
 49
1.0
 74
     0
 49
-1.0
 74
     0
  0
LTYPE
  5
20
100
AcDbSymbolTableRecord
100
AcDbLinetypeTableRecord
  2
EXLTYPE4
 70
    64
  3
二点鎖線
 72
    65
 73
     6
 40
12.0
 49
7.0
 74
     0
 49
-1.0
 74
     0
 49
1.0
 74
     0
 49
-1.0
 74
     0
 49
1.0
 74
     0
 49
-1.0
 74
     0
  0
LTYPE
  5
21
100
AcDbSymbolTableRecord
100
AcDbLinetypeTableRecord
  2
EXLTYPE5
 70
    64
  3
三点鎖線
 72
    65
 73
     8
 40
37.0
 49
30.0
 74
     0
 49
-1.0
 74
     0
 49
1.0
 74
     0
 49
-1.0
 74
     0
 49
1.0
 74
     0
 49
-1.0
 74
     0
 49
1.0
 74
     0
 49
-1.0
 74
     0
  0
LTYPE
  5
22
100
AcDbSymbolTableRecord
100
AcDbLinetypeTableRecord
  2
EXLTYPE6
 70
    64
  3
四点鎖線
 72
    65
 73
    10
 40
39.0
 49
30.0
 74
     0
 49
-1.0
 74
     0
 49
1.0
 74
     0
 49
-1.0
 74
     0
 49
1.0
 74
     0
 49
-1.0
 74
     0
 49
1.0
 74
     0
 49
-1.0
 74
     0
 49
1.0
 74
     0
 49
-1.0
 74
     0
  0
ENDTAB
  0
TABLE
  2
LAYER
  5
2
100
AcDbSymbolTable
 70
     4
  0
LAYER
  5
14
100
AcDbSymbolTableRecord
100
AcDbLayerTableRecord
  2
0
 70
     0
 62
     7
  6
CONTINUOUS
  0
LAYER
  5
25
100
AcDbSymbolTableRecord
100
AcDbLayerTableRecord
  2
_
 70
    64
 62
     7
  6
CONTINUOUS
  0
LAYER
  5
26
100
AcDbSymbolTableRecord
100
AcDbLayerTableRecord
  2
_2
 70
    64
 62
     7
  6
CONTINUOUS
  0
LAYER
  5
27
100
AcDbSymbolTableRecord
100
AcDbLayerTableRecord
  2
LAY-3
 70
    64
 62
     7
  6
CONTINUOUS
  0
ENDTAB
  0
TABLE
  2
STYLE
  5
3
100
AcDbSymbolTable
 70
     3
  0
STYLE
  5
17
100
AcDbSymbolTableRecord
100
AcDbTextStyleTableRecord
  2
STANDARD
 70
     0
 40
0.0
 41
1.0
 50
0.0
 71
     0
 42
0.0
  3
monotxt
  4
extfont
  0
STYLE
  5
23
100
AcDbSymbolTableRecord
100
AcDbTextStyleTableRecord
  2
EXCADSTD
 70
    64
 40
0.0
 41
1.0
 50
0.0
 71
     0
 42
0.2
  3
monotxt
  4
extfont
  0
STYLE
  5
24
100
AcDbSymbolTableRecord
100
AcDbTextStyleTableRecord
  2
EXCADVERT
 70
    68
 40
0.0
 41
1.0
 50
0.0
 71
     0
 42
0.286885
  3
monotxt
  4
extfont
  0
ENDTAB
  0
TABLE
  2
VIEW
  5
5
100
AcDbSymbolTable
 70
     0
  0
ENDTAB
  0
TABLE
  2
UCS
  5
6
100
AcDbSymbolTable
 70
     0
  0
ENDTAB
  0
TABLE
  2
APPID
  5
8
100
AcDbSymbolTable
 70
     1
  0
APPID
  5
16
100
AcDbSymbolTableRecord
100
AcDbRegAppTableRecord
  2
ACAD
 70
     0
  0
ENDTAB
  0
TABLE
  2
DIMSTYLE
  5
9
100
AcDbSymbolTable
 70
     1
  0
DIMSTYLE
105
18
100
AcDbSymbolTableRecord
100
AcDbDimStyleTableRecord
  2
STANDARD
 70
     0
  3

  4

  5

  6

  7

 40
1.0
 41
0.18
 42
0.0625
 43
0.38
 44
0.18
 45
0.0
 46
0.0
 47
0.0
 48
0.0
 71
     0
 72
     0
 73
     1
 74
     1
 75
     0
 76
     0
 77
     0
 78
     0
140
0.18
141
0.09
142
0.0
143
25.4
144
1.0
145
0.0
146
1.0
147
0.09
170
     0
171
     2
172
     1
173
     0
174
     0
175
     0
176
     0
177
     0
178
     0
270
     2
271
     4
272
     4
273
     2
274
     2
275
     0
280
     0
281
     0
282
     0
283
     1
284
     0
285
     0
286
     0
287
     0
288
     0
340
17
  0
ENDTAB
  0
TABLE
  2
BLOCK_RECORD
  5
1
100
AcDbSymbolTable
 70
    14
  0
BLOCK_RECORD
  5
A
100
AcDbSymbolTableRecord
100
AcDbBlockTableRecord
  2
*MODEL_SPACE
  0
BLOCK_RECORD
  5
B
100
AcDbSymbolTableRecord
100
AcDbBlockTableRecord
  2
*PAPER_SPACE
  0
BLOCK_RECORD
  5
28
100
AcDbSymbolTableRecord
100
AcDbBlockTableRecord
  2
_EX_NORM
  0
BLOCK_RECORD
  5
29
100
AcDbSymbolTableRecord
100
AcDbBlockTableRecord
  2
_EX_BNORM
  0
BLOCK_RECORD
  5
2A
100
AcDbSymbolTableRecord
100
AcDbBlockTableRecord
  2
_EX_BCIR
  0
BLOCK_RECORD
  5
2B
100
AcDbSymbolTableRecord
100
AcDbBlockTableRecord
  2
_EX_RCIVIL
  0
BLOCK_RECORD
  5
2C
100
AcDbSymbolTableRecord
100
AcDbBlockTableRecord
  2
_EX_SLANT
  0
BLOCK_RECORD
  5
2D
100
AcDbSymbolTableRecord
100
AcDbBlockTableRecord
  2
_EX_NONE
  0
BLOCK_RECORD
  5
2E
100
AcDbSymbolTableRecord
100
AcDbBlockTableRecord
  2
_EX_CIVIL
  0
BLOCK_RECORD
  5
2F
100
AcDbSymbolTableRecord
100
AcDbBlockTableRecord
  2
_EX_WCIR
  0
BLOCK_RECORD
  5
30
100
AcDbSymbolTableRecord
100
AcDbBlockTableRecord
  2
_EX_WCIR2
  0
BLOCK_RECORD
  5
31
100
AcDbSymbolTableRecord
100
AcDbBlockTableRecord
  2
_EX_WNORM
  0
BLOCK_RECORD
  5
32
100
AcDbSymbolTableRecord
100
AcDbBlockTableRecord
  2
_EX_NNORM
  0
BLOCK_RECORD
  5
33
100
AcDbSymbolTableRecord
100
AcDbBlockTableRecord
  2
_EX_BBOX
  0
BLOCK_RECORD
  5
34
100
AcDbSymbolTableRecord
100
AcDbBlockTableRecord
  2
_EX_WBOX
  0
BLOCK_RECORD
  5
35
100
AcDbSymbolTableRecord
100
AcDbBlockTableRecord
  2
_EX_INTEGRAL
  0
ENDTAB
  0
ENDSEC
  0
SECTION
  2
BLOCKS
  0
BLOCK
  5
D
100
AcDbEntity
  8
0
100
AcDbBlockBegin
  2
*MODEL_SPACE
 70
     0
 10
0.0
 20
0.0
 30
0.0
  3
*MODEL_SPACE
  1

  0
ENDBLK
  5
E
100
AcDbEntity
  8
0
100
AcDbBlockEnd
  0
BLOCK
  5
F
100
AcDbEntity
 67
     1
  8
0
100
AcDbBlockBegin
  2
*PAPER_SPACE
 70
     0
 10
0.0
 20
0.0
 30
0.0
  3
*PAPER_SPACE
  1

  0
ENDBLK
  5
10
100
AcDbEntity
 67
     1
  8
0
100
AcDbBlockEnd
  0
BLOCK
  5
36
100
AcDbEntity
  8
0
100
AcDbBlockBegin
  2
_EX_NORM
 70
     0
 10
0.0
 20
0.0
 30
0.0
  3
_EX_NORM
  1

  0
LINE
  5
37
100
AcDbEntity
  8
0
  6
CONTINUOUS
 62
     0
100
AcDbLine
 10
0.0
 20
0.0
 30
0.0
 11
-1.0
 21
0.0
 31
0.0
  0
LINE
  5
38
100
AcDbEntity
  8
0
  6
CONTINUOUS
 62
     0
100
AcDbLine
 10
0.0
 20
0.0
 30
0.0
 11
-1.0
 21
0.166667
 31
0.0
  0
LINE
  5
39
100
AcDbEntity
  8
0
  6
CONTINUOUS
 62
     0
100
AcDbLine
 10
0.0
 20
0.0
 30
0.0
 11
-1.0
 21
-0.166667
 31
0.0
  0
ENDBLK
  5
3A
100
AcDbEntity
  8
0
100
AcDbBlockEnd
  0
BLOCK
  5
3B
100
AcDbEntity
  8
0
100
AcDbBlockBegin
  2
_EX_BNORM
 70
     0
 10
0.0
 20
0.0
 30
0.0
  3
_EX_BNORM
  1

  0
LINE
  5
3C
100
AcDbEntity
  8
0
  6
CONTINUOUS
 62
     0
100
AcDbLine
 10
0.0
 20
0.0
 30
0.0
 11
-1.0
 21
0.0
 31
0.0
  0
LINE
  5
3D
100
AcDbEntity
  8
0
  6
CONTINUOUS
 62
     0
100
AcDbLine
 10
0.0
 20
0.0
 30
0.0
 11
-1.0
 21
0.166667
 31
0.0
  0
LINE
  5
3E
100
AcDbEntity
  8
0
  6
CONTINUOUS
 62
     0
100
AcDbLine
 10
0.0
 20
0.0
 30
0.0
 11
-1.0
 21
-0.166667
 31
0.0
  0
LINE
  5
3F
100
AcDbEntity
  8
0
  6
CONTINUOUS
 62
     0
100
AcDbLine
 10
0.0
 20
0.0
 30
0.0
 11
-1.0
 21
0.083333
 31
0.0
  0
LINE
  5
40
100
AcDbEntity
  8
0
  6
CONTINUOUS
 62
     0
100
AcDbLine
 10
0.0
 20
0.0
 30
0.0
 11
-1.0
 21
-0.083333
 31
0.0
  0
LINE
  5
41
100
AcDbEntity
  8
0
  6
CONTINUOUS
 62
     0
100
AcDbLine
 10
-1.0
 20
0.166667
 30
0.0
 11
-1.0
 21
-0.166667
 31
0.0
  0
ENDBLK
  5
42
100
AcDbEntity
  8
0
100
AcDbBlockEnd
  0
BLOCK
  5
43
100
AcDbEntity
  8
0
100
AcDbBlockBegin
  2
_EX_BCIR
 70
     0
 10
0.0
 20
0.0
 30
0.0
  3
_EX_BCIR
  1

  0
LINE
  5
44
100
AcDbEntity
  8
0
  6
CONTINUOUS
 62
     0
100
AcDbLine
 10
0.0
 20
0.0
 30
0.0
 11
-1.0
 21
0.0
 31
0.0
  0
CIRCLE
  5
45
100
AcDbEntity
  8
0
  6
CONTINUOUS
 62
     0
100
AcDbCircle
 10
0.0
 20
0.0
 30
0.0
 40
0.5
  0
CIRCLE
  5
46
100
AcDbEntity
  8
0
  6
CONTINUOUS
 62
     0
100
AcDbCircle
 10
0.0
 20
0.0
 30
0.0
 40
0.25
  0
ENDBLK
  5
47
100
AcDbEntity
  8
0
100
AcDbBlockEnd
  0
BLOCK
  5
48
100
AcDbEntity
  8
0
100
AcDbBlockBegin
  2
_EX_RCIVIL
 70
     0
 10
0.0
 20
0.0
 30
0.0
  3
_EX_RCIVIL
  1

  0
LINE
  5
49
100
AcDbEntity
  8
0
  6
CONTINUOUS
 62
     0
100
AcDbLine
 10
0.0
 20
0.0
 30
0.0
 11
-1.0
 21
0.0
 31
0.0
  0
LINE
  5
4A
100
AcDbEntity
  8
0
  6
CONTINUOUS
 62
     0
100
AcDbLine
 10
-1.0
 20
-0.25
 30
0.0
 11
0.0
 21
-0.25
 31
0.0
  0
LINE
  5
4B
100
AcDbEntity
  8
0
  6
CONTINUOUS
 62
     0
100
AcDbLine
 10
-1.0
 20
-0.125
 30
0.0
 11
0.0
 21
-0.125
 31
0.0
  0
ENDBLK
  5
4C
100
AcDbEntity
  8
0
100
AcDbBlockEnd
  0
BLOCK
  5
4D
100
AcDbEntity
  8
0
100
AcDbBlockBegin
  2
_EX_SLANT
 70
     0
 10
0.0
 20
0.0
 30
0.0
  3
_EX_SLANT
  1

  0
LINE
  5
4E
100
AcDbEntity
  8
0
  6
CONTINUOUS
 62
     0
100
AcDbLine
 10
0.0
 20
0.0
 30
0.0
 11
-1.0
 21
0.0
 31
0.0
  0
LINE
  5
4F
100
AcDbEntity
  8
0
  6
CONTINUOUS
 62
     0
100
AcDbLine
 10
0.707107
 20
0.707107
 30
0.0
 11
-0.707107
 21
-0.707107
 31
0.0
  0
ENDBLK
  5
50
100
AcDbEntity
  8
0
100
AcDbBlockEnd
  0
BLOCK
  5
51
100
AcDbEntity
  8
0
100
AcDbBlockBegin
  2
_EX_NONE
 70
     0
 10
0.0
 20
0.0
 30
0.0
  3
_EX_NONE
  1

  0
LINE
  5
52
100
AcDbEntity
  8
0
  6
CONTINUOUS
 62
     0
100
AcDbLine
 10
0.0
 20
0.0
 30
0.0
 11
-1.0
 21
0.0
 31
0.0
  0
ENDBLK
  5
53
100
AcDbEntity
  8
0
100
AcDbBlockEnd
  0
BLOCK
  5
54
100
AcDbEntity
  8
0
100
AcDbBlockBegin
  2
_EX_CIVIL
 70
     0
 10
0.0
 20
0.0
 30
0.0
  3
_EX_CIVIL
  1

  0
LINE
  5
55
100
AcDbEntity
  8
0
  6
CONTINUOUS
 62
     0
100
AcDbLine
 10
0.0
 20
0.0
 30
0.0
 11
-1.0
 21
0.0
 31
0.0
  0
LINE
  5
56
100
AcDbEntity
  8
0
  6
CONTINUOUS
 62
     0
100
AcDbLine
 10
-1.0
 20
0.25
 30
0.0
 11
0.0
 21
0.25
 31
0.0
  0
LINE
  5
57
100
AcDbEntity
  8
0
  6
CONTINUOUS
 62
     0
100
AcDbLine
 10
-1.0
 20
0.125
 30
0.0
 11
0.0
 21
0.125
 31
0.0
  0
ENDBLK
  5
58
100
AcDbEntity
  8
0
100
AcDbBlockEnd
  0
BLOCK
  5
59
100
AcDbEntity
  8
0
100
AcDbBlockBegin
  2
_EX_WCIR
 70
     0
 10
0.0
 20
0.0
 30
0.0
  3
_EX_WCIR
  1

  0
LINE
  5
5A
100
AcDbEntity
  8
0
  6
CONTINUOUS
 62
     0
100
AcDbLine
 10
0.0
 20
0.0
 30
0.0
 11
-1.0
 21
0.0
 31
0.0
  0
CIRCLE
  5
5B
100
AcDbEntity
  8
0
  6
CONTINUOUS
 62
     0
100
AcDbCircle
 10
0.0
 20
0.0
 30
0.0
 40
0.5
  0
ENDBLK
  5
5C
100
AcDbEntity
  8
0
100
AcDbBlockEnd
  0
BLOCK
  5
5D
100
AcDbEntity
  8
0
100
AcDbBlockBegin
  2
_EX_WCIR2
 70
     0
 10
0.0
 20
0.0
 30
0.0
  3
_EX_WCIR2
  1

  0
LINE
  5
5E
100
AcDbEntity
  8
0
  6
CONTINUOUS
 62
     0
100
AcDbLine
 10
-0.5
 20
0.0
 30
0.0
 11
-1.0
 21
0.0
 31
0.0
  0
CIRCLE
  5
5F
100
AcDbEntity
  8
0
  6
CONTINUOUS
 62
     0
100
AcDbCircle
 10
0.0
 20
0.0
 30
0.0
 40
0.5
  0
ENDBLK
  5
60
100
AcDbEntity
  8
0
100
AcDbBlockEnd
  0
BLOCK
  5
61
100
AcDbEntity
  8
0
100
AcDbBlockBegin
  2
_EX_WNORM
 70
     0
 10
0.0
 20
0.0
 30
0.0
  3
_EX_WNORM
  1

  0
LINE
  5
62
100
AcDbEntity
  8
0
  6
CONTINUOUS
 62
     0
100
AcDbLine
 10
-1.0
 20
0.0
 30
0.0
 11
-1.0
 21
0.0
 31
0.0
  0
LINE
  5
63
100
AcDbEntity
  8
0
  6
CONTINUOUS
 62
     0
100
AcDbLine
 10
0.0
 20
0.0
 30
0.0
 11
-1.0
 21
0.166667
 31
0.0
  0
LINE
  5
64
100
AcDbEntity
  8
0
  6
CONTINUOUS
 62
     0
100
AcDbLine
 10
0.0
 20
0.0
 30
0.0
 11
-1.0
 21
-0.166667
 31
0.0
  0
LINE
  5
65
100
AcDbEntity
  8
0
  6
CONTINUOUS
 62
     0
100
AcDbLine
 10
-1.0
 20
0.166667
 30
0.0
 11
-1.0
 21
-0.166667
 31
0.0
  0
ENDBLK
  5
66
100
AcDbEntity
  8
0
100
AcDbBlockEnd
  0
BLOCK
  5
67
100
AcDbEntity
  8
0
100
AcDbBlockBegin
  2
_EX_NNORM
 70
     0
 10
0.0
 20
0.0
 30
0.0
  3
_EX_NNORM
  1

  0
LINE
  5
68
100
AcDbEntity
  8
0
  6
CONTINUOUS
 62
     0
100
AcDbLine
 10
0.0
 20
0.0
 30
0.0
 11
-1.0
 21
0.0
 31
0.0
  0
LINE
  5
69
100
AcDbEntity
  8
0
  6
CONTINUOUS
 62
     0
100
AcDbLine
 10
0.0
 20
0.0
 30
0.0
 11
-1.0
 21
0.166667
 31
0.0
  0
LINE
  5
6A
100
AcDbEntity
  8
0
  6
CONTINUOUS
 62
     0
100
AcDbLine
 10
0.0
 20
0.0
 30
0.0
 11
-1.0
 21
-0.166667
 31
0.0
  0
LINE
  5
6B
100
AcDbEntity
  8
0
  6
CONTINUOUS
 62
     0
100
AcDbLine
 10
-1.0
 20
0.166667
 30
0.0
 11
-1.0
 21
-0.166667
 31
0.0
  0
ENDBLK
  5
6C
100
AcDbEntity
  8
0
100
AcDbBlockEnd
  0
BLOCK
  5
6D
100
AcDbEntity
  8
0
100
AcDbBlockBegin
  2
_EX_BBOX
 70
     0
 10
0.0
 20
0.0
 30
0.0
  3
_EX_BBOX
  1

  0
LINE
  5
6E
100
AcDbEntity
  8
0
  6
CONTINUOUS
 62
     0
100
AcDbLine
 10
0.0
 20
0.0
 30
0.0
 11
-1.0
 21
0.0
 31
0.0
  0
LINE
  5
6F
100
AcDbEntity
  8
0
  6
CONTINUOUS
 62
     0
100
AcDbLine
 10
-0.5
 20
0.5
 30
0.0
 11
0.5
 21
0.5
 31
0.0
  0
LINE
  5
70
100
AcDbEntity
  8
0
  6
CONTINUOUS
 62
     0
100
AcDbLine
 10
0.5
 20
0.5
 30
0.0
 11
0.5
 21
-0.5
 31
0.0
  0
LINE
  5
71
100
AcDbEntity
  8
0
  6
CONTINUOUS
 62
     0
100
AcDbLine
 10
0.5
 20
-0.5
 30
0.0
 11
-0.5
 21
-0.5
 31
0.0
  0
LINE
  5
72
100
AcDbEntity
  8
0
  6
CONTINUOUS
 62
     0
100
AcDbLine
 10
-0.5
 20
-0.5
 30
0.0
 11
-0.5
 21
0.5
 31
0.0
  0
LINE
  5
73
100
AcDbEntity
  8
0
  6
CONTINUOUS
 62
     0
100
AcDbLine
 10
-0.25
 20
0.25
 30
0.0
 11
0.25
 21
0.25
 31
0.0
  0
LINE
  5
74
100
AcDbEntity
  8
0
  6
CONTINUOUS
 62
     0
100
AcDbLine
 10
0.25
 20
0.25
 30
0.0
 11
0.25
 21
-0.25
 31
0.0
  0
LINE
  5
75
100
AcDbEntity
  8
0
  6
CONTINUOUS
 62
     0
100
AcDbLine
 10
0.25
 20
-0.25
 30
0.0
 11
-0.25
 21
-0.25
 31
0.0
  0
LINE
  5
76
100
AcDbEntity
  8
0
  6
CONTINUOUS
 62
     0
100
AcDbLine
 10
-0.25
 20
-0.25
 30
0.0
 11
-0.25
 21
0.25
 31
0.0
  0
ENDBLK
  5
77
100
AcDbEntity
  8
0
100
AcDbBlockEnd
  0
BLOCK
  5
78
100
AcDbEntity
  8
0
100
AcDbBlockBegin
  2
_EX_WBOX
 70
     0
 10
0.0
 20
0.0
 30
0.0
  3
_EX_WBOX
  1

  0
LINE
  5
79
100
AcDbEntity
  8
0
  6
CONTINUOUS
 62
     0
100
AcDbLine
 10
-0.5
 20
0.0
 30
0.0
 11
-1.0
 21
0.0
 31
0.0
  0
LINE
  5
7A
100
AcDbEntity
  8
0
  6
CONTINUOUS
 62
     0
100
AcDbLine
 10
-0.5
 20
0.5
 30
0.0
 11
0.5
 21
0.5
 31
0.0
  0
LINE
  5
7B
100
AcDbEntity
  8
0
  6
CONTINUOUS
 62
     0
100
AcDbLine
 10
0.5
 20
0.5
 30
0.0
 11
0.5
 21
-0.5
 31
0.0
  0
LINE
  5
7C
100
AcDbEntity
  8
0
  6
CONTINUOUS
 62
     0
100
AcDbLine
 10
0.5
 20
-0.5
 30
0.0
 11
-0.5
 21
-0.5
 31
0.0
  0
LINE
  5
7D
100
AcDbEntity
  8
0
  6
CONTINUOUS
 62
     0
100
AcDbLine
 10
-0.5
 20
-0.5
 30
0.0
 11
-0.5
 21
0.5
 31
0.0
  0
ENDBLK
  5
7E
100
AcDbEntity
  8
0
100
AcDbBlockEnd
  0
BLOCK
  5
7F
100
AcDbEntity
  8
0
100
AcDbBlockBegin
  2
_EX_INTEGRAL
 70
     0
 10
0.0
 20
0.0
 30
0.0
  3
_EX_INTEGRAL
  1

  0
LINE
  5
80
100
AcDbEntity
  8
0
  6
CONTINUOUS
 62
     0
100
AcDbLine
 10
0.0
 20
0.0
 30
0.0
 11
-1.0
 21
0.0
 31
0.0
  0
ARC
  5
81
100
AcDbEntity
  8
0
  6
CONTINUOUS
 62
     0
100
AcDbCircle
 10
0.542115
 20
0.164992
 30
0.0
 40
0.56667
100
AcDbArc
 50
73.07249
 51
196.927513
  0
ARC
  5
82
100
AcDbEntity
  8
0
  6
CONTINUOUS
 62
     0
100
AcDbCircle
 10
-0.542115
 20
-0.164992
 30
0.0
 40
0.56667
100
AcDbArc
 50
253.072487
 51
16.927513
  0
ENDBLK
  5
83
100
AcDbEntity
  8
0
100
AcDbBlockEnd
  0
ENDSEC
  0
SECTION
  2
ENTITIES
  0
TEXT
  5
84
100
AcDbEntity
  8
LAY-3
  6
CONTINUOUS
 62
     2
100
AcDbText
 10
258.3
 20
533.5
 30
0.0
 40
8.0
  1
８
 50
90.0
 41
0.945
  7
EXCADSTD
 72
     5
 11
258.3
 21
540.7
 31
0.0
100
AcDbText
  0
LINE
  5
85
100
AcDbEntity
  8
LAY-3
  6
CONTINUOUS
 62
     3
100
AcDbLine
 10
259.0
 20
551.0
 30
0.0
 11
259.0
 21
525.0
 31
0.0
  0
LINE
  5
86
100
AcDbEntity
  8
LAY-3
  6
CONTINUOUS
 62
     3
100
AcDbLine
 10
257.833333
 20
549.0
 30
0.0
 11
259.0
 21
542.0
 31
0.0
  0
LINE
  5
87
100
AcDbEntity
  8
LAY-3
  6
CONTINUOUS
 62
     3
100
AcDbLine
 10
259.0
 20
542.0
 30
0.0
 11
260.166667
 21
549.0
 31
0.0
  0
LINE
  5
88
100
AcDbEntity
  8
LAY-3
  6
CONTINUOUS
 62
     3
100
AcDbLine
 10
260.166667
 20
527.0
 30
0.0
 11
259.0
 21
534.0
 31
0.0
  0
LINE
  5
89
100
AcDbEntity
  8
LAY-3
  6
CONTINUOUS
 62
     3
100
AcDbLine
 10
259.0
 20
534.0
 30
0.0
 11
257.833333
 21
527.0
 31
0.0
  0
TEXT
  5
8A
100
AcDbEntity
  8
LAY-3
  6
CONTINUOUS
 62
     2
100
AcDbText
 10
246.3
 20
519.8
 30
0.0
 40
8.0
  1
２８
 50
90.0
 41
0.861
  7
EXCADSTD
 72
     5
 11
246.3
 21
534.83224
 31
0.0
100
AcDbText
  0
LINE
  5
8B
100
AcDbEntity
  8
LAY-3
  6
CONTINUOUS
 62
     3
100
AcDbLine
 10
247.0
 20
542.0
 30
0.0
 11
247.0
 21
514.0
 31
0.0
  0
LINE
  5
8C
100
AcDbEntity
  8
LAY-3
  6
CONTINUOUS
 62
     3
100
AcDbLine
 10
248.166667
 20
535.0
 30
0.0
 11
247.0
 21
542.0
 31
0.0
  0
LINE
  5
8D
100
AcDbEntity
  8
LAY-3
  6
CONTINUOUS
 62
     3
100
AcDbLine
 10
247.0
 20
542.0
 30
0.0
 11
245.833333
 21
535.0
 31
0.0
  0
LINE
  5
8E
100
AcDbEntity
  8
LAY-3
  6
CONTINUOUS
 62
     3
100
AcDbLine
 10
245.833333
 20
521.0
 30
0.0
 11
247.0
 21
514.0
 31
0.0
  0
LINE
  5
8F
100
AcDbEntity
  8
LAY-3
  6
CONTINUOUS
 62
     3
100
AcDbLine
 10
247.0
 20
514.0
 30
0.0
 11
248.166667
 21
521.0
 31
0.0
  0
TEXT
  5
90
100
AcDbEntity
  8
LAY-3
  6
CONTINUOUS
 62
     2
100
AcDbText
 10
277.8
 20
492.1
 30
0.0
 40
8.0
  1
３０
 41
0.861
  7
EXCADSTD
 72
     5
 11
292.83224
 21
492.1
 31
0.0
100
AcDbText
  0
LINE
  5
91
100
AcDbEntity
  8
LAY-3
  6
CONTINUOUS
 62
     3
100
AcDbLine
 10
271.0
 20
491.4
 30
0.0
 11
301.0
 21
491.4
 31
0.0
  0
LINE
  5
92
100
AcDbEntity
  8
LAY-3
  6
CONTINUOUS
 62
     3
100
AcDbLine
 10
278.0
 20
492.566667
 30
0.0
 11
271.0
 21
491.4
 31
0.0
  0
LINE
  5
93
100
AcDbEntity
  8
LAY-3
  6
CONTINUOUS
 62
     3
100
AcDbLine
 10
271.0
 20
491.4
 30
0.0
 11
278.0
 21
490.233333
 31
0.0
  0
LINE
  5
94
100
AcDbEntity
  8
LAY-3
  6
CONTINUOUS
 62
     3
100
AcDbLine
 10
294.0
 20
490.233333
 30
0.0
 11
301.0
 21
491.4
 31
0.0
  0
LINE
  5
95
100
AcDbEntity
  8
LAY-3
  6
CONTINUOUS
 62
     3
100
AcDbLine
 10
301.0
 20
491.4
 30
0.0
 11
294.0
 21
492.566667
 31
0.0
  0
TEXT
  5
96
100
AcDbEntity
  8
LAY-3
  6
CONTINUOUS
 62
     2
100
AcDbText
 10
297.4
 20
519.8
 30
0.0
 40
8.0
  1
１８
 50
90.0
 41
0.861
  7
EXCADSTD
 72
     5
 11
297.4
 21
534.83224
 31
0.0
100
AcDbText
  0
LINE
  5
97
100
AcDbEntity
  8
LAY-3
  6
CONTINUOUS
 62
     3
100
AcDbLine
 10
298.1
 20
537.0
 30
0.0
 11
298.1
 21
519.0
 31
0.0
  0
LINE
  5
98
100
AcDbEntity
  8
LAY-3
  6
CONTINUOUS
 62
     3
100
AcDbLine
 10
299.266667
 20
530.0
 30
0.0
 11
298.1
 21
537.0
 31
0.0
  0
LINE
  5
99
100
AcDbEntity
  8
LAY-3
  6
CONTINUOUS
 62
     3
100
AcDbLine
 10
298.1
 20
537.0
 30
0.0
 11
296.933333
 21
530.0
 31
0.0
  0
LINE
  5
9A
100
AcDbEntity
  8
LAY-3
  6
CONTINUOUS
 62
     3
100
AcDbLine
 10
296.933333
 20
526.0
 30
0.0
 11
298.1
 21
519.0
 31
0.0
  0
LINE
  5
9B
100
AcDbEntity
  8
LAY-3
  6
CONTINUOUS
 62
     3
100
AcDbLine
 10
298.1
 20
519.0
 30
0.0
 11
299.266667
 21
526.0
 31
0.0
  0
TEXT
  5
9C
100
AcDbEntity
  8
LAY-3
  6
CONTINUOUS
 62
     2
100
AcDbText
 10
297.4
 20
500.7
 30
0.0
 40
8.0
  1
５
 50
90.0
 41
0.945
  7
EXCADSTD
 72
     5
 11
297.4
 21
507.9
 31
0.0
100
AcDbText
  0
LINE
  5
9D
100
AcDbEntity
  8
LAY-3
  6
CONTINUOUS
 62
     3
100
AcDbLine
 10
298.1
 20
528.0
 30
0.0
 11
298.1
 21
502.4
 31
0.0
  0
LINE
  5
9E
100
AcDbEntity
  8
LAY-3
  6
CONTINUOUS
 62
     3
100
AcDbLine
 10
296.933333
 20
526.0
 30
0.0
 11
298.1
 21
519.0
 31
0.0
  0
LINE
  5
9F
100
AcDbEntity
  8
LAY-3
  6
CONTINUOUS
 62
     3
100
AcDbLine
 10
298.1
 20
519.0
 30
0.0
 11
299.266667
 21
526.0
 31
0.0
  0
LINE
  5
A0
100
AcDbEntity
  8
LAY-3
  6
CONTINUOUS
 62
     3
100
AcDbLine
 10
299.266667
 20
507.0
 30
0.0
 11
298.1
 21
514.0
 31
0.0
  0
LINE
  5
A1
100
AcDbEntity
  8
LAY-3
  6
CONTINUOUS
 62
     3
100
AcDbLine
 10
298.1
 20
514.0
 30
0.0
 11
296.933333
 21
507.0
 31
0.0
  0
LINE
  5
A2
100
AcDbEntity
  8
LAY-3
  6
CONTINUOUS
 62
     3
100
AcDbLine
 10
46.0
 20
553.0
 30
0.0
 11
314.0
 21
553.0
 31
0.0
  0
LINE
  5
A3
100
AcDbEntity
  8
LAY-3
  6
CONTINUOUS
 62
     3
100
AcDbLine
 10
53.0
 20
554.166667
 30
0.0
 11
46.0
 21
553.0
 31
0.0
  0
LINE
  5
A4
100
AcDbEntity
  8
LAY-3
  6
CONTINUOUS
 62
     3
100
AcDbLine
 10
46.0
 20
553.0
 30
0.0
 11
53.0
 21
551.833333
 31
0.0
  0
LINE
  5
A5
100
AcDbEntity
  8
LAY-3
  6
CONTINUOUS
 62
     3
100
AcDbLine
 10
307.0
 20
551.833333
 30
0.0
 11
314.0
 21
553.0
 31
0.0
  0
LINE
  5
A6
100
AcDbEntity
  8
LAY-3
  6
CONTINUOUS
 62
     3
100
AcDbLine
 10
314.0
 20
553.0
 30
0.0
 11
307.0
 21
554.166667
 31
0.0
  0
TEXT
  5
A7
100
AcDbEntity
  8
LAY-3
  6
CONTINUOUS
 62
     2
100
AcDbText
 10
168.1
 20
553.7
 30
0.0
 40
8.0
  1
４５７
 41
0.833
  7
EXCADSTD
 72
     5
 11
191.9
 21
553.7
 31
0.0
100
AcDbText
  0
TEXT
  5
A8
100
AcDbEntity
  8
LAY-3
  6
CONTINUOUS
 62
     2
100
AcDbText
 10
355.2
 20
277.7
 30
0.0
 40
8.0
  1
５
 41
0.945
  7
EXCADSTD
 72
     5
 11
362.4
 21
277.7
 31
0.0
100
AcDbText
  0
LINE
  5
A9
100
AcDbEntity
  8
LAY-3
  6
CONTINUOUS
 62
     3
100
AcDbLine
 10
335.0
 20
277.0
 30
0.0
 11
361.9
 21
277.0
 31
0.0
  0
LINE
  5
AA
100
AcDbEntity
  8
LAY-3
  6
CONTINUOUS
 62
     3
100
AcDbLine
 10
337.0
 20
275.833333
 30
0.0
 11
344.0
 21
277.0
 31
0.0
  0
LINE
  5
AB
100
AcDbEntity
  8
LAY-3
  6
CONTINUOUS
 62
     3
100
AcDbLine
 10
344.0
 20
277.0
 30
0.0
 11
337.0
 21
278.166667
 31
0.0
  0
LINE
  5
AC
100
AcDbEntity
  8
LAY-3
  6
CONTINUOUS
 62
     3
100
AcDbLine
 10
356.0
 20
278.166667
 30
0.0
 11
349.0
 21
277.0
 31
0.0
  0
LINE
  5
AD
100
AcDbEntity
  8
LAY-3
  6
CONTINUOUS
 62
     3
100
AcDbLine
 10
349.0
 20
277.0
 30
0.0
 11
356.0
 21
275.833333
 31
0.0
  0
LINE
  5
AE
100
AcDbEntity
  8
LAY-3
  6
CONTINUOUS
 62
     3
100
AcDbLine
 10
301.74
 20
519.0
 30
0.0
 11
286.0
 21
519.0
 31
0.0
  0
LINE
  5
AF
100
AcDbEntity
  8
LAY-3
  6
CONTINUOUS
 62
     6
100
AcDbLine
 10
286.0
 20
529.1
 30
0.0
 11
286.0
 21
540.5
 31
0.0
  0
LINE
  5
B0
100
AcDbEntity
  8
LAY-3
  6
CONTINUOUS
 62
     6
100
AcDbLine
 10
286.0
 20
517.0
 30
0.0
 11
286.0
 21
522.7
 31
0.0
  0
LINE
  5
B1
100
AcDbEntity
  8
LAY-3
  6
CONTINUOUS
 62
     6
100
AcDbLine
 10
286.0
 20
525.1
 30
0.0
 11
286.0
 21
526.7
 31
0.0
  0
LINE
  5
B2
100
AcDbEntity
  8
LAY-3
  6
CONTINUOUS
 62
     6
100
AcDbLine
 10
286.0
 20
95.6
 30
0.0
 11
286.0
 21
107.0
 31
0.0
  0
LINE
  5
B3
100
AcDbEntity
  8
LAY-3
  6
CONTINUOUS
 62
     6
100
AcDbLine
 10
286.0
 20
83.5
 30
0.0
 11
286.0
 21
89.2
 31
0.0
  0
LINE
  5
B4
100
AcDbEntity
  8
LAY-3
  6
CONTINUOUS
 62
     6
100
AcDbLine
 10
286.0
 20
91.6
 30
0.0
 11
286.0
 21
93.2
 31
0.0
  0
LINE
  5
B5
100
AcDbEntity
  8
LAY-3
  6
CONTINUOUS
 62
     6
100
AcDbLine
 10
74.0
 20
95.6
 30
0.0
 11
74.0
 21
107.0
 31
0.0
  0
LINE
  5
B6
100
AcDbEntity
  8
LAY-3
  6
CONTINUOUS
 62
     6
100
AcDbLine
 10
74.0
 20
83.5
 30
0.0
 11
74.0
 21
89.2
 31
0.0
  0
LINE
  5
B7
100
AcDbEntity
  8
LAY-3
  6
CONTINUOUS
 62
     6
100
AcDbLine
 10
74.0
 20
91.6
 30
0.0
 11
74.0
 21
93.2
 31
0.0
  0
LINE
  5
B8
100
AcDbEntity
  8
LAY-3
  6
CONTINUOUS
 62
     3
100
AcDbLine
 10
330.0
 20
541.0
 30
0.0
 11
330.0
 21
84.0
 31
0.0
  0
LINE
  5
B9
100
AcDbEntity
  8
LAY-3
  6
CONTINUOUS
 62
     3
100
AcDbLine
 10
331.166667
 20
534.0
 30
0.0
 11
330.0
 21
541.0
 31
0.0
  0
LINE
  5
BA
100
AcDbEntity
  8
LAY-3
  6
CONTINUOUS
 62
     3
100
AcDbLine
 10
330.0
 20
541.0
 30
0.0
 11
328.833333
 21
534.0
 31
0.0
  0
LINE
  5
BB
100
AcDbEntity
  8
LAY-3
  6
CONTINUOUS
 62
     3
100
AcDbLine
 10
328.833333
 20
91.0
 30
0.0
 11
330.0
 21
84.0
 31
0.0
  0
LINE
  5
BC
100
AcDbEntity
  8
LAY-3
  6
CONTINUOUS
 62
     3
100
AcDbLine
 10
330.0
 20
84.0
 30
0.0
 11
331.166667
 21
91.0
 31
0.0
  0
TEXT
  5
BD
100
AcDbEntity
  8
LAY-3
  6
CONTINUOUS
 62
     2
100
AcDbText
 10
329.3
 20
300.6
 30
0.0
 40
8.0
  1
６１０
 50
90.0
 41
0.833
  7
EXCADSTD
 72
     5
 11
329.3
 21
324.4
 31
0.0
100
AcDbText
  0
POLYLINE
  5
BE
100
AcDbEntity
  8
LAY-3
  6
CONTINUOUS
 62
     6
100
AcDb2dPolyline
 66
     1
 10
0.0
 20
0.0
 30
0.0
 70
   128
  0
VERTEX
  5
BF
100
AcDbEntity
  8
LAY-3
  6
CONTINUOUS
 62
     6
100
AcDbVertex
100
AcDb2dVertex
 10
182.234418
 20
334.296251
 30
0.0
  0
VERTEX
  5
C0
100
AcDbEntity
  8
LAY-3
  6
CONTINUOUS
 62
     6
100
AcDbVertex
100
AcDb2dVertex
 10
182.377291
 20
334.321695
 30
0.0
  0
VERTEX
  5
C1
100
AcDbEntity
  8
LAY-3
  6
CONTINUOUS
 62
     6
100
AcDbVertex
100
AcDb2dVertex
 10
182.785665
 20
334.392511
 30
0.0
  0
VERTEX
  5
C2
100
AcDbEntity
  8
LAY-3
  6
CONTINUOUS
 62
     6
100
AcDbVertex
100
AcDb2dVertex
 10
183.429177
 20
334.500417
 30
0.0
  0
VERTEX
  5
C3
100
AcDbEntity
  8
LAY-3
  6
CONTINUOUS
 62
     6
100
AcDbVertex
100
AcDb2dVertex
 10
184.277462
 20
334.637135
 30
0.0
  0
VERTEX
  5
C4
100
AcDbEntity
  8
LAY-3
  6
CONTINUOUS
 62
     6
100
AcDbVertex
100
AcDb2dVertex
 10
185.300157
 20
334.794385
 30
0.0
  0
VERTEX
  5
C5
100
AcDbEntity
  8
LAY-3
  6
CONTINUOUS
 62
     6
100
AcDbVertex
100
AcDb2dVertex
 10
186.466897
 20
334.963889
 30
0.0
  0
VERTEX
  5
C6
100
AcDbEntity
  8
LAY-3
  6
CONTINUOUS
 62
     6
100
AcDbVertex
100
AcDb2dVertex
 10
187.747317
 20
335.137367
 30
0.0
  0
VERTEX
  5
C7
100
AcDbEntity
  8
LAY-3
  6
CONTINUOUS
 62
     6
100
AcDbVertex
100
AcDb2dVertex
 10
189.111055
 20
335.30654
 30
0.0
  0
VERTEX
  5
C8
100
AcDbEntity
  8
LAY-3
  6
CONTINUOUS
 62
     6
100
AcDbVertex
100
AcDb2dVertex
 10
190.527744
 20
335.463129
 30
0.0
  0
VERTEX
  5
C9
100
AcDbEntity
  8
LAY-3
  6
CONTINUOUS
 62
     6
100
AcDbVertex
100
AcDb2dVertex
 10
191.967022
 20
335.598854
 30
0.0
  0
VERTEX
  5
CA
100
AcDbEntity
  8
LAY-3
  6
CONTINUOUS
 62
     6
100
AcDbVertex
100
AcDb2dVertex
 10
193.398525
 20
335.705436
 30
0.0
  0
VERTEX
  5
CB
100
AcDbEntity
  8
LAY-3
  6
CONTINUOUS
 62
     6
100
AcDbVertex
100
AcDb2dVertex
 10
197.998293
 20
335.804992
 30
0.0
  0
VERTEX
  5
CC
100
AcDbEntity
  8
LAY-3
  6
CONTINUOUS
 62
     6
100
AcDbVertex
100
AcDb2dVertex
 10
202.209595
 20
335.546518
 30
0.0
  0
VERTEX
  5
CD
100
AcDbEntity
  8
LAY-3
  6
CONTINUOUS
 62
     6
100
AcDbVertex
100
AcDb2dVertex
 10
206.083309
 20
335.003052
 30
0.0
  0
VERTEX
  5
CE
100
AcDbEntity
  8
LAY-3
  6
CONTINUOUS
 62
     6
100
AcDbVertex
100
AcDb2dVertex
 10
209.67031
 20
334.247634
 30
0.0
  0
VERTEX
  5
CF
100
AcDbEntity
  8
LAY-3
  6
CONTINUOUS
 62
     6
100
AcDbVertex
100
AcDb2dVertex
 10
213.021477
 20
333.353305
 30
0.0
  0
VERTEX
  5
D0
100
AcDbEntity
  8
LAY-3
  6
CONTINUOUS
 62
     6
100
AcDbVertex
100
AcDb2dVertex
 10
216.187687
 20
332.393104
 30
0.0
  0
VERTEX
  5
D1
100
AcDbEntity
  8
LAY-3
  6
CONTINUOUS
 62
     6
100
AcDbVertex
100
AcDb2dVertex
 10
219.219817
 20
331.440071
 30
0.0
  0
VERTEX
  5
D2
100
AcDbEntity
  8
LAY-3
  6
CONTINUOUS
 62
     6
100
AcDbVertex
100
AcDb2dVertex
 10
222.168744
 20
330.567244
 30
0.0
  0
VERTEX
  5
D3
100
AcDbEntity
  8
LAY-3
  6
CONTINUOUS
 62
     6
100
AcDbVertex
100
AcDb2dVertex
 10
225.085345
 20
329.847666
 30
0.0
  0
VERTEX
  5
D4
100
AcDbEntity
  8
LAY-3
  6
CONTINUOUS
 62
     6
100
AcDbVertex
100
AcDb2dVertex
 10
228.020498
 20
329.354374
 30
0.0
  0
VERTEX
  5
D5
100
AcDbEntity
  8
LAY-3
  6
CONTINUOUS
 62
     6
100
AcDbVertex
100
AcDb2dVertex
 10
231.025079
 20
329.160408
 30
0.0
  0
VERTEX
  5
D6
100
AcDbEntity
  8
LAY-3
  6
CONTINUOUS
 62
     6
100
AcDbVertex
100
AcDb2dVertex
 10
233.613403
 20
329.265106
 30
0.0
  0
VERTEX
  5
D7
100
AcDbEntity
  8
LAY-3
  6
CONTINUOUS
 62
     6
100
AcDbVertex
100
AcDb2dVertex
 10
236.278097
 20
329.580279
 30
0.0
  0
VERTEX
  5
D8
100
AcDbEntity
  8
LAY-3
  6
CONTINUOUS
 62
     6
100
AcDbVertex
100
AcDb2dVertex
 10
239.011932
 20
330.057645
 30
0.0
  0
VERTEX
  5
D9
100
AcDbEntity
  8
LAY-3
  6
CONTINUOUS
 62
     6
100
AcDbVertex
100
AcDb2dVertex
 10
241.807676
 20
330.648918
 30
0.0
  0
VERTEX
  5
DA
100
AcDbEntity
  8
LAY-3
  6
CONTINUOUS
 62
     6
100
AcDbVertex
100
AcDb2dVertex
 10
244.658099
 20
331.305815
 30
0.0
  0
VERTEX
  5
DB
100
AcDbEntity
  8
LAY-3
  6
CONTINUOUS
 62
     6
100
AcDbVertex
100
AcDb2dVertex
 10
247.555971
 20
331.980052
 30
0.0
  0
VERTEX
  5
DC
100
AcDbEntity
  8
LAY-3
  6
CONTINUOUS
 62
     6
100
AcDbVertex
100
AcDb2dVertex
 10
250.494061
 20
332.623345
 30
0.0
  0
VERTEX
  5
DD
100
AcDbEntity
  8
LAY-3
  6
CONTINUOUS
 62
     6
100
AcDbVertex
100
AcDb2dVertex
 10
253.465138
 20
333.187409
 30
0.0
  0
VERTEX
  5
DE
100
AcDbEntity
  8
LAY-3
  6
CONTINUOUS
 62
     6
100
AcDbVertex
100
AcDb2dVertex
 10
256.461972
 20
333.623961
 30
0.0
  0
VERTEX
  5
DF
100
AcDbEntity
  8
LAY-3
  6
CONTINUOUS
 62
     6
100
AcDbVertex
100
AcDb2dVertex
 10
259.477331
 20
333.884717
 30
0.0
  0
VERTEX
  5
E0
100
AcDbEntity
  8
LAY-3
  6
CONTINUOUS
 62
     6
100
AcDbVertex
100
AcDb2dVertex
 10
262.503986
 20
333.921392
 30
0.0
  0
VERTEX
  5
E1
100
AcDbEntity
  8
LAY-3
  6
CONTINUOUS
 62
     6
100
AcDbVertex
100
AcDb2dVertex
 10
265.039066
 20
333.755653
 30
0.0
  0
VERTEX
  5
E2
100
AcDbEntity
  8
LAY-3
  6
CONTINUOUS
 62
     6
100
AcDbVertex
100
AcDb2dVertex
 10
267.569052
 20
333.43591
 30
0.0
  0
VERTEX
  5
E3
100
AcDbEntity
  8
LAY-3
  6
CONTINUOUS
 62
     6
100
AcDbVertex
100
AcDb2dVertex
 10
270.086008
 20
332.998816
 30
0.0
  0
VERTEX
  5
E4
100
AcDbEntity
  8
LAY-3
  6
CONTINUOUS
 62
     6
100
AcDbVertex
100
AcDb2dVertex
 10
272.581994
 20
332.481019
 30
0.0
  0
VERTEX
  5
E5
100
AcDbEntity
  8
LAY-3
  6
CONTINUOUS
 62
     6
100
AcDbVertex
100
AcDb2dVertex
 10
275.049073
 20
331.919171
 30
0.0
  0
VERTEX
  5
E6
100
AcDbEntity
  8
LAY-3
  6
CONTINUOUS
 62
     6
100
AcDbVertex
100
AcDb2dVertex
 10
277.479307
 20
331.349923
 30
0.0
  0
VERTEX
  5
E7
100
AcDbEntity
  8
LAY-3
  6
CONTINUOUS
 62
     6
100
AcDbVertex
100
AcDb2dVertex
 10
279.864757
 20
330.809925
 30
0.0
  0
VERTEX
  5
E8
100
AcDbEntity
  8
LAY-3
  6
CONTINUOUS
 62
     6
100
AcDbVertex
100
AcDb2dVertex
 10
282.197485
 20
330.335827
 30
0.0
  0
VERTEX
  5
E9
100
AcDbEntity
  8
LAY-3
  6
CONTINUOUS
 62
     6
100
AcDbVertex
100
AcDb2dVertex
 10
284.469553
 20
329.964281
 30
0.0
  0
VERTEX
  5
EA
100
AcDbEntity
  8
LAY-3
  6
CONTINUOUS
 62
     6
100
AcDbVertex
100
AcDb2dVertex
 10
286.673024
 20
329.731936
 30
0.0
  0
VERTEX
  5
EB
100
AcDbEntity
  8
LAY-3
  6
CONTINUOUS
 62
     6
100
AcDbVertex
100
AcDb2dVertex
 10
288.799957
 20
329.675444
 30
0.0
  0
VERTEX
  5
EC
100
AcDbEntity
  8
LAY-3
  6
CONTINUOUS
 62
     6
100
AcDbVertex
100
AcDb2dVertex
 10
290.880878
 20
329.822222
 30
0.0
  0
VERTEX
  5
ED
100
AcDbEntity
  8
LAY-3
  6
CONTINUOUS
 62
     6
100
AcDbVertex
100
AcDb2dVertex
 10
292.913785
 20
330.145631
 30
0.0
  0
VERTEX
  5
EE
100
AcDbEntity
  8
LAY-3
  6
CONTINUOUS
 62
     6
100
AcDbVertex
100
AcDb2dVertex
 10
294.937747
 20
330.603247
 30
0.0
  0
VERTEX
  5
EF
100
AcDbEntity
  8
LAY-3
  6
CONTINUOUS
 62
     6
100
AcDbVertex
100
AcDb2dVertex
 10
296.991832
 20
331.152643
 30
0.0
  0
VERTEX
  5
F0
100
AcDbEntity
  8
LAY-3
  6
CONTINUOUS
 62
     6
100
AcDbVertex
100
AcDb2dVertex
 10
299.115105
 20
331.751392
 30
0.0
  0
VERTEX
  5
F1
100
AcDbEntity
  8
LAY-3
  6
CONTINUOUS
 62
     6
100
AcDbVertex
100
AcDb2dVertex
 10
301.346636
 20
332.35707
 30
0.0
  0
VERTEX
  5
F2
100
AcDbEntity
  8
LAY-3
  6
CONTINUOUS
 62
     6
100
AcDbVertex
100
AcDb2dVertex
 10
303.72549
 20
332.927249
 30
0.0
  0
VERTEX
  5
F3
100
AcDbEntity
  8
LAY-3
  6
CONTINUOUS
 62
     6
100
AcDbVertex
100
AcDb2dVertex
 10
306.290737
 20
333.419504
 30
0.0
  0
VERTEX
  5
F4
100
AcDbEntity
  8
LAY-3
  6
CONTINUOUS
 62
     6
100
AcDbVertex
100
AcDb2dVertex
 10
309.081443
 20
333.791409
 30
0.0
  0
VERTEX
  5
F5
100
AcDbEntity
  8
LAY-3
  6
CONTINUOUS
 62
     6
100
AcDbVertex
100
AcDb2dVertex
 10
312.136675
 20
334.000537
 30
0.0
  0
VERTEX
  5
F6
100
AcDbEntity
  8
LAY-3
  6
CONTINUOUS
 62
     6
100
AcDbVertex
100
AcDb2dVertex
 10
315.495501
 20
334.004463
 30
0.0
  0
VERTEX
  5
F7
100
AcDbEntity
  8
LAY-3
  6
CONTINUOUS
 62
     6
100
AcDbVertex
100
AcDb2dVertex
 10
316.086372
 20
333.98245
 30
0.0
  0
VERTEX
  5
F8
100
AcDbEntity
  8
LAY-3
  6
CONTINUOUS
 62
     6
100
AcDbVertex
100
AcDb2dVertex
 10
316.675331
 20
333.955106
 30
0.0
  0
VERTEX
  5
F9
100
AcDbEntity
  8
LAY-3
  6
CONTINUOUS
 62
     6
100
AcDbVertex
100
AcDb2dVertex
 10
317.250924
 20
333.923995
 30
0.0
  0
VERTEX
  5
FA
100
AcDbEntity
  8
LAY-3
  6
CONTINUOUS
 62
     6
100
AcDbVertex
100
AcDb2dVertex
 10
317.801697
 20
333.890684
 30
0.0
  0
VERTEX
  5
FB
100
AcDbEntity
  8
LAY-3
  6
CONTINUOUS
 62
     6
100
AcDbVertex
100
AcDb2dVertex
 10
318.316196
 20
333.856737
 30
0.0
  0
VERTEX
  5
FC
100
AcDbEntity
  8
LAY-3
  6
CONTINUOUS
 62
     6
100
AcDbVertex
100
AcDb2dVertex
 10
318.782966
 20
333.823719
 30
0.0
  0
VERTEX
  5
FD
100
AcDbEntity
  8
LAY-3
  6
CONTINUOUS
 62
     6
100
AcDbVertex
100
AcDb2dVertex
 10
319.190554
 20
333.793195
 30
0.0
  0
VERTEX
  5
FE
100
AcDbEntity
  8
LAY-3
  6
CONTINUOUS
 62
     6
100
AcDbVertex
100
AcDb2dVertex
 10
319.527505
 20
333.76673
 30
0.0
  0
VERTEX
  5
FF
100
AcDbEntity
  8
LAY-3
  6
CONTINUOUS
 62
     6
100
AcDbVertex
100
AcDb2dVertex
 10
319.782366
 20
333.745889
 30
0.0
  0
VERTEX
  5
100
100
AcDbEntity
  8
LAY-3
  6
CONTINUOUS
 62
     6
100
AcDbVertex
100
AcDb2dVertex
 10
319.943683
 20
333.732237
 30
0.0
  0
VERTEX
  5
101
100
AcDbEntity
  8
LAY-3
  6
CONTINUOUS
 62
     6
100
AcDbVertex
100
AcDb2dVertex
 10
320.0
 20
333.727338
 30
0.0
  0
SEQEND
  5
102
100
AcDbEntity
  8
LAY-3
  6
CONTINUOUS
 62
     6
  0
POLYLINE
  5
103
100
AcDbEntity
  8
LAY-3
  6
CONTINUOUS
 62
     6
100
AcDb2dPolyline
 66
     1
 10
0.0
 20
0.0
 30
0.0
 70
   128
  0
VERTEX
  5
104
100
AcDbEntity
  8
LAY-3
  6
CONTINUOUS
 62
     6
100
AcDbVertex
100
AcDb2dVertex
 10
182.289006
 20
330.434368
 30
0.0
  0
VERTEX
  5
105
100
AcDbEntity
  8
LAY-3
  6
CONTINUOUS
 62
     6
100
AcDbVertex
100
AcDb2dVertex
 10
182.48307
 20
330.463425
 30
0.0
  0
VERTEX
  5
106
100
AcDbEntity
  8
LAY-3
  6
CONTINUOUS
 62
     6
100
AcDbVertex
100
AcDb2dVertex
 10
183.036887
 20
330.543357
 30
0.0
  0
VERTEX
  5
107
100
AcDbEntity
  8
LAY-3
  6
CONTINUOUS
 62
     6
100
AcDbVertex
100
AcDb2dVertex
 10
183.907894
 20
330.663307
 30
0.0
  0
VERTEX
  5
108
100
AcDbEntity
  8
LAY-3
  6
CONTINUOUS
 62
     6
100
AcDbVertex
100
AcDb2dVertex
 10
185.053527
 20
330.812417
 30
0.0
  0
VERTEX
  5
109
100
AcDbEntity
  8
LAY-3
  6
CONTINUOUS
 62
     6
100
AcDbVertex
100
AcDb2dVertex
 10
186.431223
 20
330.97983
 30
0.0
  0
VERTEX
  5
10A
100
AcDbEntity
  8
LAY-3
  6
CONTINUOUS
 62
     6
100
AcDbVertex
100
AcDb2dVertex
 10
187.998419
 20
331.154687
 30
0.0
  0
VERTEX
  5
10B
100
AcDbEntity
  8
LAY-3
  6
CONTINUOUS
 62
     6
100
AcDbVertex
100
AcDb2dVertex
 10
189.71255
 20
331.326132
 30
0.0
  0
VERTEX
  5
10C
100
AcDbEntity
  8
LAY-3
  6
CONTINUOUS
 62
     6
100
AcDbVertex
100
AcDb2dVertex
 10
191.531055
 20
331.483306
 30
0.0
  0
VERTEX
  5
10D
100
AcDbEntity
  8
LAY-3
  6
CONTINUOUS
 62
     6
100
AcDbVertex
100
AcDb2dVertex
 10
193.411369
 20
331.615351
 30
0.0
  0
VERTEX
  5
10E
100
AcDbEntity
  8
LAY-3
  6
CONTINUOUS
 62
     6
100
AcDbVertex
100
AcDb2dVertex
 10
195.310928
 20
331.711411
 30
0.0
  0
VERTEX
  5
10F
100
AcDbEntity
  8
LAY-3
  6
CONTINUOUS
 62
     6
100
AcDbVertex
100
AcDb2dVertex
 10
197.187171
 20
331.760627
 30
0.0
  0
VERTEX
  5
110
100
AcDbEntity
  8
LAY-3
  6
CONTINUOUS
 62
     6
100
AcDbVertex
100
AcDb2dVertex
 10
201.53488
 20
331.651994
 30
0.0
  0
VERTEX
  5
111
100
AcDbEntity
  8
LAY-3
  6
CONTINUOUS
 62
     6
100
AcDbVertex
100
AcDb2dVertex
 10
205.532181
 20
331.259395
 30
0.0
  0
VERTEX
  5
112
100
AcDbEntity
  8
LAY-3
  6
CONTINUOUS
 62
     6
100
AcDbVertex
100
AcDb2dVertex
 10
209.224943
 20
330.645943
 30
0.0
  0
VERTEX
  5
113
100
AcDbEntity
  8
LAY-3
  6
CONTINUOUS
 62
     6
100
AcDbVertex
100
AcDb2dVertex
 10
212.659032
 20
329.874748
 30
0.0
  0
VERTEX
  5
114
100
AcDbEntity
  8
LAY-3
  6
CONTINUOUS
 62
     6
100
AcDbVertex
100
AcDb2dVertex
 10
215.880316
 20
329.008921
 30
0.0
  0
VERTEX
  5
115
100
AcDbEntity
  8
LAY-3
  6
CONTINUOUS
 62
     6
100
AcDbVertex
100
AcDb2dVertex
 10
218.934663
 20
328.111572
 30
0.0
  0
VERTEX
  5
116
100
AcDbEntity
  8
LAY-3
  6
CONTINUOUS
 62
     6
100
AcDbVertex
100
AcDb2dVertex
 10
221.867941
 20
327.245812
 30
0.0
  0
VERTEX
  5
117
100
AcDbEntity
  8
LAY-3
  6
CONTINUOUS
 62
     6
100
AcDbVertex
100
AcDb2dVertex
 10
224.726017
 20
326.474753
 30
0.0
  0
VERTEX
  5
118
100
AcDbEntity
  8
LAY-3
  6
CONTINUOUS
 62
     6
100
AcDbVertex
100
AcDb2dVertex
 10
227.554758
 20
325.861504
 30
0.0
  0
VERTEX
  5
119
100
AcDbEntity
  8
LAY-3
  6
CONTINUOUS
 62
     6
100
AcDbVertex
100
AcDb2dVertex
 10
230.400034
 20
325.469177
 30
0.0
  0
VERTEX
  5
11A
100
AcDbEntity
  8
LAY-3
  6
CONTINUOUS
 62
     6
100
AcDbVertex
100
AcDb2dVertex
 10
233.30771
 20
325.360883
 30
0.0
  0
VERTEX
  5
11B
100
AcDbEntity
  8
LAY-3
  6
CONTINUOUS
 62
     6
100
AcDbVertex
100
AcDb2dVertex
 10
235.70709
 20
325.509096
 30
0.0
  0
VERTEX
  5
11C
100
AcDbEntity
  8
LAY-3
  6
CONTINUOUS
 62
     6
100
AcDbVertex
100
AcDb2dVertex
 10
238.170354
 20
325.838304
 30
0.0
  0
VERTEX
  5
11D
100
AcDbEntity
  8
LAY-3
  6
CONTINUOUS
 62
     6
100
AcDbVertex
100
AcDb2dVertex
 10
240.691962
 20
326.306905
 30
0.0
  0
VERTEX
  5
11E
100
AcDbEntity
  8
LAY-3
  6
CONTINUOUS
 62
     6
100
AcDbVertex
100
AcDb2dVertex
 10
243.266375
 20
326.873297
 30
0.0
  0
VERTEX
  5
11F
100
AcDbEntity
  8
LAY-3
  6
CONTINUOUS
 62
     6
100
AcDbVertex
100
AcDb2dVertex
 10
245.888051
 20
327.495879
 30
0.0
  0
VERTEX
  5
120
100
AcDbEntity
  8
LAY-3
  6
CONTINUOUS
 62
     6
100
AcDbVertex
100
AcDb2dVertex
 10
248.551452
 20
328.133049
 30
0.0
  0
VERTEX
  5
121
100
AcDbEntity
  8
LAY-3
  6
CONTINUOUS
 62
     6
100
AcDbVertex
100
AcDb2dVertex
 10
251.251036
 20
328.743206
 30
0.0
  0
VERTEX
  5
122
100
AcDbEntity
  8
LAY-3
  6
CONTINUOUS
 62
     6
100
AcDbVertex
100
AcDb2dVertex
 10
253.981264
 20
329.284747
 30
0.0
  0
VERTEX
  5
123
100
AcDbEntity
  8
LAY-3
  6
CONTINUOUS
 62
     6
100
AcDbVertex
100
AcDb2dVertex
 10
256.736596
 20
329.716072
 30
0.0
  0
VERTEX
  5
124
100
AcDbEntity
  8
LAY-3
  6
CONTINUOUS
 62
     6
100
AcDbVertex
100
AcDb2dVertex
 10
259.511491
 20
329.995578
 30
0.0
  0
VERTEX
  5
125
100
AcDbEntity
  8
LAY-3
  6
CONTINUOUS
 62
     6
100
AcDbVertex
100
AcDb2dVertex
 10
262.300409
 20
330.081664
 30
0.0
  0
VERTEX
  5
126
100
AcDbEntity
  8
LAY-3
  6
CONTINUOUS
 62
     6
100
AcDbVertex
100
AcDb2dVertex
 10
265.024737
 20
329.953437
 30
0.0
  0
VERTEX
  5
127
100
AcDbEntity
  8
LAY-3
  6
CONTINUOUS
 62
     6
100
AcDbVertex
100
AcDb2dVertex
 10
267.747521
 20
329.645073
 30
0.0
  0
VERTEX
  5
128
100
AcDbEntity
  8
LAY-3
  6
CONTINUOUS
 62
     6
100
AcDbVertex
100
AcDb2dVertex
 10
270.45917
 20
329.199472
 30
0.0
  0
VERTEX
  5
129
100
AcDbEntity
  8
LAY-3
  6
CONTINUOUS
 62
     6
100
AcDbVertex
100
AcDb2dVertex
 10
273.150089
 20
328.659531
 30
0.0
  0
VERTEX
  5
12A
100
AcDbEntity
  8
LAY-3
  6
CONTINUOUS
 62
     6
100
AcDbVertex
100
AcDb2dVertex
 10
275.810685
 20
328.06815
 30
0.0
  0
VERTEX
  5
12B
100
AcDbEntity
  8
LAY-3
  6
CONTINUOUS
 62
     6
100
AcDbVertex
100
AcDb2dVertex
 10
278.431364
 20
327.468227
 30
0.0
  0
VERTEX
  5
12C
100
AcDbEntity
  8
LAY-3
  6
CONTINUOUS
 62
     6
100
AcDbVertex
100
AcDb2dVertex
 10
281.002534
 20
326.902661
 30
0.0
  0
VERTEX
  5
12D
100
AcDbEntity
  8
LAY-3
  6
CONTINUOUS
 62
     6
100
AcDbVertex
100
AcDb2dVertex
 10
283.5146
 20
326.414352
 30
0.0
  0
VERTEX
  5
12E
100
AcDbEntity
  8
LAY-3
  6
CONTINUOUS
 62
     6
100
AcDbVertex
100
AcDb2dVertex
 10
285.95797
 20
326.046197
 30
0.0
  0
VERTEX
  5
12F
100
AcDbEntity
  8
LAY-3
  6
CONTINUOUS
 62
     6
100
AcDbVertex
100
AcDb2dVertex
 10
288.32305
 20
325.841096
 30
0.0
  0
VERTEX
  5
130
100
AcDbEntity
  8
LAY-3
  6
CONTINUOUS
 62
     6
100
AcDbVertex
100
AcDb2dVertex
 10
290.600246
 20
325.841947
 30
0.0
  0
VERTEX
  5
131
100
AcDbEntity
  8
LAY-3
  6
CONTINUOUS
 62
     6
100
AcDbVertex
100
AcDb2dVertex
 10
292.425589
 20
326.020691
 30
0.0
  0
VERTEX
  5
132
100
AcDbEntity
  8
LAY-3
  6
CONTINUOUS
 62
     6
100
AcDbVertex
100
AcDb2dVertex
 10
294.215513
 20
326.338868
 30
0.0
  0
VERTEX
  5
133
100
AcDbEntity
  8
LAY-3
  6
CONTINUOUS
 62
     6
100
AcDbVertex
100
AcDb2dVertex
 10
296.001953
 20
326.763965
 30
0.0
  0
VERTEX
  5
134
100
AcDbEntity
  8
LAY-3
  6
CONTINUOUS
 62
     6
100
AcDbVertex
100
AcDb2dVertex
 10
297.816841
 20
327.263472
 30
0.0
  0
VERTEX
  5
135
100
AcDbEntity
  8
LAY-3
  6
CONTINUOUS
 62
     6
100
AcDbVertex
100
AcDb2dVertex
 10
299.69211
 20
327.804877
 30
0.0
  0
VERTEX
  5
136
100
AcDbEntity
  8
LAY-3
  6
CONTINUOUS
 62
     6
100
AcDbVertex
100
AcDb2dVertex
 10
301.659694
 20
328.35567
 30
0.0
  0
VERTEX
  5
137
100
AcDbEntity
  8
LAY-3
  6
CONTINUOUS
 62
     6
100
AcDbVertex
100
AcDb2dVertex
 10
303.751527
 20
328.883338
 30
0.0
  0
VERTEX
  5
138
100
AcDbEntity
  8
LAY-3
  6
CONTINUOUS
 62
     6
100
AcDbVertex
100
AcDb2dVertex
 10
305.99954
 20
329.355372
 30
0.0
  0
VERTEX
  5
139
100
AcDbEntity
  8
LAY-3
  6
CONTINUOUS
 62
     6
100
AcDbVertex
100
AcDb2dVertex
 10
308.435668
 20
329.73926
 30
0.0
  0
VERTEX
  5
13A
100
AcDbEntity
  8
LAY-3
  6
CONTINUOUS
 62
     6
100
AcDbVertex
100
AcDb2dVertex
 10
311.091843
 20
330.00249
 30
0.0
  0
VERTEX
  5
13B
100
AcDbEntity
  8
LAY-3
  6
CONTINUOUS
 62
     6
100
AcDbVertex
100
AcDb2dVertex
 10
314.0
 20
330.112552
 30
0.0
  0
VERTEX
  5
13C
100
AcDbEntity
  8
LAY-3
  6
CONTINUOUS
 62
     6
100
AcDbVertex
100
AcDb2dVertex
 10
314.774827
 20
330.112695
 30
0.0
  0
VERTEX
  5
13D
100
AcDbEntity
  8
LAY-3
  6
CONTINUOUS
 62
     6
100
AcDbVertex
100
AcDb2dVertex
 10
315.551749
 20
330.103067
 30
0.0
  0
VERTEX
  5
13E
100
AcDbEntity
  8
LAY-3
  6
CONTINUOUS
 62
     6
100
AcDbVertex
100
AcDb2dVertex
 10
316.314775
 20
330.085724
 30
0.0
  0
VERTEX
  5
13F
100
AcDbEntity
  8
LAY-3
  6
CONTINUOUS
 62
     6
100
AcDbVertex
100
AcDb2dVertex
 10
317.047917
 20
330.062721
 30
0.0
  0
VERTEX
  5
140
100
AcDbEntity
  8
LAY-3
  6
CONTINUOUS
 62
     6
100
AcDbVertex
100
AcDb2dVertex
 10
317.735185
 20
330.036115
 30
0.0
  0
VERTEX
  5
141
100
AcDbEntity
  8
LAY-3
  6
CONTINUOUS
 62
     6
100
AcDbVertex
100
AcDb2dVertex
 10
318.360588
 20
330.007961
 30
0.0
  0
VERTEX
  5
142
100
AcDbEntity
  8
LAY-3
  6
CONTINUOUS
 62
     6
100
AcDbVertex
100
AcDb2dVertex
 10
318.908137
 20
329.980317
 30
0.0
  0
VERTEX
  5
143
100
AcDbEntity
  8
LAY-3
  6
CONTINUOUS
 62
     6
100
AcDbVertex
100
AcDb2dVertex
 10
319.361842
 20
329.955236
 30
0.0
  0
VERTEX
  5
144
100
AcDbEntity
  8
LAY-3
  6
CONTINUOUS
 62
     6
100
AcDbVertex
100
AcDb2dVertex
 10
319.705715
 20
329.934776
 30
0.0
  0
VERTEX
  5
145
100
AcDbEntity
  8
LAY-3
  6
CONTINUOUS
 62
     6
100
AcDbVertex
100
AcDb2dVertex
 10
319.923764
 20
329.920992
 30
0.0
  0
VERTEX
  5
146
100
AcDbEntity
  8
LAY-3
  6
CONTINUOUS
 62
     6
100
AcDbVertex
100
AcDb2dVertex
 10
320.0
 20
329.915941
 30
0.0
  0
SEQEND
  5
147
100
AcDbEntity
  8
LAY-3
  6
CONTINUOUS
 62
     6
  0
POLYLINE
  5
148
100
AcDbEntity
  8
LAY-3
  6
CONTINUOUS
 62
     6
100
AcDb2dPolyline
 66
     1
 10
0.0
 20
0.0
 30
0.0
 70
   128
  0
VERTEX
  5
149
100
AcDbEntity
  8
LAY-3
  6
CONTINUOUS
 62
     6
100
AcDbVertex
100
AcDb2dVertex
 10
43.0
 20
332.82902
 30
0.0
  0
VERTEX
  5
14A
100
AcDbEntity
  8
LAY-3
  6
CONTINUOUS
 62
     6
100
AcDbVertex
100
AcDb2dVertex
 10
43.154778
 20
332.804839
 30
0.0
  0
VERTEX
  5
14B
100
AcDbEntity
  8
LAY-3
  6
CONTINUOUS
 62
     6
100
AcDbVertex
100
AcDb2dVertex
 10
43.596186
 20
332.738351
 30
0.0
  0
VERTEX
  5
14C
100
AcDbEntity
  8
LAY-3
  6
CONTINUOUS
 62
     6
100
AcDbVertex
100
AcDb2dVertex
 10
44.289836
 20
332.638638
 30
0.0
  0
VERTEX
  5
14D
100
AcDbEntity
  8
LAY-3
  6
CONTINUOUS
 62
     6
100
AcDbVertex
100
AcDb2dVertex
 10
45.201342
 20
332.514785
 30
0.0
  0
VERTEX
  5
14E
100
AcDbEntity
  8
LAY-3
  6
CONTINUOUS
 62
     6
100
AcDbVertex
100
AcDb2dVertex
 10
46.296316
 20
332.375873
 30
0.0
  0
VERTEX
  5
14F
100
AcDbEntity
  8
LAY-3
  6
CONTINUOUS
 62
     6
100
AcDbVertex
100
AcDb2dVertex
 10
47.54037
 20
332.230986
 30
0.0
  0
VERTEX
  5
150
100
AcDbEntity
  8
LAY-3
  6
CONTINUOUS
 62
     6
100
AcDbVertex
100
AcDb2dVertex
 10
48.899116
 20
332.089206
 30
0.0
  0
VERTEX
  5
151
100
AcDbEntity
  8
LAY-3
  6
CONTINUOUS
 62
     6
100
AcDbVertex
100
AcDb2dVertex
 10
50.338168
 20
331.959616
 30
0.0
  0
VERTEX
  5
152
100
AcDbEntity
  8
LAY-3
  6
CONTINUOUS
 62
     6
100
AcDbVertex
100
AcDb2dVertex
 10
51.823137
 20
331.8513
 30
0.0
  0
VERTEX
  5
153
100
AcDbEntity
  8
LAY-3
  6
CONTINUOUS
 62
     6
100
AcDbVertex
100
AcDb2dVertex
 10
53.319636
 20
331.77334
 30
0.0
  0
VERTEX
  5
154
100
AcDbEntity
  8
LAY-3
  6
CONTINUOUS
 62
     6
100
AcDbVertex
100
AcDb2dVertex
 10
54.793278
 20
331.734818
 30
0.0
  0
VERTEX
  5
155
100
AcDbEntity
  8
LAY-3
  6
CONTINUOUS
 62
     6
100
AcDbVertex
100
AcDb2dVertex
 10
57.73191
 20
331.803389
 30
0.0
  0
VERTEX
  5
156
100
AcDbEntity
  8
LAY-3
  6
CONTINUOUS
 62
     6
100
AcDbVertex
100
AcDb2dVertex
 10
60.444191
 20
332.050984
 30
0.0
  0
VERTEX
  5
157
100
AcDbEntity
  8
LAY-3
  6
CONTINUOUS
 62
     6
100
AcDbVertex
100
AcDb2dVertex
 10
62.958666
 20
332.440572
 30
0.0
  0
VERTEX
  5
158
100
AcDbEntity
  8
LAY-3
  6
CONTINUOUS
 62
     6
100
AcDbVertex
100
AcDb2dVertex
 10
65.303885
 20
332.93512
 30
0.0
  0
VERTEX
  5
159
100
AcDbEntity
  8
LAY-3
  6
CONTINUOUS
 62
     6
100
AcDbVertex
100
AcDb2dVertex
 10
67.508396
 20
333.497594
 30
0.0
  0
VERTEX
  5
15A
100
AcDbEntity
  8
LAY-3
  6
CONTINUOUS
 62
     6
100
AcDbVertex
100
AcDb2dVertex
 10
69.600745
 20
334.090963
 30
0.0
  0
VERTEX
  5
15B
100
AcDbEntity
  8
LAY-3
  6
CONTINUOUS
 62
     6
100
AcDbVertex
100
AcDb2dVertex
 10
71.609483
 20
334.678192
 30
0.0
  0
VERTEX
  5
15C
100
AcDbEntity
  8
LAY-3
  6
CONTINUOUS
 62
     6
100
AcDbVertex
100
AcDb2dVertex
 10
73.563156
 20
335.22225
 30
0.0
  0
VERTEX
  5
15D
100
AcDbEntity
  8
LAY-3
  6
CONTINUOUS
 62
     6
100
AcDbVertex
100
AcDb2dVertex
 10
75.490313
 20
335.686104
 30
0.0
  0
VERTEX
  5
15E
100
AcDbEntity
  8
LAY-3
  6
CONTINUOUS
 62
     6
100
AcDbVertex
100
AcDb2dVertex
 10
77.419501
 20
336.03272
 30
0.0
  0
VERTEX
  5
15F
100
AcDbEntity
  8
LAY-3
  6
CONTINUOUS
 62
     6
100
AcDbVertex
100
AcDb2dVertex
 10
79.37927
 20
336.225066
 30
0.0
  0
VERTEX
  5
160
100
AcDbEntity
  8
LAY-3
  6
CONTINUOUS
 62
     6
100
AcDbVertex
100
AcDb2dVertex
 10
81.953132
 20
336.210375
 30
0.0
  0
VERTEX
  5
161
100
AcDbEntity
  8
LAY-3
  6
CONTINUOUS
 62
     6
100
AcDbVertex
100
AcDb2dVertex
 10
84.613287
 20
335.942072
 30
0.0
  0
VERTEX
  5
162
100
AcDbEntity
  8
LAY-3
  6
CONTINUOUS
 62
     6
100
AcDbVertex
100
AcDb2dVertex
 10
87.350122
 20
335.476838
 30
0.0
  0
VERTEX
  5
163
100
AcDbEntity
  8
LAY-3
  6
CONTINUOUS
 62
     6
100
AcDbVertex
100
AcDb2dVertex
 10
90.154026
 20
334.871355
 30
0.0
  0
VERTEX
  5
164
100
AcDbEntity
  8
LAY-3
  6
CONTINUOUS
 62
     6
100
AcDbVertex
100
AcDb2dVertex
 10
93.015385
 20
334.182303
 30
0.0
  0
VERTEX
  5
165
100
AcDbEntity
  8
LAY-3
  6
CONTINUOUS
 62
     6
100
AcDbVertex
100
AcDb2dVertex
 10
95.924586
 20
333.466366
 30
0.0
  0
VERTEX
  5
166
100
AcDbEntity
  8
LAY-3
  6
CONTINUOUS
 62
     6
100
AcDbVertex
100
AcDb2dVertex
 10
98.872018
 20
332.780224
 30
0.0
  0
VERTEX
  5
167
100
AcDbEntity
  8
LAY-3
  6
CONTINUOUS
 62
     6
100
AcDbVertex
100
AcDb2dVertex
 10
101.848068
 20
332.180558
 30
0.0
  0
VERTEX
  5
168
100
AcDbEntity
  8
LAY-3
  6
CONTINUOUS
 62
     6
100
AcDbVertex
100
AcDb2dVertex
 10
104.843123
 20
331.724051
 30
0.0
  0
VERTEX
  5
169
100
AcDbEntity
  8
LAY-3
  6
CONTINUOUS
 62
     6
100
AcDbVertex
100
AcDb2dVertex
 10
107.847572
 20
331.467384
 30
0.0
  0
VERTEX
  5
16A
100
AcDbEntity
  8
LAY-3
  6
CONTINUOUS
 62
     6
100
AcDbVertex
100
AcDb2dVertex
 10
110.8518
 20
331.467237
 30
0.0
  0
VERTEX
  5
16B
100
AcDbEntity
  8
LAY-3
  6
CONTINUOUS
 62
     6
100
AcDbVertex
100
AcDb2dVertex
 10
113.377868
 20
331.695525
 30
0.0
  0
VERTEX
  5
16C
100
AcDbEntity
  8
LAY-3
  6
CONTINUOUS
 62
     6
100
AcDbVertex
100
AcDb2dVertex
 10
115.891803
 20
332.104401
 30
0.0
  0
VERTEX
  5
16D
100
AcDbEntity
  8
LAY-3
  6
CONTINUOUS
 62
     6
100
AcDbVertex
100
AcDb2dVertex
 10
118.388462
 20
332.651759
 30
0.0
  0
VERTEX
  5
16E
100
AcDbEntity
  8
LAY-3
  6
CONTINUOUS
 62
     6
100
AcDbVertex
100
AcDb2dVertex
 10
120.862702
 20
333.295495
 30
0.0
  0
VERTEX
  5
16F
100
AcDbEntity
  8
LAY-3
  6
CONTINUOUS
 62
     6
100
AcDbVertex
100
AcDb2dVertex
 10
123.309382
 20
333.993504
 30
0.0
  0
VERTEX
  5
170
100
AcDbEntity
  8
LAY-3
  6
CONTINUOUS
 62
     6
100
AcDbVertex
100
AcDb2dVertex
 10
125.723359
 20
334.703683
 30
0.0
  0
VERTEX
  5
171
100
AcDbEntity
  8
LAY-3
  6
CONTINUOUS
 62
     6
100
AcDbVertex
100
AcDb2dVertex
 10
128.09949
 20
335.383926
 30
0.0
  0
VERTEX
  5
172
100
AcDbEntity
  8
LAY-3
  6
CONTINUOUS
 62
     6
100
AcDbVertex
100
AcDb2dVertex
 10
130.432633
 20
335.992129
 30
0.0
  0
VERTEX
  5
173
100
AcDbEntity
  8
LAY-3
  6
CONTINUOUS
 62
     6
100
AcDbVertex
100
AcDb2dVertex
 10
132.717645
 20
336.486188
 30
0.0
  0
VERTEX
  5
174
100
AcDbEntity
  8
LAY-3
  6
CONTINUOUS
 62
     6
100
AcDbVertex
100
AcDb2dVertex
 10
134.949384
 20
336.823998
 30
0.0
  0
VERTEX
  5
175
100
AcDbEntity
  8
LAY-3
  6
CONTINUOUS
 62
     6
100
AcDbVertex
100
AcDb2dVertex
 10
137.122708
 20
336.963454
 30
0.0
  0
VERTEX
  5
176
100
AcDbEntity
  8
LAY-3
  6
CONTINUOUS
 62
     6
100
AcDbVertex
100
AcDb2dVertex
 10
139.58469
 20
336.841239
 30
0.0
  0
VERTEX
  5
177
100
AcDbEntity
  8
LAY-3
  6
CONTINUOUS
 62
     6
100
AcDbVertex
100
AcDb2dVertex
 10
141.999057
 20
336.456267
 30
0.0
  0
VERTEX
  5
178
100
AcDbEntity
  8
LAY-3
  6
CONTINUOUS
 62
     6
100
AcDbVertex
100
AcDb2dVertex
 10
144.404655
 20
335.872881
 30
0.0
  0
VERTEX
  5
179
100
AcDbEntity
  8
LAY-3
  6
CONTINUOUS
 62
     6
100
AcDbVertex
100
AcDb2dVertex
 10
146.840326
 20
335.155424
 30
0.0
  0
VERTEX
  5
17A
100
AcDbEntity
  8
LAY-3
  6
CONTINUOUS
 62
     6
100
AcDbVertex
100
AcDb2dVertex
 10
149.344917
 20
334.368238
 30
0.0
  0
VERTEX
  5
17B
100
AcDbEntity
  8
LAY-3
  6
CONTINUOUS
 62
     6
100
AcDbVertex
100
AcDb2dVertex
 10
151.957271
 20
333.575664
 30
0.0
  0
VERTEX
  5
17C
100
AcDbEntity
  8
LAY-3
  6
CONTINUOUS
 62
     6
100
AcDbVertex
100
AcDb2dVertex
 10
154.716233
 20
332.842046
 30
0.0
  0
VERTEX
  5
17D
100
AcDbEntity
  8
LAY-3
  6
CONTINUOUS
 62
     6
100
AcDbVertex
100
AcDb2dVertex
 10
157.660647
 20
332.231725
 30
0.0
  0
VERTEX
  5
17E
100
AcDbEntity
  8
LAY-3
  6
CONTINUOUS
 62
     6
100
AcDbVertex
100
AcDb2dVertex
 10
160.829358
 20
331.809044
 30
0.0
  0
VERTEX
  5
17F
100
AcDbEntity
  8
LAY-3
  6
CONTINUOUS
 62
     6
100
AcDbVertex
100
AcDb2dVertex
 10
164.26121
 20
331.638346
 30
0.0
  0
VERTEX
  5
180
100
AcDbEntity
  8
LAY-3
  6
CONTINUOUS
 62
     6
100
AcDbVertex
100
AcDb2dVertex
 10
167.995048
 20
331.783971
 30
0.0
  0
VERTEX
  5
181
100
AcDbEntity
  8
LAY-3
  6
CONTINUOUS
 62
     6
100
AcDbVertex
100
AcDb2dVertex
 10
169.326297
 20
331.913929
 30
0.0
  0
VERTEX
  5
182
100
AcDbEntity
  8
LAY-3
  6
CONTINUOUS
 62
     6
100
AcDbVertex
100
AcDb2dVertex
 10
170.667602
 20
332.077607
 30
0.0
  0
VERTEX
  5
183
100
AcDbEntity
  8
LAY-3
  6
CONTINUOUS
 62
     6
100
AcDbVertex
100
AcDb2dVertex
 10
171.990129
 20
332.265293
 30
0.0
  0
VERTEX
  5
184
100
AcDbEntity
  8
LAY-3
  6
CONTINUOUS
 62
     6
100
AcDbVertex
100
AcDb2dVertex
 10
173.265046
 20
332.467273
 30
0.0
  0
VERTEX
  5
185
100
AcDbEntity
  8
LAY-3
  6
CONTINUOUS
 62
     6
100
AcDbVertex
100
AcDb2dVertex
 10
174.46352
 20
332.673836
 30
0.0
  0
VERTEX
  5
186
100
AcDbEntity
  8
LAY-3
  6
CONTINUOUS
 62
     6
100
AcDbVertex
100
AcDb2dVertex
 10
175.556719
 20
332.875268
 30
0.0
  0
VERTEX
  5
187
100
AcDbEntity
  8
LAY-3
  6
CONTINUOUS
 62
     6
100
AcDbVertex
100
AcDb2dVertex
 10
176.51581
 20
333.061857
 30
0.0
  0
VERTEX
  5
188
100
AcDbEntity
  8
LAY-3
  6
CONTINUOUS
 62
     6
100
AcDbVertex
100
AcDb2dVertex
 10
177.31196
 20
333.223889
 30
0.0
  0
VERTEX
  5
189
100
AcDbEntity
  8
LAY-3
  6
CONTINUOUS
 62
     6
100
AcDbVertex
100
AcDb2dVertex
 10
177.916336
 20
333.351651
 30
0.0
  0
VERTEX
  5
18A
100
AcDbEntity
  8
LAY-3
  6
CONTINUOUS
 62
     6
100
AcDbVertex
100
AcDb2dVertex
 10
178.300105
 20
333.435431
 30
0.0
  0
VERTEX
  5
18B
100
AcDbEntity
  8
LAY-3
  6
CONTINUOUS
 62
     6
100
AcDbVertex
100
AcDb2dVertex
 10
178.434436
 20
333.465516
 30
0.0
  0
SEQEND
  5
18C
100
AcDbEntity
  8
LAY-3
  6
CONTINUOUS
 62
     6
  0
POLYLINE
  5
18D
100
AcDbEntity
  8
LAY-3
  6
CONTINUOUS
 62
     6
100
AcDb2dPolyline
 66
     1
 10
0.0
 20
0.0
 30
0.0
 70
   128
  0
VERTEX
  5
18E
100
AcDbEntity
  8
LAY-3
  6
CONTINUOUS
 62
     6
100
AcDbVertex
100
AcDb2dVertex
 10
43.0
 20
329.111194
 30
0.0
  0
VERTEX
  5
18F
100
AcDbEntity
  8
LAY-3
  6
CONTINUOUS
 62
     6
100
AcDbVertex
100
AcDb2dVertex
 10
43.174763
 20
329.083439
 30
0.0
  0
VERTEX
  5
190
100
AcDbEntity
  8
LAY-3
  6
CONTINUOUS
 62
     6
100
AcDbVertex
100
AcDb2dVertex
 10
43.672798
 20
329.007366
 30
0.0
  0
VERTEX
  5
191
100
AcDbEntity
  8
LAY-3
  6
CONTINUOUS
 62
     6
100
AcDbVertex
100
AcDb2dVertex
 10
44.454724
 20
328.893764
 30
0.0
  0
VERTEX
  5
192
100
AcDbEntity
  8
LAY-3
  6
CONTINUOUS
 62
     6
100
AcDbVertex
100
AcDb2dVertex
 10
45.481161
 20
328.753421
 30
0.0
  0
VERTEX
  5
193
100
AcDbEntity
  8
LAY-3
  6
CONTINUOUS
 62
     6
100
AcDbVertex
100
AcDb2dVertex
 10
46.712727
 20
328.597127
 30
0.0
  0
VERTEX
  5
194
100
AcDbEntity
  8
LAY-3
  6
CONTINUOUS
 62
     6
100
AcDbVertex
100
AcDb2dVertex
 10
48.110042
 20
328.435669
 30
0.0
  0
VERTEX
  5
195
100
AcDbEntity
  8
LAY-3
  6
CONTINUOUS
 62
     6
100
AcDbVertex
100
AcDb2dVertex
 10
49.633726
 20
328.279837
 30
0.0
  0
VERTEX
  5
196
100
AcDbEntity
  8
LAY-3
  6
CONTINUOUS
 62
     6
100
AcDbVertex
100
AcDb2dVertex
 10
51.244397
 20
328.14042
 30
0.0
  0
VERTEX
  5
197
100
AcDbEntity
  8
LAY-3
  6
CONTINUOUS
 62
     6
100
AcDbVertex
100
AcDb2dVertex
 10
52.902675
 20
328.028205
 30
0.0
  0
VERTEX
  5
198
100
AcDbEntity
  8
LAY-3
  6
CONTINUOUS
 62
     6
100
AcDbVertex
100
AcDb2dVertex
 10
54.569178
 20
327.953982
 30
0.0
  0
VERTEX
  5
199
100
AcDbEntity
  8
LAY-3
  6
CONTINUOUS
 62
     6
100
AcDbVertex
100
AcDb2dVertex
 10
56.204527
 20
327.92854
 30
0.0
  0
VERTEX
  5
19A
100
AcDbEntity
  8
LAY-3
  6
CONTINUOUS
 62
     6
100
AcDbVertex
100
AcDb2dVertex
 10
59.050071
 20
328.028497
 30
0.0
  0
VERTEX
  5
19B
100
AcDbEntity
  8
LAY-3
  6
CONTINUOUS
 62
     6
100
AcDbVertex
100
AcDb2dVertex
 10
61.682862
 20
328.295452
 30
0.0
  0
VERTEX
  5
19C
100
AcDbEntity
  8
LAY-3
  6
CONTINUOUS
 62
     6
100
AcDbVertex
100
AcDb2dVertex
 10
64.129701
 20
328.694092
 30
0.0
  0
VERTEX
  5
19D
100
AcDbEntity
  8
LAY-3
  6
CONTINUOUS
 62
     6
100
AcDbVertex
100
AcDb2dVertex
 10
66.417387
 20
329.189107
 30
0.0
  0
VERTEX
  5
19E
100
AcDbEntity
  8
LAY-3
  6
CONTINUOUS
 62
     6
100
AcDbVertex
100
AcDb2dVertex
 10
68.57272
 20
329.745183
 30
0.0
  0
VERTEX
  5
19F
100
AcDbEntity
  8
LAY-3
  6
CONTINUOUS
 62
     6
100
AcDbVertex
100
AcDb2dVertex
 10
70.622502
 20
330.32701
 30
0.0
  0
VERTEX
  5
1A0
100
AcDbEntity
  8
LAY-3
  6
CONTINUOUS
 62
     6
100
AcDbVertex
100
AcDb2dVertex
 10
72.593533
 20
330.899275
 30
0.0
  0
VERTEX
  5
1A1
100
AcDbEntity
  8
LAY-3
  6
CONTINUOUS
 62
     6
100
AcDbVertex
100
AcDb2dVertex
 10
74.512613
 20
331.426667
 30
0.0
  0
VERTEX
  5
1A2
100
AcDbEntity
  8
LAY-3
  6
CONTINUOUS
 62
     6
100
AcDbVertex
100
AcDb2dVertex
 10
76.406542
 20
331.873875
 30
0.0
  0
VERTEX
  5
1A3
100
AcDbEntity
  8
LAY-3
  6
CONTINUOUS
 62
     6
100
AcDbVertex
100
AcDb2dVertex
 10
78.30212
 20
332.205585
 30
0.0
  0
VERTEX
  5
1A4
100
AcDbEntity
  8
LAY-3
  6
CONTINUOUS
 62
     6
100
AcDbVertex
100
AcDb2dVertex
 10
80.226149
 20
332.386487
 30
0.0
  0
VERTEX
  5
1A5
100
AcDbEntity
  8
LAY-3
  6
CONTINUOUS
 62
     6
100
AcDbVertex
100
AcDb2dVertex
 10
82.759772
 20
332.363417
 30
0.0
  0
VERTEX
  5
1A6
100
AcDbEntity
  8
LAY-3
  6
CONTINUOUS
 62
     6
100
AcDbVertex
100
AcDb2dVertex
 10
85.374802
 20
332.091484
 30
0.0
  0
VERTEX
  5
1A7
100
AcDbEntity
  8
LAY-3
  6
CONTINUOUS
 62
     6
100
AcDbVertex
100
AcDb2dVertex
 10
88.062303
 20
331.626162
 30
0.0
  0
VERTEX
  5
1A8
100
AcDbEntity
  8
LAY-3
  6
CONTINUOUS
 62
     6
100
AcDbVertex
100
AcDb2dVertex
 10
90.813338
 20
331.022926
 30
0.0
  0
VERTEX
  5
1A9
100
AcDbEntity
  8
LAY-3
  6
CONTINUOUS
 62
     6
100
AcDbVertex
100
AcDb2dVertex
 10
93.618972
 20
330.337252
 30
0.0
  0
VERTEX
  5
1AA
100
AcDbEntity
  8
LAY-3
  6
CONTINUOUS
 62
     6
100
AcDbVertex
100
AcDb2dVertex
 10
96.470268
 20
329.624613
 30
0.0
  0
VERTEX
  5
1AB
100
AcDbEntity
  8
LAY-3
  6
CONTINUOUS
 62
     6
100
AcDbVertex
100
AcDb2dVertex
 10
99.35829
 20
328.940484
 30
0.0
  0
VERTEX
  5
1AC
100
AcDbEntity
  8
LAY-3
  6
CONTINUOUS
 62
     6
100
AcDbVertex
100
AcDb2dVertex
 10
102.274101
 20
328.340341
 30
0.0
  0
VERTEX
  5
1AD
100
AcDbEntity
  8
LAY-3
  6
CONTINUOUS
 62
     6
100
AcDbVertex
100
AcDb2dVertex
 10
105.208765
 20
327.879658
 30
0.0
  0
VERTEX
  5
1AE
100
AcDbEntity
  8
LAY-3
  6
CONTINUOUS
 62
     6
100
AcDbVertex
100
AcDb2dVertex
 10
108.153345
 20
327.613909
 30
0.0
  0
VERTEX
  5
1AF
100
AcDbEntity
  8
LAY-3
  6
CONTINUOUS
 62
     6
100
AcDbVertex
100
AcDb2dVertex
 10
111.098906
 20
327.598569
 30
0.0
  0
VERTEX
  5
1B0
100
AcDbEntity
  8
LAY-3
  6
CONTINUOUS
 62
     6
100
AcDbVertex
100
AcDb2dVertex
 10
113.635673
 20
327.816209
 30
0.0
  0
VERTEX
  5
1B1
100
AcDbEntity
  8
LAY-3
  6
CONTINUOUS
 62
     6
100
AcDbVertex
100
AcDb2dVertex
 10
116.161162
 20
328.21896
 30
0.0
  0
VERTEX
  5
1B2
100
AcDbEntity
  8
LAY-3
  6
CONTINUOUS
 62
     6
100
AcDbVertex
100
AcDb2dVertex
 10
118.670022
 20
328.763986
 30
0.0
  0
VERTEX
  5
1B3
100
AcDbEntity
  8
LAY-3
  6
CONTINUOUS
 62
     6
100
AcDbVertex
100
AcDb2dVertex
 10
121.156904
 20
329.408452
 30
0.0
  0
VERTEX
  5
1B4
100
AcDbEntity
  8
LAY-3
  6
CONTINUOUS
 62
     6
100
AcDbVertex
100
AcDb2dVertex
 10
123.616457
 20
330.109522
 30
0.0
  0
VERTEX
  5
1B5
100
AcDbEntity
  8
LAY-3
  6
CONTINUOUS
 62
     6
100
AcDbVertex
100
AcDb2dVertex
 10
126.043333
 20
330.824359
 30
0.0
  0
VERTEX
  5
1B6
100
AcDbEntity
  8
LAY-3
  6
CONTINUOUS
 62
     6
100
AcDbVertex
100
AcDb2dVertex
 10
128.432182
 20
331.510127
 30
0.0
  0
VERTEX
  5
1B7
100
AcDbEntity
  8
LAY-3
  6
CONTINUOUS
 62
     6
100
AcDbVertex
100
AcDb2dVertex
 10
130.777653
 20
332.12399
 30
0.0
  0
VERTEX
  5
1B8
100
AcDbEntity
  8
LAY-3
  6
CONTINUOUS
 62
     6
100
AcDbVertex
100
AcDb2dVertex
 10
133.074396
 20
332.623111
 30
0.0
  0
VERTEX
  5
1B9
100
AcDbEntity
  8
LAY-3
  6
CONTINUOUS
 62
     6
100
AcDbVertex
100
AcDb2dVertex
 10
135.317063
 20
332.964656
 30
0.0
  0
VERTEX
  5
1BA
100
AcDbEntity
  8
LAY-3
  6
CONTINUOUS
 62
     6
100
AcDbVertex
100
AcDb2dVertex
 10
137.500303
 20
333.105788
 30
0.0
  0
VERTEX
  5
1BB
100
AcDbEntity
  8
LAY-3
  6
CONTINUOUS
 62
     6
100
AcDbVertex
100
AcDb2dVertex
 10
139.906318
 20
332.989583
 30
0.0
  0
VERTEX
  5
1BC
100
AcDbEntity
  8
LAY-3
  6
CONTINUOUS
 62
     6
100
AcDbVertex
100
AcDb2dVertex
 10
142.266622
 20
332.62106
 30
0.0
  0
VERTEX
  5
1BD
100
AcDbEntity
  8
LAY-3
  6
CONTINUOUS
 62
     6
100
AcDbVertex
100
AcDb2dVertex
 10
144.618898
 20
332.061056
 30
0.0
  0
VERTEX
  5
1BE
100
AcDbEntity
  8
LAY-3
  6
CONTINUOUS
 62
     6
100
AcDbVertex
100
AcDb2dVertex
 10
147.000827
 20
331.370407
 30
0.0
  0
VERTEX
  5
1BF
100
AcDbEntity
  8
LAY-3
  6
CONTINUOUS
 62
     6
100
AcDbVertex
100
AcDb2dVertex
 10
149.450091
 20
330.609952
 30
0.0
  0
VERTEX
  5
1C0
100
AcDbEntity
  8
LAY-3
  6
CONTINUOUS
 62
     6
100
AcDbVertex
100
AcDb2dVertex
 10
152.004372
 20
329.840526
 30
0.0
  0
VERTEX
  5
1C1
100
AcDbEntity
  8
LAY-3
  6
CONTINUOUS
 62
     6
100
AcDbVertex
100
AcDb2dVertex
 10
154.701353
 20
329.122967
 30
0.0
  0
VERTEX
  5
1C2
100
AcDbEntity
  8
LAY-3
  6
CONTINUOUS
 62
     6
100
AcDbVertex
100
AcDb2dVertex
 10
157.578714
 20
328.518112
 30
0.0
  0
VERTEX
  5
1C3
100
AcDbEntity
  8
LAY-3
  6
CONTINUOUS
 62
     6
100
AcDbVertex
100
AcDb2dVertex
 10
160.674138
 20
328.086798
 30
0.0
  0
VERTEX
  5
1C4
100
AcDbEntity
  8
LAY-3
  6
CONTINUOUS
 62
     6
100
AcDbVertex
100
AcDb2dVertex
 10
164.025307
 20
327.889862
 30
0.0
  0
VERTEX
  5
1C5
100
AcDbEntity
  8
LAY-3
  6
CONTINUOUS
 62
     6
100
AcDbVertex
100
AcDb2dVertex
 10
167.669902
 20
327.98814
 30
0.0
  0
VERTEX
  5
1C6
100
AcDbEntity
  8
LAY-3
  6
CONTINUOUS
 62
     6
100
AcDbVertex
100
AcDb2dVertex
 10
169.03729
 20
328.103556
 30
0.0
  0
VERTEX
  5
1C7
100
AcDbEntity
  8
LAY-3
  6
CONTINUOUS
 62
     6
100
AcDbVertex
100
AcDb2dVertex
 10
170.416537
 20
328.254182
 30
0.0
  0
VERTEX
  5
1C8
100
AcDbEntity
  8
LAY-3
  6
CONTINUOUS
 62
     6
100
AcDbVertex
100
AcDb2dVertex
 10
171.777704
 20
328.430283
 30
0.0
  0
VERTEX
  5
1C9
100
AcDbEntity
  8
LAY-3
  6
CONTINUOUS
 62
     6
100
AcDbVertex
100
AcDb2dVertex
 10
173.090853
 20
328.622125
 30
0.0
  0
VERTEX
  5
1CA
100
AcDbEntity
  8
LAY-3
  6
CONTINUOUS
 62
     6
100
AcDbVertex
100
AcDb2dVertex
 10
174.326048
 20
328.819972
 30
0.0
  0
VERTEX
  5
1CB
100
AcDbEntity
  8
LAY-3
  6
CONTINUOUS
 62
     6
100
AcDbVertex
100
AcDb2dVertex
 10
175.45335
 20
329.014089
 30
0.0
  0
VERTEX
  5
1CC
100
AcDbEntity
  8
LAY-3
  6
CONTINUOUS
 62
     6
100
AcDbVertex
100
AcDb2dVertex
 10
176.442822
 20
329.194742
 30
0.0
  0
VERTEX
  5
1CD
100
AcDbEntity
  8
LAY-3
  6
CONTINUOUS
 62
     6
100
AcDbVertex
100
AcDb2dVertex
 10
177.264524
 20
329.352196
 30
0.0
  0
VERTEX
  5
1CE
100
AcDbEntity
  8
LAY-3
  6
CONTINUOUS
 62
     6
100
AcDbVertex
100
AcDb2dVertex
 10
177.888521
 20
329.476716
 30
0.0
  0
VERTEX
  5
1CF
100
AcDbEntity
  8
LAY-3
  6
CONTINUOUS
 62
     6
100
AcDbVertex
100
AcDb2dVertex
 10
178.284873
 20
329.558567
 30
0.0
  0
VERTEX
  5
1D0
100
AcDbEntity
  8
LAY-3
  6
CONTINUOUS
 62
     6
100
AcDbVertex
100
AcDb2dVertex
 10
178.423643
 20
329.588014
 30
0.0
  0
SEQEND
  5
1D1
100
AcDbEntity
  8
LAY-3
  6
CONTINUOUS
 62
     6
  0
POLYLINE
  5
1D2
100
AcDbEntity
  8
LAY-3
  6
CONTINUOUS
 62
     6
100
AcDb2dPolyline
 66
     1
 10
0.0
 20
0.0
 30
0.0
 70
   128
  0
VERTEX
  5
1D3
100
AcDbEntity
  8
LAY-3
  6
CONTINUOUS
 62
     6
100
AcDbVertex
100
AcDb2dVertex
 10
176.829765
 20
547.0
 30
0.0
  0
VERTEX
  5
1D4
100
AcDbEntity
  8
LAY-3
  6
CONTINUOUS
 62
     6
100
AcDbVertex
100
AcDb2dVertex
 10
176.749533
 20
546.652864
 30
0.0
  0
VERTEX
  5
1D5
100
AcDbEntity
  8
LAY-3
  6
CONTINUOUS
 62
     6
100
AcDbVertex
100
AcDb2dVertex
 10
176.531134
 20
545.667754
 30
0.0
  0
VERTEX
  5
1D6
100
AcDbEntity
  8
LAY-3
  6
CONTINUOUS
 62
     6
100
AcDbVertex
100
AcDb2dVertex
 10
176.208009
 20
544.129119
 30
0.0
  0
VERTEX
  5
1D7
100
AcDbEntity
  8
LAY-3
  6
CONTINUOUS
 62
     6
100
AcDbVertex
100
AcDb2dVertex
 10
175.813601
 20
542.121409
 30
0.0
  0
VERTEX
  5
1D8
100
AcDbEntity
  8
LAY-3
  6
CONTINUOUS
 62
     6
100
AcDbVertex
100
AcDb2dVertex
 10
175.381352
 20
539.729071
 30
0.0
  0
VERTEX
  5
1D9
100
AcDbEntity
  8
LAY-3
  6
CONTINUOUS
 62
     6
100
AcDbVertex
100
AcDb2dVertex
 10
174.944705
 20
537.036556
 30
0.0
  0
VERTEX
  5
1DA
100
AcDbEntity
  8
LAY-3
  6
CONTINUOUS
 62
     6
100
AcDbVertex
100
AcDb2dVertex
 10
174.537102
 20
534.128311
 30
0.0
  0
VERTEX
  5
1DB
100
AcDbEntity
  8
LAY-3
  6
CONTINUOUS
 62
     6
100
AcDbVertex
100
AcDb2dVertex
 10
174.191985
 20
531.088787
 30
0.0
  0
VERTEX
  5
1DC
100
AcDbEntity
  8
LAY-3
  6
CONTINUOUS
 62
     6
100
AcDbVertex
100
AcDb2dVertex
 10
173.942796
 20
528.00243
 30
0.0
  0
VERTEX
  5
1DD
100
AcDbEntity
  8
LAY-3
  6
CONTINUOUS
 62
     6
100
AcDbVertex
100
AcDb2dVertex
 10
173.822979
 20
524.953692
 30
0.0
  0
VERTEX
  5
1DE
100
AcDbEntity
  8
LAY-3
  6
CONTINUOUS
 62
     6
100
AcDbVertex
100
AcDb2dVertex
 10
173.865975
 20
522.02702
 30
0.0
  0
VERTEX
  5
1DF
100
AcDbEntity
  8
LAY-3
  6
CONTINUOUS
 62
     6
100
AcDbVertex
100
AcDb2dVertex
 10
174.065102
 20
519.532737
 30
0.0
  0
VERTEX
  5
1E0
100
AcDbEntity
  8
LAY-3
  6
CONTINUOUS
 62
     6
100
AcDbVertex
100
AcDb2dVertex
 10
174.397048
 20
517.189297
 30
0.0
  0
VERTEX
  5
1E1
100
AcDbEntity
  8
LAY-3
  6
CONTINUOUS
 62
     6
100
AcDbVertex
100
AcDb2dVertex
 10
174.83286
 20
514.977315
 30
0.0
  0
VERTEX
  5
1E2
100
AcDbEntity
  8
LAY-3
  6
CONTINUOUS
 62
     6
100
AcDbVertex
100
AcDb2dVertex
 10
175.343586
 20
512.877405
 30
0.0
  0
VERTEX
  5
1E3
100
AcDbEntity
  8
LAY-3
  6
CONTINUOUS
 62
     6
100
AcDbVertex
100
AcDb2dVertex
 10
175.900274
 20
510.870181
 30
0.0
  0
VERTEX
  5
1E4
100
AcDbEntity
  8
LAY-3
  6
CONTINUOUS
 62
     6
100
AcDbVertex
100
AcDb2dVertex
 10
176.47397
 20
508.93626
 30
0.0
  0
VERTEX
  5
1E5
100
AcDbEntity
  8
LAY-3
  6
CONTINUOUS
 62
     6
100
AcDbVertex
100
AcDb2dVertex
 10
177.035723
 20
507.056254
 30
0.0
  0
VERTEX
  5
1E6
100
AcDbEntity
  8
LAY-3
  6
CONTINUOUS
 62
     6
100
AcDbVertex
100
AcDb2dVertex
 10
177.55658
 20
505.21078
 30
0.0
  0
VERTEX
  5
1E7
100
AcDbEntity
  8
LAY-3
  6
CONTINUOUS
 62
     6
100
AcDbVertex
100
AcDb2dVertex
 10
178.007589
 20
503.380451
 30
0.0
  0
VERTEX
  5
1E8
100
AcDbEntity
  8
LAY-3
  6
CONTINUOUS
 62
     6
100
AcDbVertex
100
AcDb2dVertex
 10
178.359796
 20
501.545883
 30
0.0
  0
VERTEX
  5
1E9
100
AcDbEntity
  8
LAY-3
  6
CONTINUOUS
 62
     6
100
AcDbVertex
100
AcDb2dVertex
 10
178.58425
 20
499.68769
 30
0.0
  0
VERTEX
  5
1EA
100
AcDbEntity
  8
LAY-3
  6
CONTINUOUS
 62
     6
100
AcDbVertex
100
AcDb2dVertex
 10
178.653378
 20
497.113448
 30
0.0
  0
VERTEX
  5
1EB
100
AcDbEntity
  8
LAY-3
  6
CONTINUOUS
 62
     6
100
AcDbVertex
100
AcDb2dVertex
 10
178.485853
 20
494.469907
 30
0.0
  0
VERTEX
  5
1EC
100
AcDbEntity
  8
LAY-3
  6
CONTINUOUS
 62
     6
100
AcDbVertex
100
AcDb2dVertex
 10
178.131357
 20
491.766359
 30
0.0
  0
VERTEX
  5
1ED
100
AcDbEntity
  8
LAY-3
  6
CONTINUOUS
 62
     6
100
AcDbVertex
100
AcDb2dVertex
 10
177.63957
 20
489.012093
 30
0.0
  0
VERTEX
  5
1EE
100
AcDbEntity
  8
LAY-3
  6
CONTINUOUS
 62
     6
100
AcDbVertex
100
AcDb2dVertex
 10
177.060175
 20
486.216398
 30
0.0
  0
VERTEX
  5
1EF
100
AcDbEntity
  8
LAY-3
  6
CONTINUOUS
 62
     6
100
AcDbVertex
100
AcDb2dVertex
 10
176.442851
 20
483.388567
 30
0.0
  0
VERTEX
  5
1F0
100
AcDbEntity
  8
LAY-3
  6
CONTINUOUS
 62
     6
100
AcDbVertex
100
AcDb2dVertex
 10
175.83728
 20
480.537887
 30
0.0
  0
VERTEX
  5
1F1
100
AcDbEntity
  8
LAY-3
  6
CONTINUOUS
 62
     6
100
AcDbVertex
100
AcDb2dVertex
 10
175.293143
 20
477.67365
 30
0.0
  0
VERTEX
  5
1F2
100
AcDbEntity
  8
LAY-3
  6
CONTINUOUS
 62
     6
100
AcDbVertex
100
AcDb2dVertex
 10
174.86012
 20
474.805146
 30
0.0
  0
VERTEX
  5
1F3
100
AcDbEntity
  8
LAY-3
  6
CONTINUOUS
 62
     6
100
AcDbVertex
100
AcDb2dVertex
 10
174.587893
 20
471.941664
 30
0.0
  0
VERTEX
  5
1F4
100
AcDbEntity
  8
LAY-3
  6
CONTINUOUS
 62
     6
100
AcDbVertex
100
AcDb2dVertex
 10
174.526143
 20
469.092496
 30
0.0
  0
VERTEX
  5
1F5
100
AcDbEntity
  8
LAY-3
  6
CONTINUOUS
 62
     6
100
AcDbVertex
100
AcDb2dVertex
 10
174.678098
 20
466.555801
 30
0.0
  0
VERTEX
  5
1F6
100
AcDbEntity
  8
LAY-3
  6
CONTINUOUS
 62
     6
100
AcDbVertex
100
AcDb2dVertex
 10
175.000251
 20
464.036118
 30
0.0
  0
VERTEX
  5
1F7
100
AcDbEntity
  8
LAY-3
  6
CONTINUOUS
 62
     6
100
AcDbVertex
100
AcDb2dVertex
 10
175.453581
 20
461.531474
 30
0.0
  0
VERTEX
  5
1F8
100
AcDbEntity
  8
LAY-3
  6
CONTINUOUS
 62
     6
100
AcDbVertex
100
AcDb2dVertex
 10
175.999067
 20
459.039899
 30
0.0
  0
VERTEX
  5
1F9
100
AcDbEntity
  8
LAY-3
  6
CONTINUOUS
 62
     6
100
AcDbVertex
100
AcDb2dVertex
 10
176.597689
 20
456.559422
 30
0.0
  0
VERTEX
  5
1FA
100
AcDbEntity
  8
LAY-3
  6
CONTINUOUS
 62
     6
100
AcDbVertex
100
AcDb2dVertex
 10
177.210426
 20
454.088072
 30
0.0
  0
VERTEX
  5
1FB
100
AcDbEntity
  8
LAY-3
  6
CONTINUOUS
 62
     6
100
AcDbVertex
100
AcDb2dVertex
 10
177.798258
 20
451.623878
 30
0.0
  0
VERTEX
  5
1FC
100
AcDbEntity
  8
LAY-3
  6
CONTINUOUS
 62
     6
100
AcDbVertex
100
AcDb2dVertex
 10
178.322163
 20
449.16487
 30
0.0
  0
VERTEX
  5
1FD
100
AcDbEntity
  8
LAY-3
  6
CONTINUOUS
 62
     6
100
AcDbVertex
100
AcDb2dVertex
 10
178.743122
 20
446.709076
 30
0.0
  0
VERTEX
  5
1FE
100
AcDbEntity
  8
LAY-3
  6
CONTINUOUS
 62
     6
100
AcDbVertex
100
AcDb2dVertex
 10
179.022113
 20
444.254525
 30
0.0
  0
VERTEX
  5
1FF
100
AcDbEntity
  8
LAY-3
  6
CONTINUOUS
 62
     6
100
AcDbVertex
100
AcDb2dVertex
 10
179.120116
 20
441.799247
 30
0.0
  0
VERTEX
  5
200
100
AcDbEntity
  8
LAY-3
  6
CONTINUOUS
 62
     6
100
AcDbVertex
100
AcDb2dVertex
 10
178.990314
 20
439.10441
 30
0.0
  0
VERTEX
  5
201
100
AcDbEntity
  8
LAY-3
  6
CONTINUOUS
 62
     6
100
AcDbVertex
100
AcDb2dVertex
 10
178.646812
 20
436.405687
 30
0.0
  0
VERTEX
  5
202
100
AcDbEntity
  8
LAY-3
  6
CONTINUOUS
 62
     6
100
AcDbVertex
100
AcDb2dVertex
 10
178.140386
 20
433.702435
 30
0.0
  0
VERTEX
  5
203
100
AcDbEntity
  8
LAY-3
  6
CONTINUOUS
 62
     6
100
AcDbVertex
100
AcDb2dVertex
 10
177.521813
 20
430.994012
 30
0.0
  0
VERTEX
  5
204
100
AcDbEntity
  8
LAY-3
  6
CONTINUOUS
 62
     6
100
AcDbVertex
100
AcDb2dVertex
 10
176.841868
 20
428.279776
 30
0.0
  0
VERTEX
  5
205
100
AcDbEntity
  8
LAY-3
  6
CONTINUOUS
 62
     6
100
AcDbVertex
100
AcDb2dVertex
 10
176.151327
 20
425.559084
 30
0.0
  0
VERTEX
  5
206
100
AcDbEntity
  8
LAY-3
  6
CONTINUOUS
 62
     6
100
AcDbVertex
100
AcDb2dVertex
 10
175.500967
 20
422.831293
 30
0.0
  0
VERTEX
  5
207
100
AcDbEntity
  8
LAY-3
  6
CONTINUOUS
 62
     6
100
AcDbVertex
100
AcDb2dVertex
 10
174.941562
 20
420.095761
 30
0.0
  0
VERTEX
  5
208
100
AcDbEntity
  8
LAY-3
  6
CONTINUOUS
 62
     6
100
AcDbVertex
100
AcDb2dVertex
 10
174.52389
 20
417.351846
 30
0.0
  0
VERTEX
  5
209
100
AcDbEntity
  8
LAY-3
  6
CONTINUOUS
 62
     6
100
AcDbVertex
100
AcDb2dVertex
 10
174.298725
 20
414.598905
 30
0.0
  0
VERTEX
  5
20A
100
AcDbEntity
  8
LAY-3
  6
CONTINUOUS
 62
     6
100
AcDbVertex
100
AcDb2dVertex
 10
174.316844
 20
411.836295
 30
0.0
  0
VERTEX
  5
20B
100
AcDbEntity
  8
LAY-3
  6
CONTINUOUS
 62
     6
100
AcDbVertex
100
AcDb2dVertex
 10
174.543931
 20
409.522147
 30
0.0
  0
VERTEX
  5
20C
100
AcDbEntity
  8
LAY-3
  6
CONTINUOUS
 62
     6
100
AcDbVertex
100
AcDb2dVertex
 10
174.938216
 20
407.205803
 30
0.0
  0
VERTEX
  5
20D
100
AcDbEntity
  8
LAY-3
  6
CONTINUOUS
 62
     6
100
AcDbVertex
100
AcDb2dVertex
 10
175.461801
 20
404.892262
 30
0.0
  0
VERTEX
  5
20E
100
AcDbEntity
  8
LAY-3
  6
CONTINUOUS
 62
     6
100
AcDbVertex
100
AcDb2dVertex
 10
176.076791
 20
402.58652
 30
0.0
  0
VERTEX
  5
20F
100
AcDbEntity
  8
LAY-3
  6
CONTINUOUS
 62
     6
100
AcDbVertex
100
AcDb2dVertex
 10
176.745288
 20
400.293575
 30
0.0
  0
VERTEX
  5
210
100
AcDbEntity
  8
LAY-3
  6
CONTINUOUS
 62
     6
100
AcDbVertex
100
AcDb2dVertex
 10
177.429395
 20
398.018421
 30
0.0
  0
VERTEX
  5
211
100
AcDbEntity
  8
LAY-3
  6
CONTINUOUS
 62
     6
100
AcDbVertex
100
AcDb2dVertex
 10
178.091214
 20
395.766058
 30
0.0
  0
VERTEX
  5
212
100
AcDbEntity
  8
LAY-3
  6
CONTINUOUS
 62
     6
100
AcDbVertex
100
AcDb2dVertex
 10
178.692849
 20
393.541481
 30
0.0
  0
VERTEX
  5
213
100
AcDbEntity
  8
LAY-3
  6
CONTINUOUS
 62
     6
100
AcDbVertex
100
AcDb2dVertex
 10
179.196402
 20
391.349687
 30
0.0
  0
VERTEX
  5
214
100
AcDbEntity
  8
LAY-3
  6
CONTINUOUS
 62
     6
100
AcDbVertex
100
AcDb2dVertex
 10
179.563978
 20
389.195674
 30
0.0
  0
VERTEX
  5
215
100
AcDbEntity
  8
LAY-3
  6
CONTINUOUS
 62
     6
100
AcDbVertex
100
AcDb2dVertex
 10
179.757677
 20
387.084438
 30
0.0
  0
VERTEX
  5
216
100
AcDbEntity
  8
LAY-3
  6
CONTINUOUS
 62
     6
100
AcDbVertex
100
AcDb2dVertex
 10
179.725264
 20
384.580496
 30
0.0
  0
VERTEX
  5
217
100
AcDbEntity
  8
LAY-3
  6
CONTINUOUS
 62
     6
100
AcDbVertex
100
AcDb2dVertex
 10
179.436744
 20
382.11677
 30
0.0
  0
VERTEX
  5
218
100
AcDbEntity
  8
LAY-3
  6
CONTINUOUS
 62
     6
100
AcDbVertex
100
AcDb2dVertex
 10
178.947883
 20
379.663119
 30
0.0
  0
VERTEX
  5
219
100
AcDbEntity
  8
LAY-3
  6
CONTINUOUS
 62
     6
100
AcDbVertex
100
AcDb2dVertex
 10
178.314449
 20
377.189403
 30
0.0
  0
VERTEX
  5
21A
100
AcDbEntity
  8
LAY-3
  6
CONTINUOUS
 62
     6
100
AcDbVertex
100
AcDb2dVertex
 10
177.592207
 20
374.66548
 30
0.0
  0
VERTEX
  5
21B
100
AcDbEntity
  8
LAY-3
  6
CONTINUOUS
 62
     6
100
AcDbVertex
100
AcDb2dVertex
 10
176.836924
 20
372.061211
 30
0.0
  0
VERTEX
  5
21C
100
AcDbEntity
  8
LAY-3
  6
CONTINUOUS
 62
     6
100
AcDbVertex
100
AcDb2dVertex
 10
176.104368
 20
369.346456
 30
0.0
  0
VERTEX
  5
21D
100
AcDbEntity
  8
LAY-3
  6
CONTINUOUS
 62
     6
100
AcDbVertex
100
AcDb2dVertex
 10
175.450304
 20
366.491073
 30
0.0
  0
VERTEX
  5
21E
100
AcDbEntity
  8
LAY-3
  6
CONTINUOUS
 62
     6
100
AcDbVertex
100
AcDb2dVertex
 10
174.9305
 20
363.464922
 30
0.0
  0
VERTEX
  5
21F
100
AcDbEntity
  8
LAY-3
  6
CONTINUOUS
 62
     6
100
AcDbVertex
100
AcDb2dVertex
 10
174.600723
 20
360.237864
 30
0.0
  0
VERTEX
  5
220
100
AcDbEntity
  8
LAY-3
  6
CONTINUOUS
 62
     6
100
AcDbVertex
100
AcDb2dVertex
 10
174.516738
 20
356.779756
 30
0.0
  0
VERTEX
  5
221
100
AcDbEntity
  8
LAY-3
  6
CONTINUOUS
 62
     6
100
AcDbVertex
100
AcDb2dVertex
 10
174.644513
 20
353.960068
 30
0.0
  0
VERTEX
  5
222
100
AcDbEntity
  8
LAY-3
  6
CONTINUOUS
 62
     6
100
AcDbVertex
100
AcDb2dVertex
 10
174.917353
 20
351.059636
 30
0.0
  0
VERTEX
  5
223
100
AcDbEntity
  8
LAY-3
  6
CONTINUOUS
 62
     6
100
AcDbVertex
100
AcDb2dVertex
 10
175.302127
 20
348.152057
 30
0.0
  0
VERTEX
  5
224
100
AcDbEntity
  8
LAY-3
  6
CONTINUOUS
 62
     6
100
AcDbVertex
100
AcDb2dVertex
 10
175.765705
 20
345.310926
 30
0.0
  0
VERTEX
  5
225
100
AcDbEntity
  8
LAY-3
  6
CONTINUOUS
 62
     6
100
AcDbVertex
100
AcDb2dVertex
 10
176.27496
 20
342.609837
 30
0.0
  0
VERTEX
  5
226
100
AcDbEntity
  8
LAY-3
  6
CONTINUOUS
 62
     6
100
AcDbVertex
100
AcDb2dVertex
 10
176.796761
 20
340.122385
 30
0.0
  0
VERTEX
  5
227
100
AcDbEntity
  8
LAY-3
  6
CONTINUOUS
 62
     6
100
AcDbVertex
100
AcDb2dVertex
 10
177.297979
 20
337.922166
 30
0.0
  0
VERTEX
  5
228
100
AcDbEntity
  8
LAY-3
  6
CONTINUOUS
 62
     6
100
AcDbVertex
100
AcDb2dVertex
 10
177.745485
 20
336.082774
 30
0.0
  0
VERTEX
  5
229
100
AcDbEntity
  8
LAY-3
  6
CONTINUOUS
 62
     6
100
AcDbVertex
100
AcDb2dVertex
 10
178.106149
 20
334.677806
 30
0.0
  0
VERTEX
  5
22A
100
AcDbEntity
  8
LAY-3
  6
CONTINUOUS
 62
     6
100
AcDbVertex
100
AcDb2dVertex
 10
178.346843
 20
333.780855
 30
0.0
  0
VERTEX
  5
22B
100
AcDbEntity
  8
LAY-3
  6
CONTINUOUS
 62
     6
100
AcDbVertex
100
AcDb2dVertex
 10
178.434436
 20
333.465516
 30
0.0
  0
SEQEND
  5
22C
100
AcDbEntity
  8
LAY-3
  6
CONTINUOUS
 62
     6
  0
POLYLINE
  5
22D
100
AcDbEntity
  8
LAY-3
  6
CONTINUOUS
 62
     6
100
AcDb2dPolyline
 66
     1
 10
0.0
 20
0.0
 30
0.0
 70
   128
  0
VERTEX
  5
22E
100
AcDbEntity
  8
LAY-3
  6
CONTINUOUS
 62
     6
100
AcDbVertex
100
AcDb2dVertex
 10
180.660485
 20
547.2
 30
0.0
  0
VERTEX
  5
22F
100
AcDbEntity
  8
LAY-3
  6
CONTINUOUS
 62
     6
100
AcDbVertex
100
AcDb2dVertex
 10
180.580267
 20
546.870147
 30
0.0
  0
VERTEX
  5
230
100
AcDbEntity
  8
LAY-3
  6
CONTINUOUS
 62
     6
100
AcDbVertex
100
AcDb2dVertex
 10
180.361707
 20
545.934176
 30
0.0
  0
VERTEX
  5
231
100
AcDbEntity
  8
LAY-3
  6
CONTINUOUS
 62
     6
100
AcDbVertex
100
AcDb2dVertex
 10
180.037944
 20
544.472466
 30
0.0
  0
VERTEX
  5
232
100
AcDbEntity
  8
LAY-3
  6
CONTINUOUS
 62
     6
100
AcDbVertex
100
AcDb2dVertex
 10
179.642121
 20
542.565397
 30
0.0
  0
VERTEX
  5
233
100
AcDbEntity
  8
LAY-3
  6
CONTINUOUS
 62
     6
100
AcDbVertex
100
AcDb2dVertex
 10
179.207377
 20
540.293351
 30
0.0
  0
VERTEX
  5
234
100
AcDbEntity
  8
LAY-3
  6
CONTINUOUS
 62
     6
100
AcDbVertex
100
AcDb2dVertex
 10
178.766854
 20
537.736707
 30
0.0
  0
VERTEX
  5
235
100
AcDbEntity
  8
LAY-3
  6
CONTINUOUS
 62
     6
100
AcDbVertex
100
AcDb2dVertex
 10
178.353691
 20
534.975845
 30
0.0
  0
VERTEX
  5
236
100
AcDbEntity
  8
LAY-3
  6
CONTINUOUS
 62
     6
100
AcDbVertex
100
AcDb2dVertex
 10
178.00103
 20
532.091145
 30
0.0
  0
VERTEX
  5
237
100
AcDbEntity
  8
LAY-3
  6
CONTINUOUS
 62
     6
100
AcDbVertex
100
AcDb2dVertex
 10
177.742012
 20
529.162989
 30
0.0
  0
VERTEX
  5
238
100
AcDbEntity
  8
LAY-3
  6
CONTINUOUS
 62
     6
100
AcDbVertex
100
AcDb2dVertex
 10
177.609776
 20
526.271755
 30
0.0
  0
VERTEX
  5
239
100
AcDbEntity
  8
LAY-3
  6
CONTINUOUS
 62
     6
100
AcDbVertex
100
AcDb2dVertex
 10
177.637464
 20
523.497825
 30
0.0
  0
VERTEX
  5
23A
100
AcDbEntity
  8
LAY-3
  6
CONTINUOUS
 62
     6
100
AcDbVertex
100
AcDb2dVertex
 10
177.815208
 20
521.179619
 30
0.0
  0
VERTEX
  5
23B
100
AcDbEntity
  8
LAY-3
  6
CONTINUOUS
 62
     6
100
AcDbVertex
100
AcDb2dVertex
 10
178.119278
 20
519.000333
 30
0.0
  0
VERTEX
  5
23C
100
AcDbEntity
  8
LAY-3
  6
CONTINUOUS
 62
     6
100
AcDbVertex
100
AcDb2dVertex
 10
178.522971
 20
516.942191
 30
0.0
  0
VERTEX
  5
23D
100
AcDbEntity
  8
LAY-3
  6
CONTINUOUS
 62
     6
100
AcDbVertex
100
AcDb2dVertex
 10
178.999579
 20
514.987419
 30
0.0
  0
VERTEX
  5
23E
100
AcDbEntity
  8
LAY-3
  6
CONTINUOUS
 62
     6
100
AcDbVertex
100
AcDb2dVertex
 10
179.522397
 20
513.11824
 30
0.0
  0
VERTEX
  5
23F
100
AcDbEntity
  8
LAY-3
  6
CONTINUOUS
 62
     6
100
AcDbVertex
100
AcDb2dVertex
 10
180.064719
 20
511.316881
 30
0.0
  0
VERTEX
  5
240
100
AcDbEntity
  8
LAY-3
  6
CONTINUOUS
 62
     6
100
AcDbVertex
100
AcDb2dVertex
 10
180.599839
 20
509.565566
 30
0.0
  0
VERTEX
  5
241
100
AcDbEntity
  8
LAY-3
  6
CONTINUOUS
 62
     6
100
AcDbVertex
100
AcDb2dVertex
 10
181.101051
 20
507.846519
 30
0.0
  0
VERTEX
  5
242
100
AcDbEntity
  8
LAY-3
  6
CONTINUOUS
 62
     6
100
AcDbVertex
100
AcDb2dVertex
 10
181.541649
 20
506.141966
 30
0.0
  0
VERTEX
  5
243
100
AcDbEntity
  8
LAY-3
  6
CONTINUOUS
 62
     6
100
AcDbVertex
100
AcDb2dVertex
 10
181.894927
 20
504.434131
 30
0.0
  0
VERTEX
  5
244
100
AcDbEntity
  8
LAY-3
  6
CONTINUOUS
 62
     6
100
AcDbVertex
100
AcDb2dVertex
 10
182.13418
 20
502.705239
 30
0.0
  0
VERTEX
  5
245
100
AcDbEntity
  8
LAY-3
  6
CONTINUOUS
 62
     6
100
AcDbVertex
100
AcDb2dVertex
 10
182.246566
 20
500.210271
 30
0.0
  0
VERTEX
  5
246
100
AcDbEntity
  8
LAY-3
  6
CONTINUOUS
 62
     6
100
AcDbVertex
100
AcDb2dVertex
 10
182.126832
 20
497.6472
 30
0.0
  0
VERTEX
  5
247
100
AcDbEntity
  8
LAY-3
  6
CONTINUOUS
 62
     6
100
AcDbVertex
100
AcDb2dVertex
 10
181.821965
 20
495.024939
 30
0.0
  0
VERTEX
  5
248
100
AcDbEntity
  8
LAY-3
  6
CONTINUOUS
 62
     6
100
AcDbVertex
100
AcDb2dVertex
 10
181.378953
 20
492.352399
 30
0.0
  0
VERTEX
  5
249
100
AcDbEntity
  8
LAY-3
  6
CONTINUOUS
 62
     6
100
AcDbVertex
100
AcDb2dVertex
 10
180.844786
 20
489.638494
 30
0.0
  0
VERTEX
  5
24A
100
AcDbEntity
  8
LAY-3
  6
CONTINUOUS
 62
     6
100
AcDbVertex
100
AcDb2dVertex
 10
180.26645
 20
486.892135
 30
0.0
  0
VERTEX
  5
24B
100
AcDbEntity
  8
LAY-3
  6
CONTINUOUS
 62
     6
100
AcDbVertex
100
AcDb2dVertex
 10
179.690935
 20
484.122234
 30
0.0
  0
VERTEX
  5
24C
100
AcDbEntity
  8
LAY-3
  6
CONTINUOUS
 62
     6
100
AcDbVertex
100
AcDb2dVertex
 10
179.165229
 20
481.337703
 30
0.0
  0
VERTEX
  5
24D
100
AcDbEntity
  8
LAY-3
  6
CONTINUOUS
 62
     6
100
AcDbVertex
100
AcDb2dVertex
 10
178.736319
 20
478.547454
 30
0.0
  0
VERTEX
  5
24E
100
AcDbEntity
  8
LAY-3
  6
CONTINUOUS
 62
     6
100
AcDbVertex
100
AcDb2dVertex
 10
178.451195
 20
475.7604
 30
0.0
  0
VERTEX
  5
24F
100
AcDbEntity
  8
LAY-3
  6
CONTINUOUS
 62
     6
100
AcDbVertex
100
AcDb2dVertex
 10
178.356844
 20
472.985452
 30
0.0
  0
VERTEX
  5
250
100
AcDbEntity
  8
LAY-3
  6
CONTINUOUS
 62
     6
100
AcDbVertex
100
AcDb2dVertex
 10
178.483257
 20
470.249362
 30
0.0
  0
VERTEX
  5
251
100
AcDbEntity
  8
LAY-3
  6
CONTINUOUS
 62
     6
100
AcDbVertex
100
AcDb2dVertex
 10
178.79994
 20
467.532025
 30
0.0
  0
VERTEX
  5
252
100
AcDbEntity
  8
LAY-3
  6
CONTINUOUS
 62
     6
100
AcDbVertex
100
AcDb2dVertex
 10
179.262793
 20
464.831476
 30
0.0
  0
VERTEX
  5
253
100
AcDbEntity
  8
LAY-3
  6
CONTINUOUS
 62
     6
100
AcDbVertex
100
AcDb2dVertex
 10
179.827717
 20
462.14575
 30
0.0
  0
VERTEX
  5
254
100
AcDbEntity
  8
LAY-3
  6
CONTINUOUS
 62
     6
100
AcDbVertex
100
AcDb2dVertex
 10
180.450612
 20
459.472881
 30
0.0
  0
VERTEX
  5
255
100
AcDbEntity
  8
LAY-3
  6
CONTINUOUS
 62
     6
100
AcDbVertex
100
AcDb2dVertex
 10
181.087378
 20
456.810905
 30
0.0
  0
VERTEX
  5
256
100
AcDbEntity
  8
LAY-3
  6
CONTINUOUS
 62
     6
100
AcDbVertex
100
AcDb2dVertex
 10
181.693916
 20
454.157856
 30
0.0
  0
VERTEX
  5
257
100
AcDbEntity
  8
LAY-3
  6
CONTINUOUS
 62
     6
100
AcDbVertex
100
AcDb2dVertex
 10
182.226126
 20
451.511769
 30
0.0
  0
VERTEX
  5
258
100
AcDbEntity
  8
LAY-3
  6
CONTINUOUS
 62
     6
100
AcDbVertex
100
AcDb2dVertex
 10
182.639908
 20
448.870678
 30
0.0
  0
VERTEX
  5
259
100
AcDbEntity
  8
LAY-3
  6
CONTINUOUS
 62
     6
100
AcDbVertex
100
AcDb2dVertex
 10
182.891164
 20
446.232619
 30
0.0
  0
VERTEX
  5
25A
100
AcDbEntity
  8
LAY-3
  6
CONTINUOUS
 62
     6
100
AcDbVertex
100
AcDb2dVertex
 10
182.935792
 20
443.595625
 30
0.0
  0
VERTEX
  5
25B
100
AcDbEntity
  8
LAY-3
  6
CONTINUOUS
 62
     6
100
AcDbVertex
100
AcDb2dVertex
 10
182.756567
 20
441.057622
 30
0.0
  0
VERTEX
  5
25C
100
AcDbEntity
  8
LAY-3
  6
CONTINUOUS
 62
     6
100
AcDbVertex
100
AcDb2dVertex
 10
182.389902
 20
438.517731
 30
0.0
  0
VERTEX
  5
25D
100
AcDbEntity
  8
LAY-3
  6
CONTINUOUS
 62
     6
100
AcDbVertex
100
AcDb2dVertex
 10
181.880481
 20
435.974898
 30
0.0
  0
VERTEX
  5
25E
100
AcDbEntity
  8
LAY-3
  6
CONTINUOUS
 62
     6
100
AcDbVertex
100
AcDb2dVertex
 10
181.272991
 20
433.428067
 30
0.0
  0
VERTEX
  5
25F
100
AcDbEntity
  8
LAY-3
  6
CONTINUOUS
 62
     6
100
AcDbVertex
100
AcDb2dVertex
 10
180.612116
 20
430.876185
 30
0.0
  0
VERTEX
  5
260
100
AcDbEntity
  8
LAY-3
  6
CONTINUOUS
 62
     6
100
AcDbVertex
100
AcDb2dVertex
 10
179.942543
 20
428.318195
 30
0.0
  0
VERTEX
  5
261
100
AcDbEntity
  8
LAY-3
  6
CONTINUOUS
 62
     6
100
AcDbVertex
100
AcDb2dVertex
 10
179.308956
 20
425.753043
 30
0.0
  0
VERTEX
  5
262
100
AcDbEntity
  8
LAY-3
  6
CONTINUOUS
 62
     6
100
AcDbVertex
100
AcDb2dVertex
 10
178.75604
 20
423.179675
 30
0.0
  0
VERTEX
  5
263
100
AcDbEntity
  8
LAY-3
  6
CONTINUOUS
 62
     6
100
AcDbVertex
100
AcDb2dVertex
 10
178.328483
 20
420.597035
 30
0.0
  0
VERTEX
  5
264
100
AcDbEntity
  8
LAY-3
  6
CONTINUOUS
 62
     6
100
AcDbVertex
100
AcDb2dVertex
 10
178.070967
 20
418.004068
 30
0.0
  0
VERTEX
  5
265
100
AcDbEntity
  8
LAY-3
  6
CONTINUOUS
 62
     6
100
AcDbVertex
100
AcDb2dVertex
 10
178.02818
 20
415.39972
 30
0.0
  0
VERTEX
  5
266
100
AcDbEntity
  8
LAY-3
  6
CONTINUOUS
 62
     6
100
AcDbVertex
100
AcDb2dVertex
 10
178.217547
 20
412.881755
 30
0.0
  0
VERTEX
  5
267
100
AcDbEntity
  8
LAY-3
  6
CONTINUOUS
 62
     6
100
AcDbVertex
100
AcDb2dVertex
 10
178.603113
 20
410.358381
 30
0.0
  0
VERTEX
  5
268
100
AcDbEntity
  8
LAY-3
  6
CONTINUOUS
 62
     6
100
AcDbVertex
100
AcDb2dVertex
 10
179.140619
 20
407.835718
 30
0.0
  0
VERTEX
  5
269
100
AcDbEntity
  8
LAY-3
  6
CONTINUOUS
 62
     6
100
AcDbVertex
100
AcDb2dVertex
 10
179.785805
 20
405.319885
 30
0.0
  0
VERTEX
  5
26A
100
AcDbEntity
  8
LAY-3
  6
CONTINUOUS
 62
     6
100
AcDbVertex
100
AcDb2dVertex
 10
180.494409
 20
402.817002
 30
0.0
  0
VERTEX
  5
26B
100
AcDbEntity
  8
LAY-3
  6
CONTINUOUS
 62
     6
100
AcDbVertex
100
AcDb2dVertex
 10
181.222172
 20
400.333187
 30
0.0
  0
VERTEX
  5
26C
100
AcDbEntity
  8
LAY-3
  6
CONTINUOUS
 62
     6
100
AcDbVertex
100
AcDb2dVertex
 10
181.924834
 20
397.87456
 30
0.0
  0
VERTEX
  5
26D
100
AcDbEntity
  8
LAY-3
  6
CONTINUOUS
 62
     6
100
AcDbVertex
100
AcDb2dVertex
 10
182.558134
 20
395.447241
 30
0.0
  0
VERTEX
  5
26E
100
AcDbEntity
  8
LAY-3
  6
CONTINUOUS
 62
     6
100
AcDbVertex
100
AcDb2dVertex
 10
183.077813
 20
393.057349
 30
0.0
  0
VERTEX
  5
26F
100
AcDbEntity
  8
LAY-3
  6
CONTINUOUS
 62
     6
100
AcDbVertex
100
AcDb2dVertex
 10
183.439609
 20
390.711002
 30
0.0
  0
VERTEX
  5
270
100
AcDbEntity
  8
LAY-3
  6
CONTINUOUS
 62
     6
100
AcDbVertex
100
AcDb2dVertex
 10
183.599263
 20
388.414321
 30
0.0
  0
VERTEX
  5
271
100
AcDbEntity
  8
LAY-3
  6
CONTINUOUS
 62
     6
100
AcDbVertex
100
AcDb2dVertex
 10
183.513306
 20
386.01082
 30
0.0
  0
VERTEX
  5
272
100
AcDbEntity
  8
LAY-3
  6
CONTINUOUS
 62
     6
100
AcDbVertex
100
AcDb2dVertex
 10
183.195199
 20
383.643601
 30
0.0
  0
VERTEX
  5
273
100
AcDbEntity
  8
LAY-3
  6
CONTINUOUS
 62
     6
100
AcDbVertex
100
AcDb2dVertex
 10
182.695402
 20
381.284961
 30
0.0
  0
VERTEX
  5
274
100
AcDbEntity
  8
LAY-3
  6
CONTINUOUS
 62
     6
100
AcDbVertex
100
AcDb2dVertex
 10
182.064378
 20
378.9072
 30
0.0
  0
VERTEX
  5
275
100
AcDbEntity
  8
LAY-3
  6
CONTINUOUS
 62
     6
100
AcDbVertex
100
AcDb2dVertex
 10
181.352589
 20
376.482616
 30
0.0
  0
VERTEX
  5
276
100
AcDbEntity
  8
LAY-3
  6
CONTINUOUS
 62
     6
100
AcDbVertex
100
AcDb2dVertex
 10
180.610497
 20
373.983508
 30
0.0
  0
VERTEX
  5
277
100
AcDbEntity
  8
LAY-3
  6
CONTINUOUS
 62
     6
100
AcDbVertex
100
AcDb2dVertex
 10
179.888563
 20
371.382174
 30
0.0
  0
VERTEX
  5
278
100
AcDbEntity
  8
LAY-3
  6
CONTINUOUS
 62
     6
100
AcDbVertex
100
AcDb2dVertex
 10
179.237249
 20
368.650914
 30
0.0
  0
VERTEX
  5
279
100
AcDbEntity
  8
LAY-3
  6
CONTINUOUS
 62
     6
100
AcDbVertex
100
AcDb2dVertex
 10
178.707017
 20
365.762025
 30
0.0
  0
VERTEX
  5
27A
100
AcDbEntity
  8
LAY-3
  6
CONTINUOUS
 62
     6
100
AcDbVertex
100
AcDb2dVertex
 10
178.348329
 20
362.687807
 30
0.0
  0
VERTEX
  5
27B
100
AcDbEntity
  8
LAY-3
  6
CONTINUOUS
 62
     6
100
AcDbVertex
100
AcDb2dVertex
 10
178.211647
 20
359.400559
 30
0.0
  0
VERTEX
  5
27C
100
AcDbEntity
  8
LAY-3
  6
CONTINUOUS
 62
     6
100
AcDbVertex
100
AcDb2dVertex
 10
178.299033
 20
356.392798
 30
0.0
  0
VERTEX
  5
27D
100
AcDbEntity
  8
LAY-3
  6
CONTINUOUS
 62
     6
100
AcDbVertex
100
AcDb2dVertex
 10
178.552024
 20
353.287294
 30
0.0
  0
VERTEX
  5
27E
100
AcDbEntity
  8
LAY-3
  6
CONTINUOUS
 62
     6
100
AcDbVertex
100
AcDb2dVertex
 10
178.933973
 20
350.164998
 30
0.0
  0
VERTEX
  5
27F
100
AcDbEntity
  8
LAY-3
  6
CONTINUOUS
 62
     6
100
AcDbVertex
100
AcDb2dVertex
 10
179.408232
 20
347.106861
 30
0.0
  0
VERTEX
  5
280
100
AcDbEntity
  8
LAY-3
  6
CONTINUOUS
 62
     6
100
AcDbVertex
100
AcDb2dVertex
 10
179.938155
 20
344.193834
 30
0.0
  0
VERTEX
  5
281
100
AcDbEntity
  8
LAY-3
  6
CONTINUOUS
 62
     6
100
AcDbVertex
100
AcDb2dVertex
 10
180.487096
 20
341.506869
 30
0.0
  0
VERTEX
  5
282
100
AcDbEntity
  8
LAY-3
  6
CONTINUOUS
 62
     6
100
AcDbVertex
100
AcDb2dVertex
 10
181.018407
 20
339.126916
 30
0.0
  0
VERTEX
  5
283
100
AcDbEntity
  8
LAY-3
  6
CONTINUOUS
 62
     6
100
AcDbVertex
100
AcDb2dVertex
 10
181.495442
 20
337.134927
 30
0.0
  0
VERTEX
  5
284
100
AcDbEntity
  8
LAY-3
  6
CONTINUOUS
 62
     6
100
AcDbVertex
100
AcDb2dVertex
 10
181.881553
 20
335.611852
 30
0.0
  0
VERTEX
  5
285
100
AcDbEntity
  8
LAY-3
  6
CONTINUOUS
 62
     6
100
AcDbVertex
100
AcDb2dVertex
 10
182.140094
 20
334.638643
 30
0.0
  0
VERTEX
  5
286
100
AcDbEntity
  8
LAY-3
  6
CONTINUOUS
 62
     6
100
AcDbVertex
100
AcDb2dVertex
 10
182.234418
 20
334.296251
 30
0.0
  0
SEQEND
  5
287
100
AcDbEntity
  8
LAY-3
  6
CONTINUOUS
 62
     6
  0
POLYLINE
  5
288
100
AcDbEntity
  8
LAY-3
  6
CONTINUOUS
 62
     6
100
AcDb2dPolyline
 66
     1
 10
0.0
 20
0.0
 30
0.0
 70
   128
  0
VERTEX
  5
289
100
AcDbEntity
  8
LAY-3
  6
CONTINUOUS
 62
     6
100
AcDbVertex
100
AcDb2dVertex
 10
178.423643
 20
329.588014
 30
0.0
  0
VERTEX
  5
28A
100
AcDbEntity
  8
LAY-3
  6
CONTINUOUS
 62
     6
100
AcDbVertex
100
AcDb2dVertex
 10
178.272478
 20
329.098903
 30
0.0
  0
VERTEX
  5
28B
100
AcDbEntity
  8
LAY-3
  6
CONTINUOUS
 62
     6
100
AcDbVertex
100
AcDb2dVertex
 10
177.857979
 20
327.710865
 30
0.0
  0
VERTEX
  5
28C
100
AcDbEntity
  8
LAY-3
  6
CONTINUOUS
 62
     6
100
AcDbVertex
100
AcDb2dVertex
 10
177.238643
 20
325.542843
 30
0.0
  0
VERTEX
  5
28D
100
AcDbEntity
  8
LAY-3
  6
CONTINUOUS
 62
     6
100
AcDbVertex
100
AcDb2dVertex
 10
176.472966
 20
322.713781
 30
0.0
  0
VERTEX
  5
28E
100
AcDbEntity
  8
LAY-3
  6
CONTINUOUS
 62
     6
100
AcDbVertex
100
AcDb2dVertex
 10
175.619443
 20
319.342622
 30
0.0
  0
VERTEX
  5
28F
100
AcDbEntity
  8
LAY-3
  6
CONTINUOUS
 62
     6
100
AcDbVertex
100
AcDb2dVertex
 10
174.736572
 20
315.548308
 30
0.0
  0
VERTEX
  5
290
100
AcDbEntity
  8
LAY-3
  6
CONTINUOUS
 62
     6
100
AcDbVertex
100
AcDb2dVertex
 10
173.882849
 20
311.449784
 30
0.0
  0
VERTEX
  5
291
100
AcDbEntity
  8
LAY-3
  6
CONTINUOUS
 62
     6
100
AcDbVertex
100
AcDb2dVertex
 10
173.116769
 20
307.165991
 30
0.0
  0
VERTEX
  5
292
100
AcDbEntity
  8
LAY-3
  6
CONTINUOUS
 62
     6
100
AcDbVertex
100
AcDb2dVertex
 10
172.496828
 20
302.815873
 30
0.0
  0
VERTEX
  5
293
100
AcDbEntity
  8
LAY-3
  6
CONTINUOUS
 62
     6
100
AcDbVertex
100
AcDb2dVertex
 10
172.081524
 20
298.518374
 30
0.0
  0
VERTEX
  5
294
100
AcDbEntity
  8
LAY-3
  6
CONTINUOUS
 62
     6
100
AcDbVertex
100
AcDb2dVertex
 10
171.929351
 20
294.392436
 30
0.0
  0
VERTEX
  5
295
100
AcDbEntity
  8
LAY-3
  6
CONTINUOUS
 62
     6
100
AcDbVertex
100
AcDb2dVertex
 10
172.039289
 20
291.067268
 30
0.0
  0
VERTEX
  5
296
100
AcDbEntity
  8
LAY-3
  6
CONTINUOUS
 62
     6
100
AcDbVertex
100
AcDb2dVertex
 10
172.342321
 20
287.930591
 30
0.0
  0
VERTEX
  5
297
100
AcDbEntity
  8
LAY-3
  6
CONTINUOUS
 62
     6
100
AcDbVertex
100
AcDb2dVertex
 10
172.795426
 20
284.957628
 30
0.0
  0
VERTEX
  5
298
100
AcDbEntity
  8
LAY-3
  6
CONTINUOUS
 62
     6
100
AcDbVertex
100
AcDb2dVertex
 10
173.355584
 20
282.123606
 30
0.0
  0
VERTEX
  5
299
100
AcDbEntity
  8
LAY-3
  6
CONTINUOUS
 62
     6
100
AcDbVertex
100
AcDb2dVertex
 10
173.979775
 20
279.403748
 30
0.0
  0
VERTEX
  5
29A
100
AcDbEntity
  8
LAY-3
  6
CONTINUOUS
 62
     6
100
AcDbVertex
100
AcDb2dVertex
 10
174.624978
 20
276.77328
 30
0.0
  0
VERTEX
  5
29B
100
AcDbEntity
  8
LAY-3
  6
CONTINUOUS
 62
     6
100
AcDbVertex
100
AcDb2dVertex
 10
175.248173
 20
274.207427
 30
0.0
  0
VERTEX
  5
29C
100
AcDbEntity
  8
LAY-3
  6
CONTINUOUS
 62
     6
100
AcDbVertex
100
AcDb2dVertex
 10
175.80634
 20
271.681413
 30
0.0
  0
VERTEX
  5
29D
100
AcDbEntity
  8
LAY-3
  6
CONTINUOUS
 62
     6
100
AcDbVertex
100
AcDb2dVertex
 10
176.256458
 20
269.170463
 30
0.0
  0
VERTEX
  5
29E
100
AcDbEntity
  8
LAY-3
  6
CONTINUOUS
 62
     6
100
AcDbVertex
100
AcDb2dVertex
 10
176.555508
 20
266.649801
 30
0.0
  0
VERTEX
  5
29F
100
AcDbEntity
  8
LAY-3
  6
CONTINUOUS
 62
     6
100
AcDbVertex
100
AcDb2dVertex
 10
176.660468
 20
264.094654
 30
0.0
  0
VERTEX
  5
2A0
100
AcDbEntity
  8
LAY-3
  6
CONTINUOUS
 62
     6
100
AcDbVertex
100
AcDb2dVertex
 10
176.552118
 20
261.594273
 30
0.0
  0
VERTEX
  5
2A1
100
AcDbEntity
  8
LAY-3
  6
CONTINUOUS
 62
     6
100
AcDbVertex
100
AcDb2dVertex
 10
176.266535
 20
259.045802
 30
0.0
  0
VERTEX
  5
2A2
100
AcDbEntity
  8
LAY-3
  6
CONTINUOUS
 62
     6
100
AcDbVertex
100
AcDb2dVertex
 10
175.844438
 20
256.455628
 30
0.0
  0
VERTEX
  5
2A3
100
AcDbEntity
  8
LAY-3
  6
CONTINUOUS
 62
     6
100
AcDbVertex
100
AcDb2dVertex
 10
175.326548
 20
253.830134
 30
0.0
  0
VERTEX
  5
2A4
100
AcDbEntity
  8
LAY-3
  6
CONTINUOUS
 62
     6
100
AcDbVertex
100
AcDb2dVertex
 10
174.753585
 20
251.175706
 30
0.0
  0
VERTEX
  5
2A5
100
AcDbEntity
  8
LAY-3
  6
CONTINUOUS
 62
     6
100
AcDbVertex
100
AcDb2dVertex
 10
174.16627
 20
248.498729
 30
0.0
  0
VERTEX
  5
2A6
100
AcDbEntity
  8
LAY-3
  6
CONTINUOUS
 62
     6
100
AcDbVertex
100
AcDb2dVertex
 10
173.605321
 20
245.805586
 30
0.0
  0
VERTEX
  5
2A7
100
AcDbEntity
  8
LAY-3
  6
CONTINUOUS
 62
     6
100
AcDbVertex
100
AcDb2dVertex
 10
173.111459
 20
243.102664
 30
0.0
  0
VERTEX
  5
2A8
100
AcDbEntity
  8
LAY-3
  6
CONTINUOUS
 62
     6
100
AcDbVertex
100
AcDb2dVertex
 10
172.725405
 20
240.396346
 30
0.0
  0
VERTEX
  5
2A9
100
AcDbEntity
  8
LAY-3
  6
CONTINUOUS
 62
     6
100
AcDbVertex
100
AcDb2dVertex
 10
172.487878
 20
237.693018
 30
0.0
  0
VERTEX
  5
2AA
100
AcDbEntity
  8
LAY-3
  6
CONTINUOUS
 62
     6
100
AcDbVertex
100
AcDb2dVertex
 10
172.439599
 20
234.999064
 30
0.0
  0
VERTEX
  5
2AB
100
AcDbEntity
  8
LAY-3
  6
CONTINUOUS
 62
     6
100
AcDbVertex
100
AcDb2dVertex
 10
172.590461
 20
232.485909
 30
0.0
  0
VERTEX
  5
2AC
100
AcDbEntity
  8
LAY-3
  6
CONTINUOUS
 62
     6
100
AcDbVertex
100
AcDb2dVertex
 10
172.904934
 20
229.985014
 30
0.0
  0
VERTEX
  5
2AD
100
AcDbEntity
  8
LAY-3
  6
CONTINUOUS
 62
     6
100
AcDbVertex
100
AcDb2dVertex
 10
173.344408
 20
227.494781
 30
0.0
  0
VERTEX
  5
2AE
100
AcDbEntity
  8
LAY-3
  6
CONTINUOUS
 62
     6
100
AcDbVertex
100
AcDb2dVertex
 10
173.870275
 20
225.013613
 30
0.0
  0
VERTEX
  5
2AF
100
AcDbEntity
  8
LAY-3
  6
CONTINUOUS
 62
     6
100
AcDbVertex
100
AcDb2dVertex
 10
174.443924
 20
222.53991
 30
0.0
  0
VERTEX
  5
2B0
100
AcDbEntity
  8
LAY-3
  6
CONTINUOUS
 62
     6
100
AcDbVertex
100
AcDb2dVertex
 10
175.026746
 20
220.072077
 30
0.0
  0
VERTEX
  5
2B1
100
AcDbEntity
  8
LAY-3
  6
CONTINUOUS
 62
     6
100
AcDbVertex
100
AcDb2dVertex
 10
175.580131
 20
217.608514
 30
0.0
  0
VERTEX
  5
2B2
100
AcDbEntity
  8
LAY-3
  6
CONTINUOUS
 62
     6
100
AcDbVertex
100
AcDb2dVertex
 10
176.065471
 20
215.147623
 30
0.0
  0
VERTEX
  5
2B3
100
AcDbEntity
  8
LAY-3
  6
CONTINUOUS
 62
     6
100
AcDbVertex
100
AcDb2dVertex
 10
176.444156
 20
212.687808
 30
0.0
  0
VERTEX
  5
2B4
100
AcDbEntity
  8
LAY-3
  6
CONTINUOUS
 62
     6
100
AcDbVertex
100
AcDb2dVertex
 10
176.677575
 20
210.22747
 30
0.0
  0
VERTEX
  5
2B5
100
AcDbEntity
  8
LAY-3
  6
CONTINUOUS
 62
     6
100
AcDbVertex
100
AcDb2dVertex
 10
176.727121
 20
207.765011
 30
0.0
  0
VERTEX
  5
2B6
100
AcDbEntity
  8
LAY-3
  6
CONTINUOUS
 62
     6
100
AcDbVertex
100
AcDb2dVertex
 10
176.578468
 20
205.403551
 30
0.0
  0
VERTEX
  5
2B7
100
AcDbEntity
  8
LAY-3
  6
CONTINUOUS
 62
     6
100
AcDbVertex
100
AcDb2dVertex
 10
176.263581
 20
203.039372
 30
0.0
  0
VERTEX
  5
2B8
100
AcDbEntity
  8
LAY-3
  6
CONTINUOUS
 62
     6
100
AcDbVertex
100
AcDb2dVertex
 10
175.820294
 20
200.673166
 30
0.0
  0
VERTEX
  5
2B9
100
AcDbEntity
  8
LAY-3
  6
CONTINUOUS
 62
     6
100
AcDbVertex
100
AcDb2dVertex
 10
175.286441
 20
198.305627
 30
0.0
  0
VERTEX
  5
2BA
100
AcDbEntity
  8
LAY-3
  6
CONTINUOUS
 62
     6
100
AcDbVertex
100
AcDb2dVertex
 10
174.699857
 20
195.937445
 30
0.0
  0
VERTEX
  5
2BB
100
AcDbEntity
  8
LAY-3
  6
CONTINUOUS
 62
     6
100
AcDbVertex
100
AcDb2dVertex
 10
174.098374
 20
193.569313
 30
0.0
  0
VERTEX
  5
2BC
100
AcDbEntity
  8
LAY-3
  6
CONTINUOUS
 62
     6
100
AcDbVertex
100
AcDb2dVertex
 10
173.519827
 20
191.201923
 30
0.0
  0
VERTEX
  5
2BD
100
AcDbEntity
  8
LAY-3
  6
CONTINUOUS
 62
     6
100
AcDbVertex
100
AcDb2dVertex
 10
173.002051
 20
188.835968
 30
0.0
  0
VERTEX
  5
2BE
100
AcDbEntity
  8
LAY-3
  6
CONTINUOUS
 62
     6
100
AcDbVertex
100
AcDb2dVertex
 10
172.582878
 20
186.472139
 30
0.0
  0
VERTEX
  5
2BF
100
AcDbEntity
  8
LAY-3
  6
CONTINUOUS
 62
     6
100
AcDbVertex
100
AcDb2dVertex
 10
172.300143
 20
184.111129
 30
0.0
  0
VERTEX
  5
2C0
100
AcDbEntity
  8
LAY-3
  6
CONTINUOUS
 62
     6
100
AcDbVertex
100
AcDb2dVertex
 10
172.191681
 20
181.753629
 30
0.0
  0
VERTEX
  5
2C1
100
AcDbEntity
  8
LAY-3
  6
CONTINUOUS
 62
     6
100
AcDbVertex
100
AcDb2dVertex
 10
172.319704
 20
178.978462
 30
0.0
  0
VERTEX
  5
2C2
100
AcDbEntity
  8
LAY-3
  6
CONTINUOUS
 62
     6
100
AcDbVertex
100
AcDb2dVertex
 10
172.687606
 20
176.207141
 30
0.0
  0
VERTEX
  5
2C3
100
AcDbEntity
  8
LAY-3
  6
CONTINUOUS
 62
     6
100
AcDbVertex
100
AcDb2dVertex
 10
173.2403
 20
173.437667
 30
0.0
  0
VERTEX
  5
2C4
100
AcDbEntity
  8
LAY-3
  6
CONTINUOUS
 62
     6
100
AcDbVertex
100
AcDb2dVertex
 10
173.9227
 20
170.668042
 30
0.0
  0
VERTEX
  5
2C5
100
AcDbEntity
  8
LAY-3
  6
CONTINUOUS
 62
     6
100
AcDbVertex
100
AcDb2dVertex
 10
174.679719
 20
167.896267
 30
0.0
  0
VERTEX
  5
2C6
100
AcDbEntity
  8
LAY-3
  6
CONTINUOUS
 62
     6
100
AcDbVertex
100
AcDb2dVertex
 10
175.456272
 20
165.120344
 30
0.0
  0
VERTEX
  5
2C7
100
AcDbEntity
  8
LAY-3
  6
CONTINUOUS
 62
     6
100
AcDbVertex
100
AcDb2dVertex
 10
176.197272
 20
162.338273
 30
0.0
  0
VERTEX
  5
2C8
100
AcDbEntity
  8
LAY-3
  6
CONTINUOUS
 62
     6
100
AcDbVertex
100
AcDb2dVertex
 10
176.847633
 20
159.548057
 30
0.0
  0
VERTEX
  5
2C9
100
AcDbEntity
  8
LAY-3
  6
CONTINUOUS
 62
     6
100
AcDbVertex
100
AcDb2dVertex
 10
177.352268
 20
156.747696
 30
0.0
  0
VERTEX
  5
2CA
100
AcDbEntity
  8
LAY-3
  6
CONTINUOUS
 62
     6
100
AcDbVertex
100
AcDb2dVertex
 10
177.656092
 20
153.935192
 30
0.0
  0
VERTEX
  5
2CB
100
AcDbEntity
  8
LAY-3
  6
CONTINUOUS
 62
     6
100
AcDbVertex
100
AcDb2dVertex
 10
177.704017
 20
151.108546
 30
0.0
  0
VERTEX
  5
2CC
100
AcDbEntity
  8
LAY-3
  6
CONTINUOUS
 62
     6
100
AcDbVertex
100
AcDb2dVertex
 10
177.524557
 20
148.776202
 30
0.0
  0
VERTEX
  5
2CD
100
AcDbEntity
  8
LAY-3
  6
CONTINUOUS
 62
     6
100
AcDbVertex
100
AcDb2dVertex
 10
177.172671
 20
146.438593
 30
0.0
  0
VERTEX
  5
2CE
100
AcDbEntity
  8
LAY-3
  6
CONTINUOUS
 62
     6
100
AcDbVertex
100
AcDb2dVertex
 10
176.685697
 20
144.101341
 30
0.0
  0
VERTEX
  5
2CF
100
AcDbEntity
  8
LAY-3
  6
CONTINUOUS
 62
     6
100
AcDbVertex
100
AcDb2dVertex
 10
176.100972
 20
141.770069
 30
0.0
  0
VERTEX
  5
2D0
100
AcDbEntity
  8
LAY-3
  6
CONTINUOUS
 62
     6
100
AcDbVertex
100
AcDb2dVertex
 10
175.455832
 20
139.450399
 30
0.0
  0
VERTEX
  5
2D1
100
AcDbEntity
  8
LAY-3
  6
CONTINUOUS
 62
     6
100
AcDbVertex
100
AcDb2dVertex
 10
174.787614
 20
137.147952
 30
0.0
  0
VERTEX
  5
2D2
100
AcDbEntity
  8
LAY-3
  6
CONTINUOUS
 62
     6
100
AcDbVertex
100
AcDb2dVertex
 10
174.133655
 20
134.868351
 30
0.0
  0
VERTEX
  5
2D3
100
AcDbEntity
  8
LAY-3
  6
CONTINUOUS
 62
     6
100
AcDbVertex
100
AcDb2dVertex
 10
173.531291
 20
132.617219
 30
0.0
  0
VERTEX
  5
2D4
100
AcDbEntity
  8
LAY-3
  6
CONTINUOUS
 62
     6
100
AcDbVertex
100
AcDb2dVertex
 10
173.017861
 20
130.400176
 30
0.0
  0
VERTEX
  5
2D5
100
AcDbEntity
  8
LAY-3
  6
CONTINUOUS
 62
     6
100
AcDbVertex
100
AcDb2dVertex
 10
172.630699
 20
128.222846
 30
0.0
  0
VERTEX
  5
2D6
100
AcDbEntity
  8
LAY-3
  6
CONTINUOUS
 62
     6
100
AcDbVertex
100
AcDb2dVertex
 10
172.407144
 20
126.090851
 30
0.0
  0
VERTEX
  5
2D7
100
AcDbEntity
  8
LAY-3
  6
CONTINUOUS
 62
     6
100
AcDbVertex
100
AcDb2dVertex
 10
172.383887
 20
123.681558
 30
0.0
  0
VERTEX
  5
2D8
100
AcDbEntity
  8
LAY-3
  6
CONTINUOUS
 62
     6
100
AcDbVertex
100
AcDb2dVertex
 10
172.580743
 20
121.310505
 30
0.0
  0
VERTEX
  5
2D9
100
AcDbEntity
  8
LAY-3
  6
CONTINUOUS
 62
     6
100
AcDbVertex
100
AcDb2dVertex
 10
172.948816
 20
118.947715
 30
0.0
  0
VERTEX
  5
2DA
100
AcDbEntity
  8
LAY-3
  6
CONTINUOUS
 62
     6
100
AcDbVertex
100
AcDb2dVertex
 10
173.439209
 20
116.563209
 30
0.0
  0
VERTEX
  5
2DB
100
AcDbEntity
  8
LAY-3
  6
CONTINUOUS
 62
     6
100
AcDbVertex
100
AcDb2dVertex
 10
174.003026
 20
114.127009
 30
0.0
  0
VERTEX
  5
2DC
100
AcDbEntity
  8
LAY-3
  6
CONTINUOUS
 62
     6
100
AcDbVertex
100
AcDb2dVertex
 10
174.59137
 20
111.609139
 30
0.0
  0
VERTEX
  5
2DD
100
AcDbEntity
  8
LAY-3
  6
CONTINUOUS
 62
     6
100
AcDbVertex
100
AcDb2dVertex
 10
175.155344
 20
108.97962
 30
0.0
  0
VERTEX
  5
2DE
100
AcDbEntity
  8
LAY-3
  6
CONTINUOUS
 62
     6
100
AcDbVertex
100
AcDb2dVertex
 10
175.646053
 20
106.208474
 30
0.0
  0
VERTEX
  5
2DF
100
AcDbEntity
  8
LAY-3
  6
CONTINUOUS
 62
     6
100
AcDbVertex
100
AcDb2dVertex
 10
176.0146
 20
103.265725
 30
0.0
  0
VERTEX
  5
2E0
100
AcDbEntity
  8
LAY-3
  6
CONTINUOUS
 62
     6
100
AcDbVertex
100
AcDb2dVertex
 10
176.212088
 20
100.121394
 30
0.0
  0
VERTEX
  5
2E1
100
AcDbEntity
  8
LAY-3
  6
CONTINUOUS
 62
     6
100
AcDbVertex
100
AcDb2dVertex
 10
176.189621
 20
96.745503
 30
0.0
  0
VERTEX
  5
2E2
100
AcDbEntity
  8
LAY-3
  6
CONTINUOUS
 62
     6
100
AcDbVertex
100
AcDb2dVertex
 10
176.033757
 20
94.35309
 30
0.0
  0
VERTEX
  5
2E3
100
AcDbEntity
  8
LAY-3
  6
CONTINUOUS
 62
     6
100
AcDbVertex
100
AcDb2dVertex
 10
175.780987
 20
91.903547
 30
0.0
  0
VERTEX
  5
2E4
100
AcDbEntity
  8
LAY-3
  6
CONTINUOUS
 62
     6
100
AcDbVertex
100
AcDb2dVertex
 10
175.454856
 20
89.456919
 30
0.0
  0
VERTEX
  5
2E5
100
AcDbEntity
  8
LAY-3
  6
CONTINUOUS
 62
     6
100
AcDbVertex
100
AcDb2dVertex
 10
175.07891
 20
87.073253
 30
0.0
  0
VERTEX
  5
2E6
100
AcDbEntity
  8
LAY-3
  6
CONTINUOUS
 62
     6
100
AcDbVertex
100
AcDb2dVertex
 10
174.676697
 20
84.812594
 30
0.0
  0
VERTEX
  5
2E7
100
AcDbEntity
  8
LAY-3
  6
CONTINUOUS
 62
     6
100
AcDbVertex
100
AcDb2dVertex
 10
174.271761
 20
82.734988
 30
0.0
  0
VERTEX
  5
2E8
100
AcDbEntity
  8
LAY-3
  6
CONTINUOUS
 62
     6
100
AcDbVertex
100
AcDb2dVertex
 10
173.887649
 20
80.90048
 30
0.0
  0
VERTEX
  5
2E9
100
AcDbEntity
  8
LAY-3
  6
CONTINUOUS
 62
     6
100
AcDbVertex
100
AcDb2dVertex
 10
173.547908
 20
79.369117
 30
0.0
  0
VERTEX
  5
2EA
100
AcDbEntity
  8
LAY-3
  6
CONTINUOUS
 62
     6
100
AcDbVertex
100
AcDb2dVertex
 10
173.276084
 20
78.200944
 30
0.0
  0
VERTEX
  5
2EB
100
AcDbEntity
  8
LAY-3
  6
CONTINUOUS
 62
     6
100
AcDbVertex
100
AcDb2dVertex
 10
173.095722
 20
77.456006
 30
0.0
  0
VERTEX
  5
2EC
100
AcDbEntity
  8
LAY-3
  6
CONTINUOUS
 62
     6
100
AcDbVertex
100
AcDb2dVertex
 10
173.030368
 20
77.19435
 30
0.0
  0
SEQEND
  5
2ED
100
AcDbEntity
  8
LAY-3
  6
CONTINUOUS
 62
     6
  0
POLYLINE
  5
2EE
100
AcDbEntity
  8
LAY-3
  6
CONTINUOUS
 62
     6
100
AcDb2dPolyline
 66
     1
 10
0.0
 20
0.0
 30
0.0
 70
   128
  0
VERTEX
  5
2EF
100
AcDbEntity
  8
LAY-3
  6
CONTINUOUS
 62
     6
100
AcDbVertex
100
AcDb2dVertex
 10
182.289006
 20
330.434368
 30
0.0
  0
VERTEX
  5
2F0
100
AcDbEntity
  8
LAY-3
  6
CONTINUOUS
 62
     6
100
AcDbVertex
100
AcDb2dVertex
 10
182.150603
 20
329.981157
 30
0.0
  0
VERTEX
  5
2F1
100
AcDbEntity
  8
LAY-3
  6
CONTINUOUS
 62
     6
100
AcDbVertex
100
AcDb2dVertex
 10
181.769859
 20
328.693984
 30
0.0
  0
VERTEX
  5
2F2
100
AcDbEntity
  8
LAY-3
  6
CONTINUOUS
 62
     6
100
AcDbVertex
100
AcDb2dVertex
 10
181.198465
 20
326.68154
 30
0.0
  0
VERTEX
  5
2F3
100
AcDbEntity
  8
LAY-3
  6
CONTINUOUS
 62
     6
100
AcDbVertex
100
AcDb2dVertex
 10
180.488113
 20
324.052515
 30
0.0
  0
VERTEX
  5
2F4
100
AcDbEntity
  8
LAY-3
  6
CONTINUOUS
 62
     6
100
AcDbVertex
100
AcDb2dVertex
 10
179.690496
 20
320.915599
 30
0.0
  0
VERTEX
  5
2F5
100
AcDbEntity
  8
LAY-3
  6
CONTINUOUS
 62
     6
100
AcDbVertex
100
AcDb2dVertex
 10
178.857307
 20
317.379484
 30
0.0
  0
VERTEX
  5
2F6
100
AcDbEntity
  8
LAY-3
  6
CONTINUOUS
 62
     6
100
AcDbVertex
100
AcDb2dVertex
 10
178.040238
 20
313.552859
 30
0.0
  0
VERTEX
  5
2F7
100
AcDbEntity
  8
LAY-3
  6
CONTINUOUS
 62
     6
100
AcDbVertex
100
AcDb2dVertex
 10
177.290982
 20
309.544415
 30
0.0
  0
VERTEX
  5
2F8
100
AcDbEntity
  8
LAY-3
  6
CONTINUOUS
 62
     6
100
AcDbVertex
100
AcDb2dVertex
 10
176.66123
 20
305.462842
 30
0.0
  0
VERTEX
  5
2F9
100
AcDbEntity
  8
LAY-3
  6
CONTINUOUS
 62
     6
100
AcDbVertex
100
AcDb2dVertex
 10
176.202677
 20
301.41683
 30
0.0
  0
VERTEX
  5
2FA
100
AcDbEntity
  8
LAY-3
  6
CONTINUOUS
 62
     6
100
AcDbVertex
100
AcDb2dVertex
 10
175.967013
 20
297.515071
 30
0.0
  0
VERTEX
  5
2FB
100
AcDbEntity
  8
LAY-3
  6
CONTINUOUS
 62
     6
100
AcDbVertex
100
AcDb2dVertex
 10
175.984845
 20
293.951492
 30
0.0
  0
VERTEX
  5
2FC
100
AcDbEntity
  8
LAY-3
  6
CONTINUOUS
 62
     6
100
AcDbVertex
100
AcDb2dVertex
 10
176.215822
 20
290.598115
 30
0.0
  0
VERTEX
  5
2FD
100
AcDbEntity
  8
LAY-3
  6
CONTINUOUS
 62
     6
100
AcDbVertex
100
AcDb2dVertex
 10
176.614978
 20
287.427372
 30
0.0
  0
VERTEX
  5
2FE
100
AcDbEntity
  8
LAY-3
  6
CONTINUOUS
 62
     6
100
AcDbVertex
100
AcDb2dVertex
 10
177.137346
 20
284.411696
 30
0.0
  0
VERTEX
  5
2FF
100
AcDbEntity
  8
LAY-3
  6
CONTINUOUS
 62
     6
100
AcDbVertex
100
AcDb2dVertex
 10
177.73796
 20
281.523519
 30
0.0
  0
VERTEX
  5
300
100
AcDbEntity
  8
LAY-3
  6
CONTINUOUS
 62
     6
100
AcDbVertex
100
AcDb2dVertex
 10
178.371855
 20
278.735273
 30
0.0
  0
VERTEX
  5
301
100
AcDbEntity
  8
LAY-3
  6
CONTINUOUS
 62
     6
100
AcDbVertex
100
AcDb2dVertex
 10
178.994062
 20
276.019391
 30
0.0
  0
VERTEX
  5
302
100
AcDbEntity
  8
LAY-3
  6
CONTINUOUS
 62
     6
100
AcDbVertex
100
AcDb2dVertex
 10
179.559617
 20
273.348306
 30
0.0
  0
VERTEX
  5
303
100
AcDbEntity
  8
LAY-3
  6
CONTINUOUS
 62
     6
100
AcDbVertex
100
AcDb2dVertex
 10
180.023552
 20
270.694449
 30
0.0
  0
VERTEX
  5
304
100
AcDbEntity
  8
LAY-3
  6
CONTINUOUS
 62
     6
100
AcDbVertex
100
AcDb2dVertex
 10
180.340902
 20
268.030252
 30
0.0
  0
VERTEX
  5
305
100
AcDbEntity
  8
LAY-3
  6
CONTINUOUS
 62
     6
100
AcDbVertex
100
AcDb2dVertex
 10
180.4667
 20
265.328149
 30
0.0
  0
VERTEX
  5
306
100
AcDbEntity
  8
LAY-3
  6
CONTINUOUS
 62
     6
100
AcDbVertex
100
AcDb2dVertex
 10
180.372628
 20
262.589311
 30
0.0
  0
VERTEX
  5
307
100
AcDbEntity
  8
LAY-3
  6
CONTINUOUS
 62
     6
100
AcDbVertex
100
AcDb2dVertex
 10
180.09
 20
259.793795
 30
0.0
  0
VERTEX
  5
308
100
AcDbEntity
  8
LAY-3
  6
CONTINUOUS
 62
     6
100
AcDbVertex
100
AcDb2dVertex
 10
179.662927
 20
256.949333
 30
0.0
  0
VERTEX
  5
309
100
AcDbEntity
  8
LAY-3
  6
CONTINUOUS
 62
     6
100
AcDbVertex
100
AcDb2dVertex
 10
179.135518
 20
254.063654
 30
0.0
  0
VERTEX
  5
30A
100
AcDbEntity
  8
LAY-3
  6
CONTINUOUS
 62
     6
100
AcDbVertex
100
AcDb2dVertex
 10
178.551885
 20
251.144491
 30
0.0
  0
VERTEX
  5
30B
100
AcDbEntity
  8
LAY-3
  6
CONTINUOUS
 62
     6
100
AcDbVertex
100
AcDb2dVertex
 10
177.956137
 20
248.199574
 30
0.0
  0
VERTEX
  5
30C
100
AcDbEntity
  8
LAY-3
  6
CONTINUOUS
 62
     6
100
AcDbVertex
100
AcDb2dVertex
 10
177.392385
 20
245.236633
 30
0.0
  0
VERTEX
  5
30D
100
AcDbEntity
  8
LAY-3
  6
CONTINUOUS
 62
     6
100
AcDbVertex
100
AcDb2dVertex
 10
176.90474
 20
242.263399
 30
0.0
  0
VERTEX
  5
30E
100
AcDbEntity
  8
LAY-3
  6
CONTINUOUS
 62
     6
100
AcDbVertex
100
AcDb2dVertex
 10
176.537311
 20
239.287604
 30
0.0
  0
VERTEX
  5
30F
100
AcDbEntity
  8
LAY-3
  6
CONTINUOUS
 62
     6
100
AcDbVertex
100
AcDb2dVertex
 10
176.33421
 20
236.316977
 30
0.0
  0
VERTEX
  5
310
100
AcDbEntity
  8
LAY-3
  6
CONTINUOUS
 62
     6
100
AcDbVertex
100
AcDb2dVertex
 10
176.339548
 20
233.35925
 30
0.0
  0
VERTEX
  5
311
100
AcDbEntity
  8
LAY-3
  6
CONTINUOUS
 62
     6
100
AcDbVertex
100
AcDb2dVertex
 10
176.525211
 20
230.907318
 30
0.0
  0
VERTEX
  5
312
100
AcDbEntity
  8
LAY-3
  6
CONTINUOUS
 62
     6
100
AcDbVertex
100
AcDb2dVertex
 10
176.851955
 20
228.467998
 30
0.0
  0
VERTEX
  5
313
100
AcDbEntity
  8
LAY-3
  6
CONTINUOUS
 62
     6
100
AcDbVertex
100
AcDb2dVertex
 10
177.285257
 20
226.039557
 30
0.0
  0
VERTEX
  5
314
100
AcDbEntity
  8
LAY-3
  6
CONTINUOUS
 62
     6
100
AcDbVertex
100
AcDb2dVertex
 10
177.790591
 20
223.620261
 30
0.0
  0
VERTEX
  5
315
100
AcDbEntity
  8
LAY-3
  6
CONTINUOUS
 62
     6
100
AcDbVertex
100
AcDb2dVertex
 10
178.333434
 20
221.208376
 30
0.0
  0
VERTEX
  5
316
100
AcDbEntity
  8
LAY-3
  6
CONTINUOUS
 62
     6
100
AcDbVertex
100
AcDb2dVertex
 10
178.879263
 20
218.802171
 30
0.0
  0
VERTEX
  5
317
100
AcDbEntity
  8
LAY-3
  6
CONTINUOUS
 62
     6
100
AcDbVertex
100
AcDb2dVertex
 10
179.393554
 20
216.399912
 30
0.0
  0
VERTEX
  5
318
100
AcDbEntity
  8
LAY-3
  6
CONTINUOUS
 62
     6
100
AcDbVertex
100
AcDb2dVertex
 10
179.841784
 20
213.999864
 30
0.0
  0
VERTEX
  5
319
100
AcDbEntity
  8
LAY-3
  6
CONTINUOUS
 62
     6
100
AcDbVertex
100
AcDb2dVertex
 10
180.189428
 20
211.600296
 30
0.0
  0
VERTEX
  5
31A
100
AcDbEntity
  8
LAY-3
  6
CONTINUOUS
 62
     6
100
AcDbVertex
100
AcDb2dVertex
 10
180.401962
 20
209.199475
 30
0.0
  0
VERTEX
  5
31B
100
AcDbEntity
  8
LAY-3
  6
CONTINUOUS
 62
     6
100
AcDbVertex
100
AcDb2dVertex
 10
180.444864
 20
206.795665
 30
0.0
  0
VERTEX
  5
31C
100
AcDbEntity
  8
LAY-3
  6
CONTINUOUS
 62
     6
100
AcDbVertex
100
AcDb2dVertex
 10
180.296598
 20
204.395419
 30
0.0
  0
VERTEX
  5
31D
100
AcDbEntity
  8
LAY-3
  6
CONTINUOUS
 62
     6
100
AcDbVertex
100
AcDb2dVertex
 10
179.983896
 20
201.991494
 30
0.0
  0
VERTEX
  5
31E
100
AcDbEntity
  8
LAY-3
  6
CONTINUOUS
 62
     6
100
AcDbVertex
100
AcDb2dVertex
 10
179.545158
 20
199.584905
 30
0.0
  0
VERTEX
  5
31F
100
AcDbEntity
  8
LAY-3
  6
CONTINUOUS
 62
     6
100
AcDbVertex
100
AcDb2dVertex
 10
179.01878
 20
197.176662
 30
0.0
  0
VERTEX
  5
320
100
AcDbEntity
  8
LAY-3
  6
CONTINUOUS
 62
     6
100
AcDbVertex
100
AcDb2dVertex
 10
178.443161
 20
194.767778
 30
0.0
  0
VERTEX
  5
321
100
AcDbEntity
  8
LAY-3
  6
CONTINUOUS
 62
     6
100
AcDbVertex
100
AcDb2dVertex
 10
177.856699
 20
192.359265
 30
0.0
  0
VERTEX
  5
322
100
AcDbEntity
  8
LAY-3
  6
CONTINUOUS
 62
     6
100
AcDbVertex
100
AcDb2dVertex
 10
177.297793
 20
189.952136
 30
0.0
  0
VERTEX
  5
323
100
AcDbEntity
  8
LAY-3
  6
CONTINUOUS
 62
     6
100
AcDbVertex
100
AcDb2dVertex
 10
176.80484
 20
187.547402
 30
0.0
  0
VERTEX
  5
324
100
AcDbEntity
  8
LAY-3
  6
CONTINUOUS
 62
     6
100
AcDbVertex
100
AcDb2dVertex
 10
176.416238
 20
185.146076
 30
0.0
  0
VERTEX
  5
325
100
AcDbEntity
  8
LAY-3
  6
CONTINUOUS
 62
     6
100
AcDbVertex
100
AcDb2dVertex
 10
176.170386
 20
182.749171
 30
0.0
  0
VERTEX
  5
326
100
AcDbEntity
  8
LAY-3
  6
CONTINUOUS
 62
     6
100
AcDbVertex
100
AcDb2dVertex
 10
176.105681
 20
180.357697
 30
0.0
  0
VERTEX
  5
327
100
AcDbEntity
  8
LAY-3
  6
CONTINUOUS
 62
     6
100
AcDbVertex
100
AcDb2dVertex
 10
176.269681
 20
177.761944
 30
0.0
  0
VERTEX
  5
328
100
AcDbEntity
  8
LAY-3
  6
CONTINUOUS
 62
     6
100
AcDbVertex
100
AcDb2dVertex
 10
176.645191
 20
175.171499
 30
0.0
  0
VERTEX
  5
329
100
AcDbEntity
  8
LAY-3
  6
CONTINUOUS
 62
     6
100
AcDbVertex
100
AcDb2dVertex
 10
177.183721
 20
172.58404
 30
0.0
  0
VERTEX
  5
32A
100
AcDbEntity
  8
LAY-3
  6
CONTINUOUS
 62
     6
100
AcDbVertex
100
AcDb2dVertex
 10
177.83678
 20
169.997244
 30
0.0
  0
VERTEX
  5
32B
100
AcDbEntity
  8
LAY-3
  6
CONTINUOUS
 62
     6
100
AcDbVertex
100
AcDb2dVertex
 10
178.555875
 20
167.408786
 30
0.0
  0
VERTEX
  5
32C
100
AcDbEntity
  8
LAY-3
  6
CONTINUOUS
 62
     6
100
AcDbVertex
100
AcDb2dVertex
 10
179.292516
 20
164.816345
 30
0.0
  0
VERTEX
  5
32D
100
AcDbEntity
  8
LAY-3
  6
CONTINUOUS
 62
     6
100
AcDbVertex
100
AcDb2dVertex
 10
179.998211
 20
162.217596
 30
0.0
  0
VERTEX
  5
32E
100
AcDbEntity
  8
LAY-3
  6
CONTINUOUS
 62
     6
100
AcDbVertex
100
AcDb2dVertex
 10
180.624469
 20
159.610217
 30
0.0
  0
VERTEX
  5
32F
100
AcDbEntity
  8
LAY-3
  6
CONTINUOUS
 62
     6
100
AcDbVertex
100
AcDb2dVertex
 10
181.122798
 20
156.991885
 30
0.0
  0
VERTEX
  5
330
100
AcDbEntity
  8
LAY-3
  6
CONTINUOUS
 62
     6
100
AcDbVertex
100
AcDb2dVertex
 10
181.444708
 20
154.360275
 30
0.0
  0
VERTEX
  5
331
100
AcDbEntity
  8
LAY-3
  6
CONTINUOUS
 62
     6
100
AcDbVertex
100
AcDb2dVertex
 10
181.541708
 20
151.713065
 30
0.0
  0
VERTEX
  5
332
100
AcDbEntity
  8
LAY-3
  6
CONTINUOUS
 62
     6
100
AcDbVertex
100
AcDb2dVertex
 10
181.391055
 20
149.136087
 30
0.0
  0
VERTEX
  5
333
100
AcDbEntity
  8
LAY-3
  6
CONTINUOUS
 62
     6
100
AcDbVertex
100
AcDb2dVertex
 10
181.032017
 20
146.549391
 30
0.0
  0
VERTEX
  5
334
100
AcDbEntity
  8
LAY-3
  6
CONTINUOUS
 62
     6
100
AcDbVertex
100
AcDb2dVertex
 10
180.512189
 20
143.96004
 30
0.0
  0
VERTEX
  5
335
100
AcDbEntity
  8
LAY-3
  6
CONTINUOUS
 62
     6
100
AcDbVertex
100
AcDb2dVertex
 10
179.879164
 20
141.375098
 30
0.0
  0
VERTEX
  5
336
100
AcDbEntity
  8
LAY-3
  6
CONTINUOUS
 62
     6
100
AcDbVertex
100
AcDb2dVertex
 10
179.180535
 20
138.801627
 30
0.0
  0
VERTEX
  5
337
100
AcDbEntity
  8
LAY-3
  6
CONTINUOUS
 62
     6
100
AcDbVertex
100
AcDb2dVertex
 10
178.463897
 20
136.246691
 30
0.0
  0
VERTEX
  5
338
100
AcDbEntity
  8
LAY-3
  6
CONTINUOUS
 62
     6
100
AcDbVertex
100
AcDb2dVertex
 10
177.776843
 20
133.717353
 30
0.0
  0
VERTEX
  5
339
100
AcDbEntity
  8
LAY-3
  6
CONTINUOUS
 62
     6
100
AcDbVertex
100
AcDb2dVertex
 10
177.166967
 20
131.220676
 30
0.0
  0
VERTEX
  5
33A
100
AcDbEntity
  8
LAY-3
  6
CONTINUOUS
 62
     6
100
AcDbVertex
100
AcDb2dVertex
 10
176.681863
 20
128.763723
 30
0.0
  0
VERTEX
  5
33B
100
AcDbEntity
  8
LAY-3
  6
CONTINUOUS
 62
     6
100
AcDbVertex
100
AcDb2dVertex
 10
176.369125
 20
126.353557
 30
0.0
  0
VERTEX
  5
33C
100
AcDbEntity
  8
LAY-3
  6
CONTINUOUS
 62
     6
100
AcDbVertex
100
AcDb2dVertex
 10
176.276346
 20
123.997242
 30
0.0
  0
VERTEX
  5
33D
100
AcDbEntity
  8
LAY-3
  6
CONTINUOUS
 62
     6
100
AcDbVertex
100
AcDb2dVertex
 10
176.38225
 20
122.162929
 30
0.0
  0
VERTEX
  5
33E
100
AcDbEntity
  8
LAY-3
  6
CONTINUOUS
 62
     6
100
AcDbVertex
100
AcDb2dVertex
 10
176.627419
 20
120.348789
 30
0.0
  0
VERTEX
  5
33F
100
AcDbEntity
  8
LAY-3
  6
CONTINUOUS
 62
     6
100
AcDbVertex
100
AcDb2dVertex
 10
176.981925
 20
118.536473
 30
0.0
  0
VERTEX
  5
340
100
AcDbEntity
  8
LAY-3
  6
CONTINUOUS
 62
     6
100
AcDbVertex
100
AcDb2dVertex
 10
177.415836
 20
116.707634
 30
0.0
  0
VERTEX
  5
341
100
AcDbEntity
  8
LAY-3
  6
CONTINUOUS
 62
     6
100
AcDbVertex
100
AcDb2dVertex
 10
177.899223
 20
114.843924
 30
0.0
  0
VERTEX
  5
342
100
AcDbEntity
  8
LAY-3
  6
CONTINUOUS
 62
     6
100
AcDbVertex
100
AcDb2dVertex
 10
178.402156
 20
112.926995
 30
0.0
  0
VERTEX
  5
343
100
AcDbEntity
  8
LAY-3
  6
CONTINUOUS
 62
     6
100
AcDbVertex
100
AcDb2dVertex
 10
178.894705
 20
110.938498
 30
0.0
  0
VERTEX
  5
344
100
AcDbEntity
  8
LAY-3
  6
CONTINUOUS
 62
     6
100
AcDbVertex
100
AcDb2dVertex
 10
179.34694
 20
108.860086
 30
0.0
  0
VERTEX
  5
345
100
AcDbEntity
  8
LAY-3
  6
CONTINUOUS
 62
     6
100
AcDbVertex
100
AcDb2dVertex
 10
179.728931
 20
106.67341
 30
0.0
  0
VERTEX
  5
346
100
AcDbEntity
  8
LAY-3
  6
CONTINUOUS
 62
     6
100
AcDbVertex
100
AcDb2dVertex
 10
180.010748
 20
104.360124
 30
0.0
  0
VERTEX
  5
347
100
AcDbEntity
  8
LAY-3
  6
CONTINUOUS
 62
     6
100
AcDbVertex
100
AcDb2dVertex
 10
180.162461
 20
101.901878
 30
0.0
  0
VERTEX
  5
348
100
AcDbEntity
  8
LAY-3
  6
CONTINUOUS
 62
     6
100
AcDbVertex
100
AcDb2dVertex
 10
180.155426
 20
99.020099
 30
0.0
  0
VERTEX
  5
349
100
AcDbEntity
  8
LAY-3
  6
CONTINUOUS
 62
     6
100
AcDbVertex
100
AcDb2dVertex
 10
179.987906
 20
96.022198
 30
0.0
  0
VERTEX
  5
34A
100
AcDbEntity
  8
LAY-3
  6
CONTINUOUS
 62
     6
100
AcDbVertex
100
AcDb2dVertex
 10
179.693856
 20
92.99047
 30
0.0
  0
VERTEX
  5
34B
100
AcDbEntity
  8
LAY-3
  6
CONTINUOUS
 62
     6
100
AcDbVertex
100
AcDb2dVertex
 10
179.307232
 20
90.007211
 30
0.0
  0
VERTEX
  5
34C
100
AcDbEntity
  8
LAY-3
  6
CONTINUOUS
 62
     6
100
AcDbVertex
100
AcDb2dVertex
 10
178.86199
 20
87.154716
 30
0.0
  0
VERTEX
  5
34D
100
AcDbEntity
  8
LAY-3
  6
CONTINUOUS
 62
     6
100
AcDbVertex
100
AcDb2dVertex
 10
178.392086
 20
84.51528
 30
0.0
  0
VERTEX
  5
34E
100
AcDbEntity
  8
LAY-3
  6
CONTINUOUS
 62
     6
100
AcDbVertex
100
AcDb2dVertex
 10
177.931476
 20
82.1712
 30
0.0
  0
VERTEX
  5
34F
100
AcDbEntity
  8
LAY-3
  6
CONTINUOUS
 62
     6
100
AcDbVertex
100
AcDb2dVertex
 10
177.514115
 20
80.204772
 30
0.0
  0
VERTEX
  5
350
100
AcDbEntity
  8
LAY-3
  6
CONTINUOUS
 62
     6
100
AcDbVertex
100
AcDb2dVertex
 10
177.17396
 20
78.69829
 30
0.0
  0
VERTEX
  5
351
100
AcDbEntity
  8
LAY-3
  6
CONTINUOUS
 62
     6
100
AcDbVertex
100
AcDb2dVertex
 10
176.944966
 20
77.734051
 30
0.0
  0
VERTEX
  5
352
100
AcDbEntity
  8
LAY-3
  6
CONTINUOUS
 62
     6
100
AcDbVertex
100
AcDb2dVertex
 10
176.861089
 20
77.39435
 30
0.0
  0
SEQEND
  5
353
100
AcDbEntity
  8
LAY-3
  6
CONTINUOUS
 62
     6
  0
LINE
  5
354
100
AcDbEntity
  8
_
  6
EXLTYPE2
 62
     7
100
AcDbLine
 10
34.0
 20
297.0
 30
0.0
 11
-4.0
 21
297.0
 31
0.0
  0
LINE
  5
355
100
AcDbEntity
  8
_
  6
CONTINUOUS
 62
     7
100
AcDbLine
 10
36.0
 20
17.0
 30
0.0
 11
400.0
 21
17.0
 31
0.0
  0
LINE
  5
356
100
AcDbEntity
  8
_
  6
CONTINUOUS
 62
     7
100
AcDbLine
 10
400.0
 20
17.0
 30
0.0
 11
400.0
 21
577.0
 31
0.0
  0
LINE
  5
357
100
AcDbEntity
  8
_
  6
CONTINUOUS
 62
     7
100
AcDbLine
 10
36.0
 20
17.0
 30
0.0
 11
36.0
 21
577.0
 31
0.0
  0
LINE
  5
358
100
AcDbEntity
  8
_
  6
CONTINUOUS
 62
     7
100
AcDbLine
 10
36.0
 20
577.0
 30
0.0
 11
400.0
 21
577.0
 31
0.0
  0
LINE
  5
359
100
AcDbEntity
  8
_
  6
CONTINUOUS
 62
     7
100
AcDbLine
 10
36.0
 20
61.0
 30
0.0
 11
400.0
 21
61.0
 31
0.0
  0
LINE
  5
35A
100
AcDbEntity
  8
_
  6
CONTINUOUS
 62
     6
100
AcDbLine
 10
372.0
 20
61.0
 30
0.0
 11
372.0
 21
37.0
 31
0.0
  0
LINE
  5
35B
100
AcDbEntity
  8
_
  6
CONTINUOUS
 62
     6
100
AcDbLine
 10
362.0
 20
61.0
 30
0.0
 11
362.0
 21
37.0
 31
0.0
  0
LINE
  5
35C
100
AcDbEntity
  8
_
  6
CONTINUOUS
 62
     6
100
AcDbLine
 10
288.0
 20
61.0
 30
0.0
 11
288.0
 21
17.0
 31
0.0
  0
LINE
  5
35D
100
AcDbEntity
  8
_
  6
CONTINUOUS
 62
     6
100
AcDbLine
 10
278.0
 20
61.0
 30
0.0
 11
278.0
 21
17.0
 31
0.0
  0
LINE
  5
35E
100
AcDbEntity
  8
_
  6
CONTINUOUS
 62
     6
100
AcDbLine
 10
160.0
 20
61.0
 30
0.0
 11
160.0
 21
37.0
 31
0.0
  0
LINE
  5
35F
100
AcDbEntity
  8
_
  6
CONTINUOUS
 62
     6
100
AcDbLine
 10
150.0
 20
61.0
 30
0.0
 11
150.0
 21
17.0
 31
0.0
  0
LINE
  5
360
100
AcDbEntity
  8
_
  6
CONTINUOUS
 62
     6
100
AcDbLine
 10
124.0
 20
61.0
 30
0.0
 11
124.0
 21
17.0
 31
0.0
  0
LINE
  5
361
100
AcDbEntity
  8
_
  6
CONTINUOUS
 62
     6
100
AcDbLine
 10
98.0
 20
61.0
 30
0.0
 11
98.0
 21
17.0
 31
0.0
  0
LINE
  5
362
100
AcDbEntity
  8
_
  6
CONTINUOUS
 62
     6
100
AcDbLine
 10
67.0
 20
61.0
 30
0.0
 11
67.0
 21
17.0
 31
0.0
  0
LINE
  5
363
100
AcDbEntity
  8
_
  6
CONTINUOUS
 62
     6
100
AcDbLine
 10
36.0
 20
51.0
 30
0.0
 11
150.0
 21
51.0
 31
0.0
  0
LINE
  5
364
100
AcDbEntity
  8
_
  6
CONTINUOUS
 62
     6
100
AcDbLine
 10
378.530762
 20
41.600586
 30
0.0
 11
393.998779
 21
57.339966
 31
0.0
  0
LINE
  5
365
100
AcDbEntity
  8
_
  6
EXLTYPE2
 62
     6
100
AcDbLine
 10
36.0
 20
27.0
 30
0.0
 11
98.0
 21
27.0
 31
0.0
  0
CIRCLE
  5
366
100
AcDbEntity
  8
_
  6
CONTINUOUS
 62
     6
100
AcDbCircle
 10
46.0
 20
22.0
 30
0.0
 40
0.2
  0
CIRCLE
  5
367
100
AcDbEntity
  8
_
  6
CONTINUOUS
 62
     6
100
AcDbCircle
 10
56.0
 20
22.0
 30
0.0
 40
0.2
  0
CIRCLE
  5
368
100
AcDbEntity
  8
_
  6
CONTINUOUS
 62
     6
100
AcDbCircle
 10
77.0
 20
22.0
 30
0.0
 40
0.2
  0
CIRCLE
  5
369
100
AcDbEntity
  8
_
  6
CONTINUOUS
 62
     6
100
AcDbCircle
 10
87.0
 20
22.0
 30
0.0
 40
0.2
  0
LINE
  5
36A
100
AcDbEntity
  8
_
  6
EXLTYPE2
 62
     7
100
AcDbLine
 10
34.0
 20
297.0
 30
0.0
 11
-4.0
 21
297.0
 31
0.0
  0
TEXT
  5
36B
100
AcDbEntity
  8
_
  6
CONTINUOUS
 62
     2
100
AcDbText
 10
378.107422
 20
50.544556
 30
0.0
 40
6.0
  1
１
 41
0.826
  7
EXCADSTD
 72
     5
 11
382.827422
 21
50.544556
 31
0.0
100
AcDbText
  0
TEXT
  5
36C
100
AcDbEntity
  8
_
  6
CONTINUOUS
 62
     2
100
AcDbText
 10
388.055859
 20
41.469769
 30
0.0
 40
6.0
  1
２
 41
0.826
  7
EXCADSTD
 72
     5
 11
392.775859
 21
41.469769
 31
0.0
100
AcDbText
  0
TEXT
  5
36D
100
AcDbEntity
  8
_
  6
CONTINUOUS
 62
     2
100
AcDbText
 10
40.5
 20
51.75
 30
0.0
 40
8.5
  1
製図
 41
1.087059
  7
EXCADSTD
 72
     5
 11
60.6652
 21
51.75
 31
0.0
100
AcDbText
  0
TEXT
  5
36E
100
AcDbEntity
  8
_
  6
CONTINUOUS
 62
     2
100
AcDbText
 10
71.5
 20
51.75
 30
0.0
 40
8.5
  1
写図
 41
1.087059
  7
EXCADSTD
 72
     5
 11
91.6652
 21
51.75
 31
0.0
100
AcDbText
  0
TEXT
  5
36F
100
AcDbEntity
  8
_
  6
CONTINUOUS
 62
     2
100
AcDbText
 10
101.5
 20
51.75
 30
0.0
 40
8.5
  1
検図
 41
0.938824
  7
EXCADSTD
 72
     5
 11
118.9154
 21
51.75
 31
0.0
100
AcDbText
  0
TEXT
  5
370
100
AcDbEntity
  8
_
  6
CONTINUOUS
 62
     2
100
AcDbText
 10
127.5
 20
51.75
 30
0.0
 40
8.5
  1
承認
 41
0.938824
  7
EXCADSTD
 72
     5
 11
144.9154
 21
51.75
 31
0.0
100
AcDbText
  0
TEXT
  5
371
100
AcDbEntity
  8
_
  6
CONTINUOUS
 62
     2
100
AcDbText
 10
150.75
 20
49.75
 30
0.0
 40
8.5
  1
品
 41
0.84
  7
EXCADSTD
 72
     5
 11
157.55
 21
49.75
 31
0.0
100
AcDbText
  0
TEXT
  5
372
100
AcDbEntity
  8
_
  6
CONTINUOUS
 62
     2
100
AcDbText
 10
150.75
 20
39.75
 30
0.0
 40
8.5
  1
名
 41
0.84
  7
EXCADSTD
 72
     5
 11
157.55
 21
39.75
 31
0.0
100
AcDbText
  0
TEXT
  5
373
100
AcDbEntity
  8
_
  6
CONTINUOUS
 62
     2
100
AcDbText
 10
278.75
 20
49.75
 30
0.0
 40
8.5
  1
品
 41
0.84
  7
EXCADSTD
 72
     5
 11
285.55
 21
49.75
 31
0.0
100
AcDbText
  0
TEXT
  5
374
100
AcDbEntity
  8
_
  6
CONTINUOUS
 62
     2
100
AcDbText
 10
278.75
 20
39.75
 30
0.0
 40
8.5
  1
番
 41
0.84
  7
EXCADSTD
 72
     5
 11
285.55
 21
39.75
 31
0.0
100
AcDbText
  0
TEXT
  5
375
100
AcDbEntity
  8
_
  6
CONTINUOUS
 62
     2
100
AcDbText
 10
362.75
 20
49.75
 30
0.0
 40
8.5
  1
尺
 41
0.84
  7
EXCADSTD
 72
     5
 11
369.55
 21
49.75
 31
0.0
100
AcDbText
  0
TEXT
  5
376
100
AcDbEntity
  8
_
  6
CONTINUOUS
 62
     2
100
AcDbText
 10
362.75
 20
39.75
 30
0.0
 40
8.5
  1
度
 41
0.84
  7
EXCADSTD
 72
     5
 11
369.55
 21
39.75
 31
0.0
100
AcDbText
  0
TEXT
  5
377
100
AcDbEntity
  8
_
  6
CONTINUOUS
 62
     2
100
AcDbText
 10
278.75
 20
27.15
 30
0.0
 40
8.5
  1
図
 41
0.84
  7
EXCADSTD
 72
     5
 11
285.55
 21
27.15
 31
0.0
100
AcDbText
  0
TEXT
  5
378
100
AcDbEntity
  8
_
  6
CONTINUOUS
 62
     2
100
AcDbText
 10
278.75
 20
18.55
 30
0.0
 40
8.5
  1
番
 41
0.84
  7
EXCADSTD
 72
     5
 11
285.55
 21
18.55
 31
0.0
100
AcDbText
  0
LINE
  5
379
100
AcDbEntity
  8
_
  6
CONTINUOUS
 62
     3
100
AcDbLine
 10
165.489551
 20
30.057599
 30
0.0
 11
163.876819
 21
30.057599
 31
0.0
  0
LINE
  5
37A
100
AcDbEntity
  8
_
  6
CONTINUOUS
 62
     3
100
AcDbLine
 10
165.489551
 20
31.670392
 30
0.0
 11
165.489551
 21
30.057599
 31
0.0
  0
LINE
  5
37B
100
AcDbEntity
  8
_
  6
CONTINUOUS
 62
     3
100
AcDbLine
 10
163.876819
 20
31.670392
 30
0.0
 11
165.489551
 21
31.670392
 31
0.0
  0
LINE
  5
37C
100
AcDbEntity
  8
_
  6
CONTINUOUS
 62
     3
100
AcDbLine
 10
163.876819
 20
31.670392
 30
0.0
 11
163.876819
 21
30.057599
 31
0.0
  0
LINE
  5
37D
100
AcDbEntity
  8
_
  6
CONTINUOUS
 62
     3
100
AcDbLine
 10
163.271838
 20
30.057599
 30
0.0
 11
161.659106
 21
30.057599
 31
0.0
  0
LINE
  5
37E
100
AcDbEntity
  8
_
  6
CONTINUOUS
 62
     3
100
AcDbLine
 10
163.271838
 20
31.670392
 30
0.0
 11
163.271838
 21
30.057599
 31
0.0
  0
LINE
  5
37F
100
AcDbEntity
  8
_
  6
CONTINUOUS
 62
     3
100
AcDbLine
 10
161.659106
 20
31.670392
 30
0.0
 11
163.271838
 21
31.670392
 31
0.0
  0
LINE
  5
380
100
AcDbEntity
  8
_
  6
CONTINUOUS
 62
     3
100
AcDbLine
 10
161.659106
 20
31.670392
 30
0.0
 11
161.659106
 21
30.057599
 31
0.0
  0
LINE
  5
381
100
AcDbEntity
  8
_
  6
CONTINUOUS
 62
     3
100
AcDbLine
 10
159.977466
 20
22.8
 30
0.0
 11
154.2
 21
22.8
 31
0.0
  0
ARC
  5
382
100
AcDbEntity
  8
_
  6
CONTINUOUS
 62
     3
100
AcDbCircle
 10
159.977466
 20
26.428815
 30
0.0
 40
3.628799
100
AcDbArc
 50
270.000031
 51
334.000137
  0
LINE
  5
383
100
AcDbEntity
  8
_
  6
CONTINUOUS
 62
     3
100
AcDbLine
 10
165.489551
 20
29.452802
 30
0.0
 11
163.238605
 21
24.838025
 31
0.0
  0
LINE
  5
384
100
AcDbEntity
  8
_
  6
CONTINUOUS
 62
     3
100
AcDbLine
 10
163.022449
 20
29.452802
 30
0.0
 11
165.489551
 21
29.452802
 31
0.0
  0
LINE
  5
385
100
AcDbEntity
  8
_
  6
CONTINUOUS
 62
     3
100
AcDbLine
 10
161.202594
 20
25.721814
 30
0.0
 11
163.022449
 21
29.452802
 31
0.0
  0
ARC
  5
386
100
AcDbEntity
  8
_
  6
CONTINUOUS
 62
     3
100
AcDbCircle
 10
159.753101
 20
26.428815
 30
0.0
 40
1.6128
100
AcDbArc
 50
270.000031
 51
333.99855
  0
LINE
  5
387
100
AcDbEntity
  8
_
  6
CONTINUOUS
 62
     3
100
AcDbLine
 10
154.2
 20
24.815991
 30
0.0
 11
159.753101
 21
24.815991
 31
0.0
  0
LINE
  5
388
100
AcDbEntity
  8
_
  6
CONTINUOUS
 62
     3
100
AcDbLine
 10
154.2
 20
24.815991
 30
0.0
 11
154.2
 21
22.8
 31
0.0
  0
LINE
  5
389
100
AcDbEntity
  8
_
  6
CONTINUOUS
 62
     3
100
AcDbLine
 10
159.844989
 20
27.43678
 30
0.0
 11
154.2
 21
27.43678
 31
0.0
  0
LINE
  5
38A
100
AcDbEntity
  8
_
  6
CONTINUOUS
 62
     3
100
AcDbLine
 10
159.844989
 20
29.251202
 30
0.0
 11
159.844989
 21
27.43678
 31
0.0
  0
LINE
  5
38B
100
AcDbEntity
  8
_
  6
CONTINUOUS
 62
     3
100
AcDbLine
 10
154.2
 20
29.251202
 30
0.0
 11
159.844989
 21
29.251202
 31
0.0
  0
LINE
  5
38C
100
AcDbEntity
  8
_
  6
CONTINUOUS
 62
     3
100
AcDbLine
 10
154.2
 20
29.251202
 30
0.0
 11
154.2
 21
27.43678
 31
0.0
  0
LINE
  5
38D
100
AcDbEntity
  8
_
  6
CONTINUOUS
 62
     3
100
AcDbLine
 10
159.844989
 20
29.856
 30
0.0
 11
154.2
 21
29.856
 31
0.0
  0
LINE
  5
38E
100
AcDbEntity
  8
_
  6
CONTINUOUS
 62
     3
100
AcDbLine
 10
159.844989
 20
31.670392
 30
0.0
 11
159.844989
 21
29.856
 31
0.0
  0
LINE
  5
38F
100
AcDbEntity
  8
_
  6
CONTINUOUS
 62
     3
100
AcDbLine
 10
154.2
 20
31.670392
 30
0.0
 11
159.844989
 21
31.670392
 31
0.0
  0
LINE
  5
390
100
AcDbEntity
  8
_
  6
CONTINUOUS
 62
     3
100
AcDbLine
 10
154.2
 20
31.670392
 30
0.0
 11
154.2
 21
29.856
 31
0.0
  0
LINE
  5
391
100
AcDbEntity
  8
_
  6
CONTINUOUS
 62
     3
100
AcDbLine
 10
166.094531
 20
29.452802
 30
0.0
 11
166.094531
 21
28.041577
 31
0.0
  0
LINE
  5
392
100
AcDbEntity
  8
_
  6
CONTINUOUS
 62
     3
100
AcDbLine
 10
166.094531
 20
29.452802
 30
0.0
 11
167.930804
 21
29.452802
 31
0.0
  0
LINE
  5
393
100
AcDbEntity
  8
_
  6
CONTINUOUS
 62
     3
100
AcDbLine
 10
167.707263
 20
30.863995
 30
0.0
 11
167.930804
 21
29.452802
 31
0.0
  0
LINE
  5
394
100
AcDbEntity
  8
_
  6
CONTINUOUS
 62
     3
100
AcDbLine
 10
167.707263
 20
30.863995
 30
0.0
 11
169.952472
 21
30.863995
 31
0.0
  0
LINE
  5
395
100
AcDbEntity
  8
_
  6
CONTINUOUS
 62
     3
100
AcDbLine
 10
169.952472
 20
30.863995
 30
0.0
 11
170.175983
 21
29.452802
 31
0.0
  0
LINE
  5
396
100
AcDbEntity
  8
_
  6
CONTINUOUS
 62
     3
100
AcDbLine
 10
170.175983
 20
29.452802
 30
0.0
 11
175.77135
 21
29.452802
 31
0.0
  0
LINE
  5
397
100
AcDbEntity
  8
_
  6
CONTINUOUS
 62
     3
100
AcDbLine
 10
175.77135
 20
29.452802
 30
0.0
 11
174.594623
 21
26.810101
 31
0.0
  0
ARC
  5
398
100
AcDbEntity
  8
_
  6
CONTINUOUS
 62
     3
100
AcDbCircle
 10
171.832202
 20
28.040082
 30
0.0
 40
3.024021
100
AcDbArc
 50
263.465775
 51
335.998779
  0
LINE
  5
399
100
AcDbEntity
  8
_
  6
CONTINUOUS
 62
     3
100
AcDbLine
 10
171.487689
 20
25.035718
 30
0.0
 11
171.267413
 21
26.428815
 31
0.0
  0
ARC
  5
39A
100
AcDbEntity
  8
_
  6
CONTINUOUS
 62
     3
100
AcDbCircle
 10
171.211627
 20
27.638409
 30
0.0
 40
1.209601
100
AcDbArc
 50
272.623749
 51
336.006531
  0
LINE
  5
39B
100
AcDbEntity
  8
_
  6
CONTINUOUS
 62
     3
100
AcDbLine
 10
172.317004
 20
27.146405
 30
0.0
 11
172.715259
 21
28.041577
 31
0.0
  0
LINE
  5
39C
100
AcDbEntity
  8
_
  6
CONTINUOUS
 62
     3
100
AcDbLine
 10
172.715259
 20
28.041577
 30
0.0
 11
170.399524
 21
28.041577
 31
0.0
  0
LINE
  5
39D
100
AcDbEntity
  8
_
  6
CONTINUOUS
 62
     3
100
AcDbLine
 10
170.399524
 20
28.041577
 30
0.0
 11
171.229694
 21
22.8
 31
0.0
  0
LINE
  5
39E
100
AcDbEntity
  8
_
  6
CONTINUOUS
 62
     3
100
AcDbLine
 10
171.229694
 20
22.8
 30
0.0
 11
168.984485
 21
22.8
 31
0.0
  0
LINE
  5
39F
100
AcDbEntity
  8
_
  6
CONTINUOUS
 62
     2
100
AcDbLine
 10
168.984485
 20
22.8
 30
0.0
 11
168.154346
 21
28.041577
 31
0.0
  0
LINE
  5
3A0
100
AcDbEntity
  8
_
  6
CONTINUOUS
 62
     2
100
AcDbLine
 10
168.154346
 20
28.041577
 30
0.0
 11
166.094531
 21
28.041577
 31
0.0
  0
LINE
  5
3A1
100
AcDbEntity
  8
_
  6
CONTINUOUS
 62
     3
100
AcDbLine
 10
175.569537
 20
22.8
 30
0.0
 11
175.569537
 21
24.815991
 31
0.0
  0
LINE
  5
3A2
100
AcDbEntity
  8
_
  6
CONTINUOUS
 62
     3
100
AcDbLine
 10
175.569537
 20
24.815991
 30
0.0
 11
186.859088
 21
24.815991
 31
0.0
  0
LINE
  5
3A3
100
AcDbEntity
  8
_
  6
CONTINUOUS
 62
     3
100
AcDbLine
 10
186.859088
 20
24.815991
 30
0.0
 11
186.859088
 21
22.8
 31
0.0
  0
LINE
  5
3A4
100
AcDbEntity
  8
_
  6
CONTINUOUS
 62
     3
100
AcDbLine
 10
186.859088
 20
22.8
 30
0.0
 11
175.569537
 21
22.8
 31
0.0
  0
LINE
  5
3A5
100
AcDbEntity
  8
_
  6
CONTINUOUS
 62
     3
100
AcDbLine
 10
176.375903
 20
31.670392
 30
0.0
 11
176.375903
 21
29.654401
 31
0.0
  0
LINE
  5
3A6
100
AcDbEntity
  8
_
  6
CONTINUOUS
 62
     3
100
AcDbLine
 10
176.375903
 20
31.670392
 30
0.0
 11
186.052722
 21
31.670392
 31
0.0
  0
LINE
  5
3A7
100
AcDbEntity
  8
_
  6
CONTINUOUS
 62
     3
100
AcDbLine
 10
186.052722
 20
31.670392
 30
0.0
 11
186.052722
 21
29.654401
 31
0.0
  0
LINE
  5
3A8
100
AcDbEntity
  8
_
  6
CONTINUOUS
 62
     3
100
AcDbLine
 10
186.052722
 20
29.654401
 30
0.0
 11
176.375903
 21
29.654401
 31
0.0
  0
LINE
  5
3A9
100
AcDbEntity
  8
_
  6
CONTINUOUS
 62
     3
100
AcDbLine
 10
188.270435
 20
31.670392
 30
0.0
 11
188.270435
 21
29.654401
 31
0.0
  0
LINE
  5
3AA
100
AcDbEntity
  8
_
  6
CONTINUOUS
 62
     3
100
AcDbLine
 10
188.270435
 20
31.670392
 30
0.0
 11
198.753619
 21
31.670392
 31
0.0
  0
LINE
  5
3AB
100
AcDbEntity
  8
_
  6
CONTINUOUS
 62
     3
100
AcDbLine
 10
198.753619
 20
31.670392
 30
0.0
 11
195.610187
 21
27.343793
 31
0.0
  0
LINE
  5
3AC
100
AcDbEntity
  8
_
  6
CONTINUOUS
 62
     3
100
AcDbLine
 10
195.610187
 20
27.343793
 30
0.0
 11
199.559985
 21
22.8
 31
0.0
  0
LINE
  5
3AD
100
AcDbEntity
  8
_
  6
CONTINUOUS
 62
     3
100
AcDbLine
 10
199.559985
 20
22.8
 30
0.0
 11
196.621631
 21
22.8
 31
0.0
  0
LINE
  5
3AE
100
AcDbEntity
  8
_
  6
CONTINUOUS
 62
     3
100
AcDbLine
 10
196.621631
 20
22.8
 30
0.0
 11
194.272266
 21
25.502545
 31
0.0
  0
LINE
  5
3AF
100
AcDbEntity
  8
_
  6
CONTINUOUS
 62
     3
100
AcDbLine
 10
194.272266
 20
25.502545
 30
0.0
 11
193.39577
 21
24.29585
 31
0.0
  0
ARC
  5
3B0
100
AcDbEntity
  8
_
  6
CONTINUOUS
 62
     3
100
AcDbCircle
 10
190.459857
 20
26.428815
 30
0.0
 40
3.628799
100
AcDbArc
 50
270.000031
 51
324.00116
  0
LINE
  5
3B1
100
AcDbEntity
  8
_
  6
CONTINUOUS
 62
     3
100
AcDbLine
 10
190.459857
 20
22.8
 30
0.0
 11
187.464069
 21
22.8
 31
0.0
  0
LINE
  5
3B2
100
AcDbEntity
  8
_
  6
CONTINUOUS
 62
     3
100
AcDbLine
 10
187.464069
 20
22.8
 30
0.0
 11
187.464069
 21
24.815991
 31
0.0
  0
LINE
  5
3B3
100
AcDbEntity
  8
_
  6
CONTINUOUS
 62
     3
100
AcDbLine
 10
187.464069
 20
24.815991
 30
0.0
 11
190.00542
 21
24.815991
 31
0.0
  0
ARC
  5
3B4
100
AcDbEntity
  8
_
  6
CONTINUOUS
 62
     3
100
AcDbCircle
 10
190.00542
 20
26.831982
 30
0.0
 40
2.015999
100
AcDbArc
 50
270.000031
 51
323.996597
  0
LINE
  5
3B5
100
AcDbEntity
  8
_
  6
CONTINUOUS
 62
     3
100
AcDbLine
 10
191.636188
 20
25.647015
 30
0.0
 11
194.5479
 21
29.654401
 31
0.0
  0
LINE
  5
3B6
100
AcDbEntity
  8
_
  6
CONTINUOUS
 62
     3
100
AcDbLine
 10
194.5479
 20
29.654401
 30
0.0
 11
188.270435
 21
29.654401
 31
0.0
  0
LINE
  5
3B7
100
AcDbEntity
  8
_
  6
CONTINUOUS
 62
     3
100
AcDbLine
 10
201.979114
 20
31.670392
 30
0.0
 11
201.979114
 21
30.259198
 31
0.0
  0
LINE
  5
3B8
100
AcDbEntity
  8
_
  6
CONTINUOUS
 62
     3
100
AcDbLine
 10
201.979114
 20
31.670392
 30
0.0
 11
212.462268
 21
31.670392
 31
0.0
  0
LINE
  5
3B9
100
AcDbEntity
  8
_
  6
CONTINUOUS
 62
     3
100
AcDbLine
 10
212.462268
 20
31.670392
 30
0.0
 11
212.462268
 21
30.259198
 31
0.0
  0
LINE
  5
3BA
100
AcDbEntity
  8
_
  6
CONTINUOUS
 62
     3
100
AcDbLine
 10
212.462268
 20
30.259198
 30
0.0
 11
208.329547
 21
30.259198
 31
0.0
  0
LINE
  5
3BB
100
AcDbEntity
  8
_
  6
CONTINUOUS
 62
     3
100
AcDbLine
 10
208.329547
 20
30.259198
 30
0.0
 11
208.329547
 21
24.412823
 31
0.0
  0
LINE
  5
3BC
100
AcDbEntity
  8
_
  6
CONTINUOUS
 62
     3
100
AcDbLine
 10
208.329547
 20
24.412823
 30
0.0
 11
212.865466
 21
24.412823
 31
0.0
  0
LINE
  5
3BD
100
AcDbEntity
  8
_
  6
CONTINUOUS
 62
     3
100
AcDbLine
 10
212.865466
 20
24.412823
 30
0.0
 11
212.865466
 21
22.8
 31
0.0
  0
LINE
  5
3BE
100
AcDbEntity
  8
_
  6
CONTINUOUS
 62
     3
100
AcDbLine
 10
212.865466
 20
22.8
 30
0.0
 11
201.575916
 21
22.8
 31
0.0
  0
LINE
  5
3BF
100
AcDbEntity
  8
_
  6
CONTINUOUS
 62
     3
100
AcDbLine
 10
201.575916
 20
22.8
 30
0.0
 11
201.575916
 21
24.412823
 31
0.0
  0
LINE
  5
3C0
100
AcDbEntity
  8
_
  6
CONTINUOUS
 62
     3
100
AcDbLine
 10
201.575916
 20
24.412823
 30
0.0
 11
206.111835
 21
24.412823
 31
0.0
  0
LINE
  5
3C1
100
AcDbEntity
  8
_
  6
CONTINUOUS
 62
     3
100
AcDbLine
 10
206.111835
 20
24.412823
 30
0.0
 11
206.111835
 21
30.259198
 31
0.0
  0
LINE
  5
3C2
100
AcDbEntity
  8
_
  6
CONTINUOUS
 62
     3
100
AcDbLine
 10
206.111835
 20
30.259198
 30
0.0
 11
201.979114
 21
30.259198
 31
0.0
  0
LINE
  5
3C3
100
AcDbEntity
  8
_
  6
CONTINUOUS
 62
     3
100
AcDbLine
 10
213.067249
 20
30.460797
 30
0.0
 11
213.067249
 21
29.533429
 31
0.0
  0
LINE
  5
3C4
100
AcDbEntity
  8
_
  6
CONTINUOUS
 62
     3
100
AcDbLine
 10
213.067249
 20
30.460797
 30
0.0
 11
214.818622
 21
30.460797
 31
0.0
  0
LINE
  5
3C5
100
AcDbEntity
  8
_
  6
CONTINUOUS
 62
     3
100
AcDbLine
 10
214.818622
 20
30.460797
 30
0.0
 11
213.873645
 21
31.670392
 31
0.0
  0
LINE
  5
3C6
100
AcDbEntity
  8
_
  6
CONTINUOUS
 62
     3
100
AcDbLine
 10
213.873645
 20
31.670392
 30
0.0
 11
215.664386
 21
31.670392
 31
0.0
  0
LINE
  5
3C7
100
AcDbEntity
  8
_
  6
CONTINUOUS
 62
     3
100
AcDbLine
 10
215.664386
 20
31.670392
 30
0.0
 11
216.609363
 21
30.460797
 31
0.0
  0
LINE
  5
3C8
100
AcDbEntity
  8
_
  6
CONTINUOUS
 62
     3
100
AcDbLine
 10
216.609363
 20
30.460797
 30
0.0
 11
216.998615
 21
30.460797
 31
0.0
  0
LINE
  5
3C9
100
AcDbEntity
  8
_
  6
CONTINUOUS
 62
     3
100
AcDbLine
 10
216.998615
 20
30.460797
 30
0.0
 11
216.998615
 21
31.670392
 31
0.0
  0
LINE
  5
3CA
100
AcDbEntity
  8
_
  6
CONTINUOUS
 62
     3
100
AcDbLine
 10
216.998615
 20
31.670392
 30
0.0
 11
218.409534
 21
31.670392
 31
0.0
  0
LINE
  5
3CB
100
AcDbEntity
  8
_
  6
CONTINUOUS
 62
     3
100
AcDbLine
 10
218.409534
 20
31.670392
 30
0.0
 11
218.409534
 21
30.460797
 31
0.0
  0
LINE
  5
3CC
100
AcDbEntity
  8
_
  6
CONTINUOUS
 62
     3
100
AcDbLine
 10
218.409534
 20
30.460797
 30
0.0
 11
219.014514
 21
30.460797
 31
0.0
  0
LINE
  5
3CD
100
AcDbEntity
  8
_
  6
CONTINUOUS
 62
     3
100
AcDbLine
 10
219.014514
 20
30.460797
 30
0.0
 11
219.014514
 21
31.670392
 31
0.0
  0
LINE
  5
3CE
100
AcDbEntity
  8
_
  6
CONTINUOUS
 62
     3
100
AcDbLine
 10
219.014514
 20
31.670392
 30
0.0
 11
220.425464
 21
31.670392
 31
0.0
  0
LINE
  5
3CF
100
AcDbEntity
  8
_
  6
CONTINUOUS
 62
     3
100
AcDbLine
 10
220.425464
 20
31.670392
 30
0.0
 11
220.425464
 21
30.460797
 31
0.0
  0
LINE
  5
3D0
100
AcDbEntity
  8
_
  6
CONTINUOUS
 62
     3
100
AcDbLine
 10
220.425464
 20
30.460797
 30
0.0
 11
220.814716
 21
30.460797
 31
0.0
  0
LINE
  5
3D1
100
AcDbEntity
  8
_
  6
CONTINUOUS
 62
     3
100
AcDbLine
 10
220.814716
 20
30.460797
 30
0.0
 11
221.759692
 21
31.670392
 31
0.0
  0
LINE
  5
3D2
100
AcDbEntity
  8
_
  6
CONTINUOUS
 62
     3
100
AcDbLine
 10
221.759692
 20
31.670392
 30
0.0
 11
223.550433
 21
31.670392
 31
0.0
  0
LINE
  5
3D3
100
AcDbEntity
  8
_
  6
CONTINUOUS
 62
     3
100
AcDbLine
 10
223.550433
 20
31.670392
 30
0.0
 11
222.605457
 21
30.460797
 31
0.0
  0
LINE
  5
3D4
100
AcDbEntity
  8
_
  6
CONTINUOUS
 62
     3
100
AcDbLine
 10
222.605457
 20
30.460797
 30
0.0
 11
224.356799
 21
30.460797
 31
0.0
  0
LINE
  5
3D5
100
AcDbEntity
  8
_
  6
CONTINUOUS
 62
     3
100
AcDbLine
 10
224.356799
 20
30.460797
 30
0.0
 11
224.356799
 21
29.533429
 31
0.0
  0
LINE
  5
3D6
100
AcDbEntity
  8
_
  6
CONTINUOUS
 62
     3
100
AcDbLine
 10
224.356799
 20
29.533429
 30
0.0
 11
222.232196
 21
29.533429
 31
0.0
  0
LINE
  5
3D7
100
AcDbEntity
  8
_
  6
CONTINUOUS
 62
     3
100
AcDbLine
 10
222.232196
 20
29.533429
 30
0.0
 11
221.865527
 21
28.525464
 31
0.0
  0
LINE
  5
3D8
100
AcDbEntity
  8
_
  6
CONTINUOUS
 62
     3
100
AcDbLine
 10
221.865527
 20
28.525464
 30
0.0
 11
224.356799
 21
28.525464
 31
0.0
  0
LINE
  5
3D9
100
AcDbEntity
  8
_
  6
CONTINUOUS
 62
     3
100
AcDbLine
 10
224.356799
 20
28.525464
 30
0.0
 11
224.356799
 21
27.598096
 31
0.0
  0
LINE
  5
3DA
100
AcDbEntity
  8
_
  6
CONTINUOUS
 62
     3
100
AcDbLine
 10
224.356799
 20
27.598096
 30
0.0
 11
219.719989
 21
27.598096
 31
0.0
  0
LINE
  5
3DB
100
AcDbEntity
  8
_
  6
CONTINUOUS
 62
     3
100
AcDbLine
 10
219.719989
 20
27.598096
 30
0.0
 11
219.719989
 21
27.134412
 31
0.0
  0
LINE
  5
3DC
100
AcDbEntity
  8
_
  6
CONTINUOUS
 62
     3
100
AcDbLine
 10
219.719989
 20
27.134412
 30
0.0
 11
224.356799
 21
27.134412
 31
0.0
  0
LINE
  5
3DD
100
AcDbEntity
  8
_
  6
CONTINUOUS
 62
     3
100
AcDbLine
 10
224.356799
 20
27.134412
 30
0.0
 11
224.356799
 21
26.207043
 31
0.0
  0
LINE
  5
3DE
100
AcDbEntity
  8
_
  6
CONTINUOUS
 62
     3
100
AcDbLine
 10
224.356799
 20
26.207043
 30
0.0
 11
219.719989
 21
26.207043
 31
0.0
  0
LINE
  5
3DF
100
AcDbEntity
  8
_
  6
CONTINUOUS
 62
     3
100
AcDbLine
 10
219.719989
 20
26.207043
 30
0.0
 11
219.719989
 21
25.743359
 31
0.0
  0
LINE
  5
3E0
100
AcDbEntity
  8
_
  6
CONTINUOUS
 62
     3
100
AcDbLine
 10
219.719989
 20
25.743359
 30
0.0
 11
224.356799
 21
25.743359
 31
0.0
  0
LINE
  5
3E1
100
AcDbEntity
  8
_
  6
CONTINUOUS
 62
     3
100
AcDbLine
 10
224.356799
 20
25.743359
 30
0.0
 11
224.356799
 21
24.815991
 31
0.0
  0
LINE
  5
3E2
100
AcDbEntity
  8
_
  6
CONTINUOUS
 62
     3
100
AcDbLine
 10
224.356799
 20
24.815991
 30
0.0
 11
222.125568
 21
24.815991
 31
0.0
  0
LINE
  5
3E3
100
AcDbEntity
  8
_
  6
CONTINUOUS
 62
     3
100
AcDbLine
 10
222.125568
 20
24.815991
 30
0.0
 11
224.356799
 21
22.8
 31
0.0
  0
LINE
  5
3E4
100
AcDbEntity
  8
_
  6
CONTINUOUS
 62
     3
100
AcDbLine
 10
224.356799
 20
22.8
 30
0.0
 11
221.951251
 21
22.8
 31
0.0
  0
LINE
  5
3E5
100
AcDbEntity
  8
_
  6
CONTINUOUS
 62
     3
100
AcDbLine
 10
221.951251
 20
22.8
 30
0.0
 11
219.719989
 21
24.815991
 31
0.0
  0
LINE
  5
3E6
100
AcDbEntity
  8
_
  6
CONTINUOUS
 62
     3
100
AcDbLine
 10
219.719989
 20
24.815991
 30
0.0
 11
219.719989
 21
22.8
 31
0.0
  0
LINE
  5
3E7
100
AcDbEntity
  8
_
  6
CONTINUOUS
 62
     3
100
AcDbLine
 10
219.719989
 20
22.8
 30
0.0
 11
217.704089
 21
22.8
 31
0.0
  0
LINE
  5
3E8
100
AcDbEntity
  8
_
  6
CONTINUOUS
 62
     3
100
AcDbLine
 10
217.704089
 20
22.8
 30
0.0
 11
217.704089
 21
24.815991
 31
0.0
  0
LINE
  5
3E9
100
AcDbEntity
  8
_
  6
CONTINUOUS
 62
     3
100
AcDbLine
 10
217.704089
 20
24.815991
 30
0.0
 11
215.472827
 21
22.8
 31
0.0
  0
LINE
  5
3EA
100
AcDbEntity
  8
_
  6
CONTINUOUS
 62
     3
100
AcDbLine
 10
215.472827
 20
22.8
 30
0.0
 11
213.067249
 21
22.8
 31
0.0
  0
LINE
  5
3EB
100
AcDbEntity
  8
_
  6
CONTINUOUS
 62
     3
100
AcDbLine
 10
213.067249
 20
22.8
 30
0.0
 11
215.298511
 21
24.815991
 31
0.0
  0
LINE
  5
3EC
100
AcDbEntity
  8
_
  6
CONTINUOUS
 62
     3
100
AcDbLine
 10
215.298511
 20
24.815991
 30
0.0
 11
213.067249
 21
24.815991
 31
0.0
  0
LINE
  5
3ED
100
AcDbEntity
  8
_
  6
CONTINUOUS
 62
     3
100
AcDbLine
 10
213.067249
 20
24.815991
 30
0.0
 11
213.067249
 21
25.743359
 31
0.0
  0
LINE
  5
3EE
100
AcDbEntity
  8
_
  6
CONTINUOUS
 62
     3
100
AcDbLine
 10
213.067249
 20
25.743359
 30
0.0
 11
217.704089
 21
25.743359
 31
0.0
  0
LINE
  5
3EF
100
AcDbEntity
  8
_
  6
CONTINUOUS
 62
     3
100
AcDbLine
 10
217.704089
 20
25.743359
 30
0.0
 11
217.704089
 21
26.207043
 31
0.0
  0
LINE
  5
3F0
100
AcDbEntity
  8
_
  6
CONTINUOUS
 62
     3
100
AcDbLine
 10
217.704089
 20
26.207043
 30
0.0
 11
213.067249
 21
26.207043
 31
0.0
  0
LINE
  5
3F1
100
AcDbEntity
  8
_
  6
CONTINUOUS
 62
     3
100
AcDbLine
 10
213.067249
 20
26.207043
 30
0.0
 11
213.067249
 21
27.134412
 31
0.0
  0
LINE
  5
3F2
100
AcDbEntity
  8
_
  6
CONTINUOUS
 62
     3
100
AcDbLine
 10
213.067249
 20
27.134412
 30
0.0
 11
217.704089
 21
27.134412
 31
0.0
  0
LINE
  5
3F3
100
AcDbEntity
  8
_
  6
CONTINUOUS
 62
     3
100
AcDbLine
 10
217.704089
 20
27.134412
 30
0.0
 11
217.704089
 21
27.598096
 31
0.0
  0
LINE
  5
3F4
100
AcDbEntity
  8
_
  6
CONTINUOUS
 62
     3
100
AcDbLine
 10
217.704089
 20
27.598096
 30
0.0
 11
213.067249
 21
27.598096
 31
0.0
  0
LINE
  5
3F5
100
AcDbEntity
  8
_
  6
CONTINUOUS
 62
     3
100
AcDbLine
 10
213.067249
 20
27.598096
 30
0.0
 11
213.067249
 21
28.525464
 31
0.0
  0
LINE
  5
3F6
100
AcDbEntity
  8
_
  6
CONTINUOUS
 62
     3
100
AcDbLine
 10
213.067249
 20
28.525464
 30
0.0
 11
215.558551
 21
28.525464
 31
0.0
  0
LINE
  5
3F7
100
AcDbEntity
  8
_
  6
CONTINUOUS
 62
     3
100
AcDbLine
 10
215.558551
 20
28.525464
 30
0.0
 11
215.191882
 21
29.533429
 31
0.0
  0
LINE
  5
3F8
100
AcDbEntity
  8
_
  6
CONTINUOUS
 62
     3
100
AcDbLine
 10
215.191882
 20
29.533429
 30
0.0
 11
213.067249
 21
29.533429
 31
0.0
  0
LINE
  5
3F9
100
AcDbEntity
  8
_
  6
CONTINUOUS
 62
     3
100
AcDbLine
 10
217.336993
 20
29.533429
 30
0.0
 11
220.087085
 21
29.533429
 31
0.0
  0
LINE
  5
3FA
100
AcDbEntity
  8
_
  6
CONTINUOUS
 62
     3
100
AcDbLine
 10
220.087085
 20
29.533429
 30
0.0
 11
219.719989
 21
28.525464
 31
0.0
  0
LINE
  5
3FB
100
AcDbEntity
  8
_
  6
CONTINUOUS
 62
     3
100
AcDbLine
 10
219.719989
 20
28.525464
 30
0.0
 11
217.704089
 21
28.525464
 31
0.0
  0
LINE
  5
3FC
100
AcDbEntity
  8
_
  6
CONTINUOUS
 62
     3
100
AcDbLine
 10
217.704089
 20
28.525464
 30
0.0
 11
217.336993
 21
29.533429
 31
0.0
  0
LINE
  5
3FD
100
AcDbEntity
  8
_
  6
CONTINUOUS
 62
     3
100
AcDbLine
 10
229.851276
 20
31.670392
 30
0.0
 11
229.197894
 21
29.049603
 31
0.0
  0
LINE
  5
3FE
100
AcDbEntity
  8
_
  6
CONTINUOUS
 62
     3
100
AcDbLine
 10
229.851276
 20
31.670392
 30
0.0
 11
231.513629
 21
31.670392
 31
0.0
  0
LINE
  5
3FF
100
AcDbEntity
  8
_
  6
CONTINUOUS
 62
     3
100
AcDbLine
 10
231.513629
 20
31.670392
 30
0.0
 11
231.262195
 21
30.662396
 31
0.0
  0
LINE
  5
400
100
AcDbEntity
  8
_
  6
CONTINUOUS
 62
     3
100
AcDbLine
 10
231.262195
 20
30.662396
 30
0.0
 11
231.916827
 21
30.662396
 31
0.0
  0
LINE
  5
401
100
AcDbEntity
  8
_
  6
CONTINUOUS
 62
     3
100
AcDbLine
 10
231.916827
 20
30.662396
 30
0.0
 11
231.916827
 21
31.670392
 31
0.0
  0
LINE
  5
402
100
AcDbEntity
  8
_
  6
CONTINUOUS
 62
     3
100
AcDbLine
 10
231.916827
 20
31.670392
 30
0.0
 11
233.731342
 21
31.670392
 31
0.0
  0
LINE
  5
403
100
AcDbEntity
  8
_
  6
CONTINUOUS
 62
     3
100
AcDbLine
 10
233.731342
 20
31.670392
 30
0.0
 11
233.731342
 21
30.662396
 31
0.0
  0
LINE
  5
404
100
AcDbEntity
  8
_
  6
CONTINUOUS
 62
     3
100
AcDbLine
 10
233.731342
 20
30.662396
 30
0.0
 11
236.049548
 21
30.662396
 31
0.0
  0
LINE
  5
405
100
AcDbEntity
  8
_
  6
CONTINUOUS
 62
     3
100
AcDbLine
 10
236.049548
 20
30.662396
 30
0.0
 11
236.049548
 21
29.654401
 31
0.0
  0
LINE
  5
406
100
AcDbEntity
  8
_
  6
CONTINUOUS
 62
     3
100
AcDbLine
 10
233.731342
 20
29.654401
 30
0.0
 11
236.049548
 21
29.654401
 31
0.0
  0
LINE
  5
407
100
AcDbEntity
  8
_
  6
CONTINUOUS
 62
     3
100
AcDbLine
 10
233.731342
 20
29.654401
 30
0.0
 11
233.731342
 21
28.646405
 31
0.0
  0
LINE
  5
408
100
AcDbEntity
  8
_
  6
CONTINUOUS
 62
     3
100
AcDbLine
 10
233.731342
 20
28.646405
 30
0.0
 11
236.251331
 21
28.646405
 31
0.0
  0
LINE
  5
409
100
AcDbEntity
  8
_
  6
CONTINUOUS
 62
     3
100
AcDbLine
 10
236.251331
 20
28.646405
 30
0.0
 11
236.251331
 21
27.638409
 31
0.0
  0
LINE
  5
40A
100
AcDbEntity
  8
_
  6
CONTINUOUS
 62
     3
100
AcDbLine
 10
236.251331
 20
27.638409
 30
0.0
 11
235.370319
 21
27.638409
 31
0.0
  0
LINE
  5
40B
100
AcDbEntity
  8
_
  6
CONTINUOUS
 62
     3
100
AcDbLine
 10
235.370319
 20
27.638409
 30
0.0
 11
236.251331
 21
22.8
 31
0.0
  0
LINE
  5
40C
100
AcDbEntity
  8
_
  6
CONTINUOUS
 62
     3
100
AcDbLine
 10
236.251331
 20
22.8
 30
0.0
 11
234.611957
 21
22.8
 31
0.0
  0
LINE
  5
40D
100
AcDbEntity
  8
_
  6
CONTINUOUS
 62
     3
100
AcDbLine
 10
234.611957
 20
22.8
 30
0.0
 11
233.731342
 21
27.638348
 31
0.0
  0
LINE
  5
40E
100
AcDbEntity
  8
_
  6
CONTINUOUS
 62
     3
100
AcDbLine
 10
233.731342
 20
27.638348
 30
0.0
 11
233.731342
 21
22.8
 31
0.0
  0
LINE
  5
40F
100
AcDbEntity
  8
_
  6
CONTINUOUS
 62
     3
100
AcDbLine
 10
233.731342
 20
22.8
 30
0.0
 11
231.916827
 21
22.8
 31
0.0
  0
LINE
  5
410
100
AcDbEntity
  8
_
  6
CONTINUOUS
 62
     3
100
AcDbLine
 10
231.916827
 20
22.8
 30
0.0
 11
231.916827
 21
27.638409
 31
0.0
  0
LINE
  5
411
100
AcDbEntity
  8
_
  6
CONTINUOUS
 62
     3
100
AcDbLine
 10
231.916827
 20
27.638409
 30
0.0
 11
231.036212
 21
22.8
 31
0.0
  0
LINE
  5
412
100
AcDbEntity
  8
_
  6
CONTINUOUS
 62
     3
100
AcDbLine
 10
231.036212
 20
22.8
 30
0.0
 11
229.396808
 21
22.8
 31
0.0
  0
LINE
  5
413
100
AcDbEntity
  8
_
  6
CONTINUOUS
 62
     3
100
AcDbLine
 10
229.396808
 20
22.8
 30
0.0
 11
230.277423
 21
27.638409
 31
0.0
  0
LINE
  5
414
100
AcDbEntity
  8
_
  6
CONTINUOUS
 62
     3
100
AcDbLine
 10
230.277423
 20
27.638409
 30
0.0
 11
229.396808
 21
27.638409
 31
0.0
  0
LINE
  5
415
100
AcDbEntity
  8
_
  6
CONTINUOUS
 62
     3
100
AcDbLine
 10
229.396808
 20
27.638409
 30
0.0
 11
229.396808
 21
28.646405
 31
0.0
  0
LINE
  5
416
100
AcDbEntity
  8
_
  6
CONTINUOUS
 62
     3
100
AcDbLine
 10
229.396808
 20
28.646405
 30
0.0
 11
231.916827
 21
28.646405
 31
0.0
  0
LINE
  5
417
100
AcDbEntity
  8
_
  6
CONTINUOUS
 62
     3
100
AcDbLine
 10
231.916827
 20
28.646405
 30
0.0
 11
231.916827
 21
29.654401
 31
0.0
  0
LINE
  5
418
100
AcDbEntity
  8
_
  6
CONTINUOUS
 62
     3
100
AcDbLine
 10
231.916827
 20
29.654401
 30
0.0
 11
231.010791
 21
29.654401
 31
0.0
  0
LINE
  5
419
100
AcDbEntity
  8
_
  6
CONTINUOUS
 62
     3
100
AcDbLine
 10
231.010791
 20
29.654401
 30
0.0
 11
230.860248
 21
29.049603
 31
0.0
  0
LINE
  5
41A
100
AcDbEntity
  8
_
  6
CONTINUOUS
 62
     3
100
AcDbLine
 10
230.860248
 20
29.049603
 30
0.0
 11
229.197894
 21
29.049603
 31
0.0
  0
LINE
  5
41B
100
AcDbEntity
  8
_
  6
CONTINUOUS
 62
     3
100
AcDbLine
 10
224.759998
 20
30.662396
 30
0.0
 11
224.759998
 21
29.654401
 31
0.0
  0
LINE
  5
41C
100
AcDbEntity
  8
_
  6
CONTINUOUS
 62
     3
100
AcDbLine
 10
224.759998
 20
30.662396
 30
0.0
 11
226.775928
 21
30.662396
 31
0.0
  0
LINE
  5
41D
100
AcDbEntity
  8
_
  6
CONTINUOUS
 62
     3
100
AcDbLine
 10
226.775928
 20
30.662396
 30
0.0
 11
226.775928
 21
31.670392
 31
0.0
  0
LINE
  5
41E
100
AcDbEntity
  8
_
  6
CONTINUOUS
 62
     3
100
AcDbLine
 10
226.775928
 20
31.670392
 30
0.0
 11
228.590442
 21
31.670392
 31
0.0
  0
LINE
  5
41F
100
AcDbEntity
  8
_
  6
CONTINUOUS
 62
     3
100
AcDbLine
 10
228.590442
 20
31.670392
 30
0.0
 11
228.590442
 21
30.662396
 31
0.0
  0
LINE
  5
420
100
AcDbEntity
  8
_
  6
CONTINUOUS
 62
     3
100
AcDbLine
 10
228.590442
 20
30.662396
 30
0.0
 11
229.195026
 21
30.662396
 31
0.0
  0
LINE
  5
421
100
AcDbEntity
  8
_
  6
CONTINUOUS
 62
     3
100
AcDbLine
 10
229.195026
 20
30.662396
 30
0.0
 11
229.195026
 21
29.654401
 31
0.0
  0
LINE
  5
422
100
AcDbEntity
  8
_
  6
CONTINUOUS
 62
     3
100
AcDbLine
 10
229.195026
 20
29.654401
 30
0.0
 11
228.590442
 21
29.654401
 31
0.0
  0
LINE
  5
423
100
AcDbEntity
  8
_
  6
CONTINUOUS
 62
     3
100
AcDbLine
 10
228.590442
 20
29.654401
 30
0.0
 11
229.195026
 21
28.822003
 31
0.0
  0
LINE
  5
424
100
AcDbEntity
  8
_
  6
CONTINUOUS
 62
     3
100
AcDbLine
 10
229.195026
 20
28.822003
 30
0.0
 11
229.195026
 21
26.764142
 31
0.0
  0
LINE
  5
425
100
AcDbEntity
  8
_
  6
CONTINUOUS
 62
     3
100
AcDbLine
 10
229.195026
 20
26.764142
 30
0.0
 11
228.590442
 21
27.59657
 31
0.0
  0
LINE
  5
426
100
AcDbEntity
  8
_
  6
CONTINUOUS
 62
     3
100
AcDbLine
 10
228.590442
 20
27.59657
 30
0.0
 11
228.590442
 21
22.8
 31
0.0
  0
LINE
  5
427
100
AcDbEntity
  8
_
  6
CONTINUOUS
 62
     3
100
AcDbLine
 10
228.590442
 20
22.8
 30
0.0
 11
226.775928
 21
22.8
 31
0.0
  0
LINE
  5
428
100
AcDbEntity
  8
_
  6
CONTINUOUS
 62
     3
100
AcDbLine
 10
226.775928
 20
22.8
 30
0.0
 11
226.775928
 21
29.654401
 31
0.0
  0
LINE
  5
429
100
AcDbEntity
  8
_
  6
CONTINUOUS
 62
     3
100
AcDbLine
 10
226.696765
 20
29.654401
 30
0.0
 11
225.976123
 21
22.8
 31
0.0
  0
LINE
  5
42A
100
AcDbEntity
  8
_
  6
CONTINUOUS
 62
     3
100
AcDbLine
 10
225.976123
 20
22.8
 30
0.0
 11
224.759998
 21
22.8
 31
0.0
  0
LINE
  5
42B
100
AcDbEntity
  8
_
  6
CONTINUOUS
 62
     3
100
AcDbLine
 10
224.759998
 20
22.8
 30
0.0
 11
225.48064
 21
29.654401
 31
0.0
  0
LINE
  5
42C
100
AcDbEntity
  8
_
  6
CONTINUOUS
 62
     3
100
AcDbLine
 10
225.48064
 20
29.654401
 30
0.0
 11
224.759998
 21
29.654401
 31
0.0
  0
LINE
  5
42D
100
AcDbEntity
  8
_
  6
CONTINUOUS
 62
     3
100
AcDbLine
 10
237.259113
 20
28.444806
 30
0.0
 11
237.259113
 21
27.235211
 31
0.0
  0
LINE
  5
42E
100
AcDbEntity
  8
_
  6
CONTINUOUS
 62
     3
100
AcDbLine
 10
237.259113
 20
28.444806
 30
0.0
 11
243.307269
 21
28.444806
 31
0.0
  0
LINE
  5
42F
100
AcDbEntity
  8
_
  6
CONTINUOUS
 62
     3
100
AcDbLine
 10
243.307269
 20
28.444806
 30
0.0
 11
243.307269
 21
27.235211
 31
0.0
  0
LINE
  5
430
100
AcDbEntity
  8
_
  6
CONTINUOUS
 62
     3
100
AcDbLine
 10
243.307269
 20
27.235211
 30
0.0
 11
241.391833
 21
27.235211
 31
0.0
  0
LINE
  5
431
100
AcDbEntity
  8
_
  6
CONTINUOUS
 62
     3
100
AcDbLine
 10
241.391833
 20
27.235211
 30
0.0
 11
241.391833
 21
25.554822
 31
0.0
  0
LINE
  5
432
100
AcDbEntity
  8
_
  6
CONTINUOUS
 62
     3
100
AcDbLine
 10
241.391833
 20
25.554822
 30
0.0
 11
243.40816
 21
25.983319
 31
0.0
  0
LINE
  5
433
100
AcDbEntity
  8
_
  6
CONTINUOUS
 62
     3
100
AcDbLine
 10
243.40816
 20
25.983319
 30
0.0
 11
243.40816
 21
24.1284
 31
0.0
  0
LINE
  5
434
100
AcDbEntity
  8
_
  6
CONTINUOUS
 62
     3
100
AcDbLine
 10
243.40816
 20
24.1284
 30
0.0
 11
237.158191
 21
22.8
 31
0.0
  0
LINE
  5
435
100
AcDbEntity
  8
_
  6
CONTINUOUS
 62
     3
100
AcDbLine
 10
237.158191
 20
22.8
 30
0.0
 11
237.158191
 21
24.654919
 31
0.0
  0
LINE
  5
436
100
AcDbEntity
  8
_
  6
CONTINUOUS
 62
     3
100
AcDbLine
 10
237.158191
 20
24.654919
 30
0.0
 11
239.174518
 21
25.083447
 31
0.0
  0
LINE
  5
437
100
AcDbEntity
  8
_
  6
CONTINUOUS
 62
     3
100
AcDbLine
 10
239.174518
 20
25.083447
 30
0.0
 11
239.174518
 21
27.235211
 31
0.0
  0
LINE
  5
438
100
AcDbEntity
  8
_
  6
CONTINUOUS
 62
     3
100
AcDbLine
 10
239.174518
 20
27.235211
 30
0.0
 11
237.259113
 21
27.235211
 31
0.0
  0
LINE
  5
439
100
AcDbEntity
  8
_
  6
CONTINUOUS
 62
     3
100
AcDbLine
 10
236.654529
 20
30.863995
 30
0.0
 11
236.654529
 21
29.654401
 31
0.0
  0
LINE
  5
43A
100
AcDbEntity
  8
_
  6
CONTINUOUS
 62
     3
100
AcDbLine
 10
236.654529
 20
30.863995
 30
0.0
 11
242.648975
 21
30.863995
 31
0.0
  0
LINE
  5
43B
100
AcDbEntity
  8
_
  6
CONTINUOUS
 62
     3
100
AcDbLine
 10
242.648975
 20
30.863995
 30
0.0
 11
242.355701
 21
31.670392
 31
0.0
  0
LINE
  5
43C
100
AcDbEntity
  8
_
  6
CONTINUOUS
 62
     3
100
AcDbLine
 10
242.355701
 20
31.670392
 30
0.0
 11
244.71532
 21
31.670392
 31
0.0
  0
LINE
  5
43D
100
AcDbEntity
  8
_
  6
CONTINUOUS
 62
     3
100
AcDbLine
 10
244.71532
 20
31.670392
 30
0.0
 11
245.00899
 21
30.863995
 31
0.0
  0
LINE
  5
43E
100
AcDbEntity
  8
_
  6
CONTINUOUS
 62
     3
100
AcDbLine
 10
245.00899
 20
30.863995
 30
0.0
 11
245.524982
 21
30.863995
 31
0.0
  0
LINE
  5
43F
100
AcDbEntity
  8
_
  6
CONTINUOUS
 62
     3
100
AcDbLine
 10
245.524982
 20
30.863995
 30
0.0
 11
245.524982
 21
31.670392
 31
0.0
  0
LINE
  5
440
100
AcDbEntity
  8
_
  6
CONTINUOUS
 62
     3
100
AcDbLine
 10
245.524982
 20
31.670392
 30
0.0
 11
247.339099
 21
31.670392
 31
0.0
  0
LINE
  5
441
100
AcDbEntity
  8
_
  6
CONTINUOUS
 62
     3
100
AcDbLine
 10
247.339099
 20
31.670392
 30
0.0
 11
247.339099
 21
30.863995
 31
0.0
  0
LINE
  5
442
100
AcDbEntity
  8
_
  6
CONTINUOUS
 62
     3
100
AcDbLine
 10
247.339099
 20
30.863995
 30
0.0
 11
247.94408
 21
30.863995
 31
0.0
  0
LINE
  5
443
100
AcDbEntity
  8
_
  6
CONTINUOUS
 62
     3
100
AcDbLine
 10
247.94408
 20
30.863995
 30
0.0
 11
247.94408
 21
29.654401
 31
0.0
  0
LINE
  5
444
100
AcDbEntity
  8
_
  6
CONTINUOUS
 62
     3
100
AcDbLine
 10
247.94408
 20
29.654401
 30
0.0
 11
245.449084
 21
29.654401
 31
0.0
  0
LINE
  5
445
100
AcDbEntity
  8
_
  6
CONTINUOUS
 62
     3
100
AcDbLine
 10
245.449084
 20
29.654401
 30
0.0
 11
247.94408
 21
22.8
 31
0.0
  0
LINE
  5
446
100
AcDbEntity
  8
_
  6
CONTINUOUS
 62
     3
100
AcDbLine
 10
247.94408
 20
22.8
 30
0.0
 11
245.584033
 21
22.8
 31
0.0
  0
LINE
  5
447
100
AcDbEntity
  8
_
  6
CONTINUOUS
 62
     3
100
AcDbLine
 10
245.584033
 20
22.8
 30
0.0
 11
243.089465
 21
29.654401
 31
0.0
  0
LINE
  5
448
100
AcDbEntity
  8
_
  6
CONTINUOUS
 62
     3
100
AcDbLine
 10
243.089465
 20
29.654401
 30
0.0
 11
236.654529
 21
29.654401
 31
0.0
  0
LINE
  5
449
100
AcDbEntity
  8
_
  6
CONTINUOUS
 62
     3
100
AcDbLine
 10
248.347278
 20
29.949567
 30
0.0
 11
248.347278
 21
28.673993
 31
0.0
  0
LINE
  5
44A
100
AcDbEntity
  8
_
  6
CONTINUOUS
 62
     3
100
AcDbLine
 10
248.347278
 20
29.949567
 30
0.0
 11
254.092731
 21
31.871991
 31
0.0
  0
LINE
  5
44B
100
AcDbEntity
  8
_
  6
CONTINUOUS
 62
     3
100
AcDbLine
 10
254.092731
 20
31.871991
 30
0.0
 11
259.838214
 21
29.949506
 31
0.0
  0
LINE
  5
44C
100
AcDbEntity
  8
_
  6
CONTINUOUS
 62
     3
100
AcDbLine
 10
259.838214
 20
29.949506
 30
0.0
 11
259.838214
 21
28.673993
 31
0.0
  0
LINE
  5
44D
100
AcDbEntity
  8
_
  6
CONTINUOUS
 62
     3
100
AcDbLine
 10
259.838214
 20
28.673993
 30
0.0
 11
258.124988
 21
29.247357
 31
0.0
  0
LINE
  5
44E
100
AcDbEntity
  8
_
  6
CONTINUOUS
 62
     3
100
AcDbLine
 10
258.124988
 20
29.247357
 30
0.0
 11
258.124988
 21
28.243207
 31
0.0
  0
LINE
  5
44F
100
AcDbEntity
  8
_
  6
CONTINUOUS
 62
     3
100
AcDbLine
 10
258.124988
 20
28.243207
 30
0.0
 11
250.060901
 21
28.243207
 31
0.0
  0
LINE
  5
450
100
AcDbEntity
  8
_
  6
CONTINUOUS
 62
     3
100
AcDbLine
 10
250.060901
 20
28.243207
 30
0.0
 11
250.060901
 21
29.247357
 31
0.0
  0
LINE
  5
451
100
AcDbEntity
  8
_
  6
CONTINUOUS
 62
     3
100
AcDbLine
 10
250.060901
 20
29.247357
 30
0.0
 11
248.347278
 21
28.673993
 31
0.0
  0
LINE
  5
452
100
AcDbEntity
  8
_
  6
CONTINUOUS
 62
     3
100
AcDbLine
 10
250.674915
 20
29.452802
 30
0.0
 11
254.092731
 21
30.596448
 31
0.0
  0
LINE
  5
453
100
AcDbEntity
  8
_
  6
CONTINUOUS
 62
     3
100
AcDbLine
 10
254.092731
 20
30.596448
 30
0.0
 11
257.510974
 21
29.452802
 31
0.0
  0
LINE
  5
454
100
AcDbEntity
  8
_
  6
CONTINUOUS
 62
     3
100
AcDbLine
 10
257.510974
 20
29.452802
 30
0.0
 11
250.674915
 21
29.452802
 31
0.0
  0
LINE
  5
455
100
AcDbEntity
  8
_
  6
CONTINUOUS
 62
     3
100
AcDbLine
 10
248.347278
 20
27.43678
 30
0.0
 11
248.347278
 21
26.227185
 31
0.0
  0
LINE
  5
456
100
AcDbEntity
  8
_
  6
CONTINUOUS
 62
     3
100
AcDbLine
 10
248.347278
 20
27.43678
 30
0.0
 11
259.838214
 21
27.43678
 31
0.0
  0
LINE
  5
457
100
AcDbEntity
  8
_
  6
CONTINUOUS
 62
     3
100
AcDbLine
 10
259.838214
 20
27.43678
 30
0.0
 11
259.838214
 21
26.227185
 31
0.0
  0
LINE
  5
458
100
AcDbEntity
  8
_
  6
CONTINUOUS
 62
     3
100
AcDbLine
 10
259.838214
 20
26.227185
 30
0.0
 11
258.240222
 21
26.227185
 31
0.0
  0
LINE
  5
459
100
AcDbEntity
  8
_
  6
CONTINUOUS
 62
     3
100
AcDbLine
 10
258.240222
 20
26.227185
 30
0.0
 11
259.838214
 21
22.8
 31
0.0
  0
LINE
  5
45A
100
AcDbEntity
  8
_
  6
CONTINUOUS
 62
     3
100
AcDbLine
 10
259.838214
 20
22.8
 30
0.0
 11
248.347278
 21
22.8
 31
0.0
  0
LINE
  5
45B
100
AcDbEntity
  8
_
  6
CONTINUOUS
 62
     3
100
AcDbLine
 10
248.347278
 20
22.8
 30
0.0
 11
249.945239
 21
26.227185
 31
0.0
  0
LINE
  5
45C
100
AcDbEntity
  8
_
  6
CONTINUOUS
 62
     3
100
AcDbLine
 10
249.945239
 20
26.227185
 30
0.0
 11
248.347278
 21
26.227185
 31
0.0
  0
LINE
  5
45D
100
AcDbEntity
  8
_
  6
CONTINUOUS
 62
     3
100
AcDbLine
 10
252.169513
 20
26.227185
 30
0.0
 11
256.015948
 21
26.227185
 31
0.0
  0
LINE
  5
45E
100
AcDbEntity
  8
_
  6
CONTINUOUS
 62
     3
100
AcDbLine
 10
256.015948
 20
26.227185
 30
0.0
 11
257.049945
 21
24.009595
 31
0.0
  0
LINE
  5
45F
100
AcDbEntity
  8
_
  6
CONTINUOUS
 62
     3
100
AcDbLine
 10
257.049945
 20
24.009595
 30
0.0
 11
251.135516
 21
24.009595
 31
0.0
  0
LINE
  5
460
100
AcDbEntity
  8
_
  6
CONTINUOUS
 62
     3
100
AcDbLine
 10
252.169513
 20
26.227185
 30
0.0
 11
251.135516
 21
24.009595
 31
0.0
  0
LINE
  5
461
100
AcDbEntity
  8
_
  6
CONTINUOUS
 62
     3
100
AcDbLine
 10
265.684985
 20
29.452802
 30
0.0
 11
265.684985
 21
28.243207
 31
0.0
  0
LINE
  5
462
100
AcDbEntity
  8
_
  6
CONTINUOUS
 62
     3
100
AcDbLine
 10
265.684985
 20
29.452802
 30
0.0
 11
267.499103
 21
29.452802
 31
0.0
  0
LINE
  5
463
100
AcDbEntity
  8
_
  6
CONTINUOUS
 62
     3
100
AcDbLine
 10
267.499103
 20
29.452802
 30
0.0
 11
267.499103
 21
31.670392
 31
0.0
  0
LINE
  5
464
100
AcDbEntity
  8
_
  6
CONTINUOUS
 62
     3
100
AcDbLine
 10
267.499103
 20
31.670392
 30
0.0
 11
269.515002
 21
31.670392
 31
0.0
  0
LINE
  5
465
100
AcDbEntity
  8
_
  6
CONTINUOUS
 62
     3
100
AcDbLine
 10
269.515002
 20
31.670392
 30
0.0
 11
269.515002
 21
29.452802
 31
0.0
  0
LINE
  5
466
100
AcDbEntity
  8
_
  6
CONTINUOUS
 62
     3
100
AcDbLine
 10
269.515002
 20
29.452802
 30
0.0
 11
271.329547
 21
29.452802
 31
0.0
  0
LINE
  5
467
100
AcDbEntity
  8
_
  6
CONTINUOUS
 62
     3
100
AcDbLine
 10
271.329547
 20
29.452802
 30
0.0
 11
271.329547
 21
28.243207
 31
0.0
  0
LINE
  5
468
100
AcDbEntity
  8
_
  6
CONTINUOUS
 62
     3
100
AcDbLine
 10
271.329547
 20
28.243207
 30
0.0
 11
269.515002
 21
28.243207
 31
0.0
  0
LINE
  5
469
100
AcDbEntity
  8
_
  6
CONTINUOUS
 62
     3
100
AcDbLine
 10
269.515002
 20
28.243207
 30
0.0
 11
269.515002
 21
24.009595
 31
0.0
  0
LINE
  5
46A
100
AcDbEntity
  8
_
  6
CONTINUOUS
 62
     3
100
AcDbLine
 10
269.515002
 20
24.009595
 30
0.0
 11
271.531329
 21
24.009595
 31
0.0
  0
LINE
  5
46B
100
AcDbEntity
  8
_
  6
CONTINUOUS
 62
     3
100
AcDbLine
 10
271.531329
 20
24.009595
 30
0.0
 11
271.531329
 21
22.8
 31
0.0
  0
LINE
  5
46C
100
AcDbEntity
  8
_
  6
CONTINUOUS
 62
     3
100
AcDbLine
 10
271.531329
 20
22.8
 30
0.0
 11
264.878192
 21
22.8
 31
0.0
  0
LINE
  5
46D
100
AcDbEntity
  8
_
  6
CONTINUOUS
 62
     3
100
AcDbLine
 10
264.878192
 20
22.8
 30
0.0
 11
264.878192
 21
24.009595
 31
0.0
  0
LINE
  5
46E
100
AcDbEntity
  8
_
  6
CONTINUOUS
 62
     3
100
AcDbLine
 10
264.878192
 20
24.009595
 30
0.0
 11
267.499103
 21
24.009595
 31
0.0
  0
LINE
  5
46F
100
AcDbEntity
  8
_
  6
CONTINUOUS
 62
     3
100
AcDbLine
 10
267.499103
 20
24.009595
 30
0.0
 11
267.499103
 21
28.243207
 31
0.0
  0
LINE
  5
470
100
AcDbEntity
  8
_
  6
CONTINUOUS
 62
     3
100
AcDbLine
 10
267.499103
 20
28.243207
 30
0.0
 11
265.684985
 21
28.243207
 31
0.0
  0
LINE
  5
471
100
AcDbEntity
  8
_
  6
CONTINUOUS
 62
     3
100
AcDbLine
 10
260.241382
 20
30.863995
 30
0.0
 11
260.241382
 21
29.654401
 31
0.0
  0
LINE
  5
472
100
AcDbEntity
  8
_
  6
CONTINUOUS
 62
     3
100
AcDbLine
 10
260.241382
 20
30.863995
 30
0.0
 11
262.055927
 21
30.863995
 31
0.0
  0
LINE
  5
473
100
AcDbEntity
  8
_
  6
CONTINUOUS
 62
     3
100
AcDbLine
 10
262.055927
 20
30.863995
 30
0.0
 11
262.055927
 21
31.670392
 31
0.0
  0
LINE
  5
474
100
AcDbEntity
  8
_
  6
CONTINUOUS
 62
     3
100
AcDbLine
 10
262.055927
 20
31.670392
 30
0.0
 11
264.071826
 21
31.670392
 31
0.0
  0
LINE
  5
475
100
AcDbEntity
  8
_
  6
CONTINUOUS
 62
     3
100
AcDbLine
 10
264.071826
 20
31.670392
 30
0.0
 11
264.071826
 21
30.863995
 31
0.0
  0
LINE
  5
476
100
AcDbEntity
  8
_
  6
CONTINUOUS
 62
     3
100
AcDbLine
 10
264.071826
 20
30.863995
 30
0.0
 11
265.886371
 21
30.863995
 31
0.0
  0
LINE
  5
477
100
AcDbEntity
  8
_
  6
CONTINUOUS
 62
     3
100
AcDbLine
 10
265.886371
 20
30.863995
 30
0.0
 11
263.805225
 21
27.891156
 31
0.0
  0
LINE
  5
478
100
AcDbEntity
  8
_
  6
CONTINUOUS
 62
     3
100
AcDbLine
 10
263.805225
 20
27.891156
 30
0.0
 11
265.684985
 21
26.575177
 31
0.0
  0
LINE
  5
479
100
AcDbEntity
  8
_
  6
CONTINUOUS
 62
     3
100
AcDbLine
 10
265.684985
 20
26.575177
 30
0.0
 11
265.684985
 21
24.360242
 31
0.0
  0
LINE
  5
47A
100
AcDbEntity
  8
_
  6
CONTINUOUS
 62
     3
100
AcDbLine
 10
265.684985
 20
24.360242
 30
0.0
 11
264.071826
 21
25.489545
 31
0.0
  0
LINE
  5
47B
100
AcDbEntity
  8
_
  6
CONTINUOUS
 62
     3
100
AcDbLine
 10
264.071826
 20
25.489545
 30
0.0
 11
264.071826
 21
22.8
 31
0.0
  0
LINE
  5
47C
100
AcDbEntity
  8
_
  6
CONTINUOUS
 62
     3
100
AcDbLine
 10
264.071826
 20
22.8
 30
0.0
 11
262.055927
 21
22.8
 31
0.0
  0
LINE
  5
47D
100
AcDbEntity
  8
_
  6
CONTINUOUS
 62
     3
100
AcDbLine
 10
262.055927
 20
22.8
 30
0.0
 11
262.055927
 21
25.39198
 31
0.0
  0
LINE
  5
47E
100
AcDbEntity
  8
_
  6
CONTINUOUS
 62
     3
100
AcDbLine
 10
262.055927
 20
25.39198
 30
0.0
 11
260.241382
 21
22.8
 31
0.0
  0
LINE
  5
47F
100
AcDbEntity
  8
_
  6
CONTINUOUS
 62
     3
100
AcDbLine
 10
260.241382
 20
22.8
 30
0.0
 11
260.241382
 21
25.963879
 31
0.0
  0
LINE
  5
480
100
AcDbEntity
  8
_
  6
CONTINUOUS
 62
     3
100
AcDbLine
 10
260.241382
 20
25.963879
 30
0.0
 11
262.82497
 21
29.654401
 31
0.0
  0
LINE
  5
481
100
AcDbEntity
  8
_
  6
CONTINUOUS
 62
     3
100
AcDbLine
 10
262.82497
 20
29.654401
 30
0.0
 11
260.241382
 21
29.654401
 31
0.0
  0
ARC
  5
482
100
AcDbEntity
  8
_
  6
CONTINUOUS
 62
     2
100
AcDbCircle
 10
171.832202
 20
28.040082
 30
0.0
 40
1.260024
100
AcDbArc
 50
310.768311
 51
335.998779
  0
LINE
  5
483
100
AcDbEntity
  8
_
  6
CONTINUOUS
 62
     2
100
AcDbLine
 10
173.280048
 20
28.192822
 30
0.0
 11
172.983936
 21
27.527814
 31
0.0
  0
LINE
  5
484
100
AcDbEntity
  8
_
  6
CONTINUOUS
 62
     2
100
AcDbLine
 10
169.797015
 20
28.948804
 30
0.0
 11
174.443683
 21
28.948804
 31
0.0
  0
ARC
  5
485
100
AcDbEntity
  8
_
  6
CONTINUOUS
 62
     2
100
AcDbCircle
 10
190.459857
 20
26.428815
 30
0.0
 40
3.124802
100
AcDbArc
 50
270.000031
 51
324.00116
  0
ARC
  5
486
100
AcDbEntity
  8
_
  6
CONTINUOUS
 62
     2
100
AcDbCircle
 10
190.459857
 20
26.428815
 30
0.0
 40
2.620802
100
AcDbArc
 50
270.000031
 51
324.00116
  0
ARC
  5
487
100
AcDbEntity
  8
_
  6
CONTINUOUS
 62
     2
100
AcDbCircle
 10
159.913135
 20
26.428815
 30
0.0
 40
3.124796
100
AcDbArc
 50
270.000031
 51
333.99855
  0
ARC
  5
488
100
AcDbEntity
  8
_
  6
CONTINUOUS
 62
     2
100
AcDbCircle
 10
159.753101
 20
26.428815
 30
0.0
 40
2.116798
100
AcDbArc
 50
270.000031
 51
333.99855
  0
ARC
  5
489
100
AcDbEntity
  8
_
  6
CONTINUOUS
 62
     2
100
AcDbCircle
 10
159.833118
 20
26.428815
 30
0.0
 40
2.620798
100
AcDbArc
 50
270.000031
 51
333.99855
  0
LINE
  5
48A
100
AcDbEntity
  8
_
  6
CONTINUOUS
 62
     2
100
AcDbLine
 10
154.568164
 20
31.206425
 30
0.0
 11
159.476794
 21
31.206425
 31
0.0
  0
LINE
  5
48B
100
AcDbEntity
  8
_
  6
CONTINUOUS
 62
     2
100
AcDbLine
 10
154.568164
 20
30.742429
 30
0.0
 11
159.476794
 21
30.742429
 31
0.0
  0
LINE
  5
48C
100
AcDbEntity
  8
_
  6
CONTINUOUS
 62
     2
100
AcDbLine
 10
154.568164
 20
30.278462
 30
0.0
 11
159.476794
 21
30.278462
 31
0.0
  0
LINE
  5
48D
100
AcDbEntity
  8
_
  6
CONTINUOUS
 62
     2
100
AcDbLine
 10
154.568164
 20
28.827206
 30
0.0
 11
159.476794
 21
28.827206
 31
0.0
  0
LINE
  5
48E
100
AcDbEntity
  8
_
  6
CONTINUOUS
 62
     2
100
AcDbLine
 10
154.568164
 20
28.323178
 30
0.0
 11
159.476794
 21
28.323178
 31
0.0
  0
LINE
  5
48F
100
AcDbEntity
  8
_
  6
CONTINUOUS
 62
     2
100
AcDbLine
 10
154.568164
 20
27.859212
 30
0.0
 11
159.476794
 21
27.859212
 31
0.0
  0
LINE
  5
490
100
AcDbEntity
  8
_
  6
CONTINUOUS
 62
     2
100
AcDbLine
 10
154.568164
 20
24.311993
 30
0.0
 11
159.753101
 21
24.311993
 31
0.0
  0
LINE
  5
491
100
AcDbEntity
  8
_
  6
CONTINUOUS
 62
     2
100
AcDbLine
 10
154.568164
 20
23.807996
 30
0.0
 11
159.753101
 21
23.807996
 31
0.0
  0
LINE
  5
492
100
AcDbEntity
  8
_
  6
CONTINUOUS
 62
     2
100
AcDbLine
 10
154.568164
 20
23.303998
 30
0.0
 11
159.753101
 21
23.303998
 31
0.0
  0
LINE
  5
493
100
AcDbEntity
  8
_
  6
CONTINUOUS
 62
     2
100
AcDbLine
 10
161.655414
 20
25.500806
 30
0.0
 11
163.421649
 21
29.122073
 31
0.0
  0
LINE
  5
494
100
AcDbEntity
  8
_
  6
CONTINUOUS
 62
     2
100
AcDbLine
 10
162.188251
 20
25.279919
 30
0.0
 11
164.062335
 21
29.122075
 31
0.0
  0
LINE
  5
495
100
AcDbEntity
  8
_
  6
CONTINUOUS
 62
     2
100
AcDbLine
 10
162.721057
 20
25.05885
 30
0.0
 11
164.702625
 21
29.122069
 31
0.0
  0
LINE
  5
496
100
AcDbEntity
  8
_
  6
CONTINUOUS
 62
     2
100
AcDbLine
 10
162.027271
 20
31.139195
 30
0.0
 11
162.903674
 21
31.139195
 31
0.0
  0
LINE
  5
497
100
AcDbEntity
  8
_
  6
CONTINUOUS
 62
     2
100
AcDbLine
 10
162.027271
 20
30.567998
 30
0.0
 11
162.903674
 21
30.567998
 31
0.0
  0
LINE
  5
498
100
AcDbEntity
  8
_
  6
CONTINUOUS
 62
     2
100
AcDbLine
 10
164.244983
 20
31.139195
 30
0.0
 11
165.121387
 21
31.139195
 31
0.0
  0
LINE
  5
499
100
AcDbEntity
  8
_
  6
CONTINUOUS
 62
     2
100
AcDbLine
 10
164.244983
 20
30.567998
 30
0.0
 11
165.121387
 21
30.567998
 31
0.0
  0
LINE
  5
49A
100
AcDbEntity
  8
_
  6
CONTINUOUS
 62
     2
100
AcDbLine
 10
166.462695
 20
28.444836
 30
0.0
 11
168.856128
 21
28.444836
 31
0.0
  0
LINE
  5
49B
100
AcDbEntity
  8
_
  6
CONTINUOUS
 62
     2
100
AcDbLine
 10
168.275073
 20
30.500537
 30
0.0
 11
168.521014
 21
28.948804
 31
0.0
  0
LINE
  5
49C
100
AcDbEntity
  8
_
  6
CONTINUOUS
 62
     2
100
AcDbLine
 10
169.43761
 20
23.163461
 30
0.0
 11
168.689807
 21
27.883809
 31
0.0
  0
ARC
  5
49D
100
AcDbEntity
  8
_
  6
CONTINUOUS
 62
     2
100
AcDbCircle
 10
171.792194
 20
28.040082
 30
0.0
 40
1.764024
100
AcDbArc
 50
272.671387
 51
335.998779
  0
ARC
  5
49E
100
AcDbEntity
  8
_
  6
CONTINUOUS
 62
     2
100
AcDbCircle
 10
171.752185
 20
28.040082
 30
0.0
 40
2.268023
100
AcDbArc
 50
267.367432
 51
335.998779
  0
LINE
  5
49F
100
AcDbEntity
  8
_
  6
CONTINUOUS
 62
     2
100
AcDbLine
 10
174.670337
 20
29.018105
 30
0.0
 11
173.824298
 21
27.117718
 31
0.0
  0
LINE
  5
4A0
100
AcDbEntity
  8
_
  6
CONTINUOUS
 62
     2
100
AcDbLine
 10
170.618121
 20
23.163461
 30
0.0
 11
169.844074
 21
28.049764
 31
0.0
  0
LINE
  5
4A1
100
AcDbEntity
  8
_
  6
CONTINUOUS
 62
     2
100
AcDbLine
 10
170.067859
 20
23.163461
 30
0.0
 11
168.905688
 21
30.500535
 31
0.0
  0
LINE
  5
4A2
100
AcDbEntity
  8
_
  6
CONTINUOUS
 62
     2
100
AcDbLine
 10
169.455951
 20
30.500535
 30
0.0
 11
169.679126
 21
29.091893
 31
0.0
  0
LINE
  5
4A3
100
AcDbEntity
  8
_
  6
CONTINUOUS
 62
     2
100
AcDbLine
 10
166.462695
 20
28.948804
 30
0.0
 11
168.121021
 21
28.948804
 31
0.0
  0
LINE
  5
4A4
100
AcDbEntity
  8
_
  6
CONTINUOUS
 62
     2
100
AcDbLine
 10
173.933978
 20
28.514079
 30
0.0
 11
173.404102
 21
27.322705
 31
0.0
  0
LINE
  5
4A5
100
AcDbEntity
  8
_
  6
CONTINUOUS
 62
     2
100
AcDbLine
 10
169.621478
 20
28.444836
 30
0.0
 11
173.467639
 21
28.444836
 31
0.0
  0
ARC
  5
4A6
100
AcDbEntity
  8
_
  6
CONTINUOUS
 62
     2
100
AcDbCircle
 10
171.712177
 20
28.040082
 30
0.0
 40
2.772022
100
AcDbArc
 50
269.611328
 51
335.998779
  0
LINE
  5
4A7
100
AcDbEntity
  8
_
  6
CONTINUOUS
 62
     2
100
AcDbLine
 10
175.181964
 20
29.018111
 30
0.0
 11
174.244495
 21
26.912671
 31
0.0
  0
LINE
  5
4A8
100
AcDbEntity
  8
_
  6
CONTINUOUS
 62
     2
100
AcDbLine
 10
196.662524
 20
30.662427
 30
0.0
 11
192.576129
 21
25.036542
 31
0.0
  0
LINE
  5
4A9
100
AcDbEntity
  8
_
  6
CONTINUOUS
 62
     2
100
AcDbLine
 10
195.573627
 20
30.158459
 30
0.0
 11
192.068408
 21
25.332806
 31
0.0
  0
ARC
  5
4AA
100
AcDbEntity
  8
_
  6
CONTINUOUS
 62
     2
100
AcDbCircle
 10
190.599872
 20
26.348813
 30
0.0
 40
1.864804
100
AcDbArc
 50
270.000031
 51
324.00116
  0
LINE
  5
4AB
100
AcDbEntity
  8
_
  6
CONTINUOUS
 62
     2
100
AcDbLine
 10
176.775897
 20
31.203118
 30
0.0
 11
185.652728
 21
31.203118
 31
0.0
  0
LINE
  5
4AC
100
AcDbEntity
  8
_
  6
CONTINUOUS
 62
     2
100
AcDbLine
 10
176.775897
 20
30.67915
 30
0.0
 11
185.652728
 21
30.67915
 31
0.0
  0
LINE
  5
4AD
100
AcDbEntity
  8
_
  6
CONTINUOUS
 62
     2
100
AcDbLine
 10
176.775897
 20
30.135182
 30
0.0
 11
185.652728
 21
30.135182
 31
0.0
  0
LINE
  5
4AE
100
AcDbEntity
  8
_
  6
CONTINUOUS
 62
     2
100
AcDbLine
 10
175.969531
 20
24.328809
 30
0.0
 11
186.459094
 21
24.328809
 31
0.0
  0
LINE
  5
4AF
100
AcDbEntity
  8
_
  6
CONTINUOUS
 62
     2
100
AcDbLine
 10
175.969531
 20
23.824811
 30
0.0
 11
186.459094
 21
23.824811
 31
0.0
  0
LINE
  5
4B0
100
AcDbEntity
  8
_
  6
CONTINUOUS
 62
     2
100
AcDbLine
 10
175.969531
 20
23.280782
 30
0.0
 11
186.459094
 21
23.280782
 31
0.0
  0
LINE
  5
4B1
100
AcDbEntity
  8
_
  6
CONTINUOUS
 62
     2
100
AcDbLine
 10
188.670428
 20
31.186425
 30
0.0
 11
197.251361
 21
31.186425
 31
0.0
  0
LINE
  5
4B2
100
AcDbEntity
  8
_
  6
CONTINUOUS
 62
     2
100
AcDbLine
 10
197.771381
 20
31.166425
 30
0.0
 11
193.103809
 21
24.740125
 31
0.0
  0
LINE
  5
4B3
100
AcDbEntity
  8
_
  6
CONTINUOUS
 62
     2
100
AcDbLine
 10
188.670428
 20
30.662427
 30
0.0
 11
196.2625
 21
30.662427
 31
0.0
  0
LINE
  5
4B4
100
AcDbEntity
  8
_
  6
CONTINUOUS
 62
     2
100
AcDbLine
 10
190.459857
 20
24.331994
 30
0.0
 11
187.864062
 21
24.331994
 31
0.0
  0
LINE
  5
4B5
100
AcDbEntity
  8
_
  6
CONTINUOUS
 62
     2
100
AcDbLine
 10
190.459857
 20
23.807996
 30
0.0
 11
187.864062
 21
23.807996
 31
0.0
  0
LINE
  5
4B6
100
AcDbEntity
  8
_
  6
CONTINUOUS
 62
     2
100
AcDbLine
 10
190.459857
 20
23.283997
 30
0.0
 11
187.864062
 21
23.283997
 31
0.0
  0
LINE
  5
4B7
100
AcDbEntity
  8
_
  6
CONTINUOUS
 62
     2
100
AcDbLine
 10
194.486377
 20
25.94743
 30
0.0
 11
196.874316
 21
23.2
 31
0.0
  0
LINE
  5
4B8
100
AcDbEntity
  8
_
  6
CONTINUOUS
 62
     2
100
AcDbLine
 10
194.790698
 20
26.306102
 30
0.0
 11
197.490344
 21
23.2
 31
0.0
  0
LINE
  5
4B9
100
AcDbEntity
  8
_
  6
CONTINUOUS
 62
     2
100
AcDbLine
 10
195.094623
 20
26.66459
 30
0.0
 11
198.105884
 21
23.2
 31
0.0
  0
LINE
  5
4BA
100
AcDbEntity
  8
_
  6
CONTINUOUS
 62
     2
100
AcDbLine
 10
195.398547
 20
27.023169
 30
0.0
 11
198.721851
 21
23.2
 31
0.0
  0
LINE
  5
4BB
100
AcDbEntity
  8
_
  6
CONTINUOUS
 62
     2
100
AcDbLine
 10
188.670428
 20
30.118459
 30
0.0
 11
195.073596
 21
30.118459
 31
0.0
  0
LINE
  5
4BC
100
AcDbEntity
  8
_
  6
CONTINUOUS
 62
     2
100
AcDbLine
 10
202.379108
 20
31.206425
 30
0.0
 11
212.062274
 21
31.206425
 31
0.0
  0
LINE
  5
4BD
100
AcDbEntity
  8
_
  6
CONTINUOUS
 62
     2
100
AcDbLine
 10
202.379108
 20
30.702428
 30
0.0
 11
212.062274
 21
30.702428
 31
0.0
  0
LINE
  5
4BE
100
AcDbEntity
  8
_
  6
CONTINUOUS
 62
     2
100
AcDbLine
 10
206.53548
 20
24.295983
 30
0.0
 11
206.53548
 21
30.242444
 31
0.0
  0
LINE
  5
4BF
100
AcDbEntity
  8
_
  6
CONTINUOUS
 62
     2
100
AcDbLine
 10
207.039172
 20
24.295983
 30
0.0
 11
207.039172
 21
30.242444
 31
0.0
  0
LINE
  5
4C0
100
AcDbEntity
  8
_
  6
CONTINUOUS
 62
     2
100
AcDbLine
 10
207.542834
 20
24.295983
 30
0.0
 11
207.542834
 21
30.242444
 31
0.0
  0
LINE
  5
4C1
100
AcDbEntity
  8
_
  6
CONTINUOUS
 62
     2
100
AcDbLine
 10
208.006488
 20
24.295983
 30
0.0
 11
208.006488
 21
30.242444
 31
0.0
  0
LINE
  5
4C2
100
AcDbEntity
  8
_
  6
CONTINUOUS
 62
     2
100
AcDbLine
 10
201.975909
 20
23.895984
 30
0.0
 11
212.465472
 21
23.895984
 31
0.0
  0
LINE
  5
4C3
100
AcDbEntity
  8
_
  6
CONTINUOUS
 62
     2
100
AcDbLine
 10
201.975909
 20
23.291985
 30
0.0
 11
212.465472
 21
23.291985
 31
0.0
  0
LINE
  5
4C4
100
AcDbEntity
  8
_
  6
CONTINUOUS
 62
     2
100
AcDbLine
 10
214.825519
 20
31.270392
 30
0.0
 11
215.574176
 21
30.3123
 31
0.0
  0
LINE
  5
4C5
100
AcDbEntity
  8
_
  6
CONTINUOUS
 62
     2
100
AcDbLine
 10
215.464954
 20
31.270392
 30
0.0
 11
216.213611
 21
30.3123
 31
0.0
  0
LINE
  5
4C6
100
AcDbEntity
  8
_
  6
CONTINUOUS
 62
     2
100
AcDbLine
 10
217.462268
 20
31.270392
 30
0.0
 11
217.462268
 21
30.397113
 31
0.0
  0
LINE
  5
4C7
100
AcDbEntity
  8
_
  6
CONTINUOUS
 62
     2
100
AcDbLine
 10
218.005969
 20
31.270392
 30
0.0
 11
218.005969
 21
30.397113
 31
0.0
  0
LINE
  5
4C8
100
AcDbEntity
  8
_
  6
CONTINUOUS
 62
     2
100
AcDbLine
 10
219.478198
 20
31.270392
 30
0.0
 11
219.478198
 21
30.397113
 31
0.0
  0
LINE
  5
4C9
100
AcDbEntity
  8
_
  6
CONTINUOUS
 62
     2
100
AcDbLine
 10
220.061877
 20
31.270392
 30
0.0
 11
220.061877
 21
30.397113
 31
0.0
  0
LINE
  5
4CA
100
AcDbEntity
  8
_
  6
CONTINUOUS
 62
     2
100
AcDbLine
 10
221.999133
 20
31.270392
 30
0.0
 11
221.250476
 21
30.3123
 31
0.0
  0
LINE
  5
4CB
100
AcDbEntity
  8
_
  6
CONTINUOUS
 62
     2
100
AcDbLine
 10
222.678577
 20
31.270392
 30
0.0
 11
221.929919
 21
30.3123
 31
0.0
  0
LINE
  5
4CC
100
AcDbEntity
  8
_
  6
CONTINUOUS
 62
     2
100
AcDbLine
 10
213.467242
 20
29.997113
 30
0.0
 11
223.956805
 21
29.997113
 31
0.0
  0
LINE
  5
4CD
100
AcDbEntity
  8
_
  6
CONTINUOUS
 62
     2
100
AcDbLine
 10
216.086353
 20
28.437657
 30
0.0
 11
215.655566
 21
29.621236
 31
0.0
  0
LINE
  5
4CE
100
AcDbEntity
  8
_
  6
CONTINUOUS
 62
     2
100
AcDbLine
 10
216.702441
 20
28.437657
 30
0.0
 11
216.271655
 21
29.621236
 31
0.0
  0
LINE
  5
4CF
100
AcDbEntity
  8
_
  6
CONTINUOUS
 62
     2
100
AcDbLine
 10
217.278522
 20
28.437703
 30
0.0
 11
216.848224
 21
29.62119
 31
0.0
  0
LINE
  5
4D0
100
AcDbEntity
  8
_
  6
CONTINUOUS
 62
     2
100
AcDbLine
 10
220.183887
 20
28.437613
 30
0.0
 11
220.615131
 21
29.62128
 31
0.0
  0
LINE
  5
4D1
100
AcDbEntity
  8
_
  6
CONTINUOUS
 62
     2
100
AcDbLine
 10
220.800403
 20
28.437613
 30
0.0
 11
221.231647
 21
29.62128
 31
0.0
  0
LINE
  5
4D2
100
AcDbEntity
  8
_
  6
CONTINUOUS
 62
     2
100
AcDbLine
 10
221.376483
 20
28.437613
 30
0.0
 11
221.807727
 21
29.62128
 31
0.0
  0
LINE
  5
4D3
100
AcDbEntity
  8
_
  6
CONTINUOUS
 62
     2
100
AcDbLine
 10
213.467242
 20
28.06178
 30
0.0
 11
223.956805
 21
28.06178
 31
0.0
  0
LINE
  5
4D4
100
AcDbEntity
  8
_
  6
CONTINUOUS
 62
     2
100
AcDbLine
 10
213.467242
 20
26.670728
 30
0.0
 11
217.767749
 21
26.670728
 31
0.0
  0
LINE
  5
4D5
100
AcDbEntity
  8
_
  6
CONTINUOUS
 62
     2
100
AcDbLine
 10
213.467242
 20
25.279675
 30
0.0
 11
217.767749
 21
25.279675
 31
0.0
  0
LINE
  5
4D6
100
AcDbEntity
  8
_
  6
CONTINUOUS
 62
     2
100
AcDbLine
 10
219.695117
 20
25.279675
 30
0.0
 11
223.956805
 21
25.279675
 31
0.0
  0
LINE
  5
4D7
100
AcDbEntity
  8
_
  6
CONTINUOUS
 62
     2
100
AcDbLine
 10
214.101764
 20
23.2
 30
0.0
 11
216.106647
 21
25.011508
 31
0.0
  0
LINE
  5
4D8
100
AcDbEntity
  8
_
  6
CONTINUOUS
 62
     2
100
AcDbLine
 10
214.773547
 20
23.2
 30
0.0
 11
216.778491
 21
25.011512
 31
0.0
  0
LINE
  5
4D9
100
AcDbEntity
  8
_
  6
CONTINUOUS
 62
     2
100
AcDbLine
 10
215.40575
 20
23.2
 30
0.0
 11
217.410693
 21
25.011512
 31
0.0
  0
LINE
  5
4DA
100
AcDbEntity
  8
_
  6
CONTINUOUS
 62
     2
100
AcDbLine
 10
218.167743
 20
23.2
 30
0.0
 11
218.167743
 21
27.66178
 31
0.0
  0
LINE
  5
4DB
100
AcDbEntity
  8
_
  6
CONTINUOUS
 62
     2
100
AcDbLine
 10
218.751422
 20
23.2
 30
0.0
 11
218.751422
 21
27.66178
 31
0.0
  0
LINE
  5
4DC
100
AcDbEntity
  8
_
  6
CONTINUOUS
 62
     2
100
AcDbLine
 10
219.295123
 20
23.2
 30
0.0
 11
219.295123
 21
27.66178
 31
0.0
  0
LINE
  5
4DD
100
AcDbEntity
  8
_
  6
CONTINUOUS
 62
     2
100
AcDbLine
 10
222.034351
 20
23.2
 30
0.0
 11
220.029468
 21
25.011508
 31
0.0
  0
LINE
  5
4DE
100
AcDbEntity
  8
_
  6
CONTINUOUS
 62
     2
100
AcDbLine
 10
222.706165
 20
23.2
 30
0.0
 11
220.701221
 21
25.011512
 31
0.0
  0
LINE
  5
4DF
100
AcDbEntity
  8
_
  6
CONTINUOUS
 62
     2
100
AcDbLine
 10
223.378375
 20
23.2
 30
0.0
 11
221.373431
 21
25.011512
 31
0.0
  0
LINE
  5
4E0
100
AcDbEntity
  8
_
  6
CONTINUOUS
 62
     2
100
AcDbLine
 10
227.199573
 20
31.270392
 30
0.0
 11
227.199573
 21
30.558398
 31
0.0
  0
LINE
  5
4E1
100
AcDbEntity
  8
_
  6
CONTINUOUS
 62
     2
100
AcDbLine
 10
227.703235
 20
31.270392
 30
0.0
 11
227.703235
 21
30.558398
 31
0.0
  0
LINE
  5
4E2
100
AcDbEntity
  8
_
  6
CONTINUOUS
 62
     2
100
AcDbLine
 10
228.206928
 20
31.270392
 30
0.0
 11
228.206928
 21
30.558398
 31
0.0
  0
LINE
  5
4E3
100
AcDbEntity
  8
_
  6
CONTINUOUS
 62
     2
100
AcDbLine
 10
225.159991
 20
30.158398
 30
0.0
 11
228.795032
 21
30.158398
 31
0.0
  0
LINE
  5
4E4
100
AcDbEntity
  8
_
  6
CONTINUOUS
 62
     2
100
AcDbLine
 10
225.188831
 20
23.19781
 30
0.0
 11
225.878406
 21
29.760588
 31
0.0
  0
LINE
  5
4E5
100
AcDbEntity
  8
_
  6
CONTINUOUS
 62
     2
100
AcDbLine
 10
225.655353
 20
23.19781
 30
0.0
 11
226.344958
 21
29.760588
 31
0.0
  0
LINE
  5
4E6
100
AcDbEntity
  8
_
  6
CONTINUOUS
 62
     2
100
AcDbLine
 10
227.199573
 20
23.2
 30
0.0
 11
227.199573
 21
29.758399
 31
0.0
  0
LINE
  5
4E7
100
AcDbEntity
  8
_
  6
CONTINUOUS
 62
     2
100
AcDbLine
 10
227.703235
 20
23.2
 30
0.0
 11
227.703235
 21
29.758399
 31
0.0
  0
LINE
  5
4E8
100
AcDbEntity
  8
_
  6
CONTINUOUS
 62
     2
100
AcDbLine
 10
228.206928
 20
23.2
 30
0.0
 11
228.206928
 21
29.758399
 31
0.0
  0
LINE
  5
4E9
100
AcDbEntity
  8
_
  6
CONTINUOUS
 62
     2
100
AcDbLine
 10
228.441852
 20
29.230849
 30
0.0
 11
228.960071
 21
28.516768
 31
0.0
  0
LINE
  5
4EA
100
AcDbEntity
  8
_
  6
CONTINUOUS
 62
     2
100
AcDbLine
 10
228.441852
 20
28.452849
 30
0.0
 11
228.960071
 21
27.738768
 31
0.0
  0
LINE
  5
4EB
100
AcDbEntity
  8
_
  6
CONTINUOUS
 62
     2
100
AcDbLine
 10
229.693835
 20
29.43772
 30
0.0
 11
230.153766
 21
31.282275
 31
0.0
  0
LINE
  5
4EC
100
AcDbEntity
  8
_
  6
CONTINUOUS
 62
     2
100
AcDbLine
 10
230.17348
 20
29.437737
 30
0.0
 11
230.633044
 21
31.282258
 31
0.0
  0
LINE
  5
4ED
100
AcDbEntity
  8
_
  6
CONTINUOUS
 62
     2
100
AcDbLine
 10
230.592761
 20
29.43772
 30
0.0
 11
231.052692
 21
31.282275
 31
0.0
  0
LINE
  5
4EE
100
AcDbEntity
  8
_
  6
CONTINUOUS
 62
     2
100
AcDbLine
 10
232.340472
 20
30.558398
 30
0.0
 11
232.340472
 21
31.270392
 31
0.0
  0
LINE
  5
4EF
100
AcDbEntity
  8
_
  6
CONTINUOUS
 62
     2
100
AcDbLine
 10
232.884143
 20
30.558398
 30
0.0
 11
232.884143
 21
31.270392
 31
0.0
  0
LINE
  5
4F0
100
AcDbEntity
  8
_
  6
CONTINUOUS
 62
     2
100
AcDbLine
 10
233.387836
 20
30.558398
 30
0.0
 11
233.387836
 21
31.270392
 31
0.0
  0
LINE
  5
4F1
100
AcDbEntity
  8
_
  6
CONTINUOUS
 62
     2
100
AcDbLine
 10
231.172443
 20
30.158398
 30
0.0
 11
235.649554
 21
30.158398
 31
0.0
  0
LINE
  5
4F2
100
AcDbEntity
  8
_
  6
CONTINUOUS
 62
     2
100
AcDbLine
 10
232.340472
 20
29.758399
 30
0.0
 11
232.340472
 21
28.542407
 31
0.0
  0
LINE
  5
4F3
100
AcDbEntity
  8
_
  6
CONTINUOUS
 62
     2
100
AcDbLine
 10
232.884143
 20
29.758399
 30
0.0
 11
232.884143
 21
28.542407
 31
0.0
  0
LINE
  5
4F4
100
AcDbEntity
  8
_
  6
CONTINUOUS
 62
     2
100
AcDbLine
 10
233.387836
 20
29.758399
 30
0.0
 11
233.387836
 21
28.542407
 31
0.0
  0
LINE
  5
4F5
100
AcDbEntity
  8
_
  6
CONTINUOUS
 62
     2
100
AcDbLine
 10
229.796802
 20
28.142407
 30
0.0
 11
235.851337
 21
28.142407
 31
0.0
  0
LINE
  5
4F6
100
AcDbEntity
  8
_
  6
CONTINUOUS
 62
     2
100
AcDbLine
 10
230.689594
 20
27.748877
 30
0.0
 11
229.860156
 21
23.19353
 31
0.0
  0
LINE
  5
4F7
100
AcDbEntity
  8
_
  6
CONTINUOUS
 62
     2
100
AcDbLine
 10
231.161456
 20
27.748877
 30
0.0
 11
230.33205
 21
23.19353
 31
0.0
  0
LINE
  5
4F8
100
AcDbEntity
  8
_
  6
CONTINUOUS
 62
     2
100
AcDbLine
 10
231.577838
 20
27.748883
 30
0.0
 11
230.748004
 21
23.193524
 31
0.0
  0
LINE
  5
4F9
100
AcDbEntity
  8
_
  6
CONTINUOUS
 62
     2
100
AcDbLine
 10
232.340472
 20
27.742408
 30
0.0
 11
232.340472
 21
23.2
 31
0.0
  0
LINE
  5
4FA
100
AcDbEntity
  8
_
  6
CONTINUOUS
 62
     2
100
AcDbLine
 10
232.844135
 20
27.742408
 30
0.0
 11
232.844135
 21
23.2
 31
0.0
  0
LINE
  5
4FB
100
AcDbEntity
  8
_
  6
CONTINUOUS
 62
     3
100
AcDbLine
 10
233.387836
 20
27.742408
 30
0.0
 11
233.387836
 21
23.2
 31
0.0
  0
LINE
  5
4FC
100
AcDbEntity
  8
_
  6
CONTINUOUS
 62
     2
100
AcDbLine
 10
234.069904
 20
27.748883
 30
0.0
 11
234.899738
 21
23.193524
 31
0.0
  0
LINE
  5
4FD
100
AcDbEntity
  8
_
  6
CONTINUOUS
 62
     2
100
AcDbLine
 10
234.502185
 20
27.748883
 30
0.0
 11
235.332019
 21
23.193524
 31
0.0
  0
LINE
  5
4FE
100
AcDbEntity
  8
_
  6
CONTINUOUS
 62
     2
100
AcDbLine
 10
235.014056
 20
27.748883
 30
0.0
 11
235.84389
 21
23.193524
 31
0.0
  0
LINE
  5
4FF
100
AcDbEntity
  8
_
  6
CONTINUOUS
 62
     2
100
AcDbLine
 10
237.054523
 20
30.480031
 30
0.0
 11
242.764819
 21
30.480031
 31
0.0
  0
LINE
  5
500
100
AcDbEntity
  8
_
  6
CONTINUOUS
 62
     2
100
AcDbLine
 10
237.054523
 20
29.976033
 30
0.0
 11
242.948261
 21
29.976033
 31
0.0
  0
LINE
  5
501
100
AcDbEntity
  8
_
  6
CONTINUOUS
 62
     2
100
AcDbLine
 10
245.823322
 20
23.175877
 30
0.0
 11
242.868396
 21
31.294514
 31
0.0
  0
LINE
  5
502
100
AcDbEntity
  8
_
  6
CONTINUOUS
 62
     2
100
AcDbLine
 10
246.359393
 20
23.175879
 30
0.0
 11
243.40459
 21
31.294513
 31
0.0
  0
LINE
  5
503
100
AcDbEntity
  8
_
  6
CONTINUOUS
 62
     2
100
AcDbLine
 10
246.895465
 20
23.175879
 30
0.0
 11
243.940662
 21
31.294513
 31
0.0
  0
LINE
  5
504
100
AcDbEntity
  8
_
  6
CONTINUOUS
 62
     2
100
AcDbLine
 10
247.431537
 20
23.175872
 30
0.0
 11
244.476276
 21
31.294518
 31
0.0
  0
LINE
  5
505
100
AcDbEntity
  8
_
  6
CONTINUOUS
 62
     2
100
AcDbLine
 10
245.908618
 20
30.88003
 30
0.0
 11
245.908618
 21
31.270392
 31
0.0
  0
LINE
  5
506
100
AcDbEntity
  8
_
  6
CONTINUOUS
 62
     2
100
AcDbLine
 10
246.452319
 20
30.88003
 30
0.0
 11
246.452319
 21
31.270392
 31
0.0
  0
LINE
  5
507
100
AcDbEntity
  8
_
  6
CONTINUOUS
 62
     2
100
AcDbLine
 10
246.99599
 20
30.88003
 30
0.0
 11
246.99599
 21
31.270392
 31
0.0
  0
LINE
  5
508
100
AcDbEntity
  8
_
  6
CONTINUOUS
 62
     2
100
AcDbLine
 10
245.172748
 20
30.480031
 30
0.0
 11
247.544086
 21
30.480031
 31
0.0
  0
LINE
  5
509
100
AcDbEntity
  8
_
  6
CONTINUOUS
 62
     2
100
AcDbLine
 10
245.35622
 20
29.976033
 30
0.0
 11
247.544086
 21
29.976033
 31
0.0
  0
LINE
  5
50A
100
AcDbEntity
  8
_
  6
CONTINUOUS
 62
     2
100
AcDbLine
 10
237.659106
 20
28.07282
 30
0.0
 11
242.907275
 21
28.07282
 31
0.0
  0
LINE
  5
50B
100
AcDbEntity
  8
_
  6
CONTINUOUS
 62
     2
100
AcDbLine
 10
237.659106
 20
27.568791
 30
0.0
 11
242.907275
 21
27.568791
 31
0.0
  0
LINE
  5
50C
100
AcDbEntity
  8
_
  6
CONTINUOUS
 62
     2
100
AcDbLine
 10
239.558185
 20
27.168792
 30
0.0
 11
239.558185
 21
25.158231
 31
0.0
  0
LINE
  5
50D
100
AcDbEntity
  8
_
  6
CONTINUOUS
 62
     2
100
AcDbLine
 10
240.061847
 20
27.168792
 30
0.0
 11
240.061847
 21
25.265286
 31
0.0
  0
LINE
  5
50E
100
AcDbEntity
  8
_
  6
CONTINUOUS
 62
     2
100
AcDbLine
 10
240.565509
 20
27.168792
 30
0.0
 11
240.565509
 21
25.372344
 31
0.0
  0
LINE
  5
50F
100
AcDbEntity
  8
_
  6
CONTINUOUS
 62
     2
100
AcDbLine
 10
241.069202
 20
27.168792
 30
0.0
 11
241.069202
 21
25.479405
 31
0.0
  0
LINE
  5
510
100
AcDbEntity
  8
_
  6
CONTINUOUS
 62
     2
100
AcDbLine
 10
237.549457
 20
24.331263
 30
0.0
 11
243.016895
 21
25.493399
 31
0.0
  0
LINE
  5
511
100
AcDbEntity
  8
_
  6
CONTINUOUS
 62
     2
100
AcDbLine
 10
237.549457
 20
23.776006
 30
0.0
 11
243.016895
 21
24.93817
 31
0.0
  0
LINE
  5
512
100
AcDbEntity
  8
_
  6
CONTINUOUS
 62
     2
100
AcDbLine
 10
237.549457
 20
23.300746
 30
0.0
 11
243.016895
 21
24.462882
 31
0.0
  0
LINE
  5
513
100
AcDbEntity
  8
_
  6
CONTINUOUS
 62
     2
100
AcDbLine
 10
248.726611
 20
29.665189
 30
0.0
 11
253.903064
 21
31.39708
 31
0.0
  0
LINE
  5
514
100
AcDbEntity
  8
_
  6
CONTINUOUS
 62
     2
100
AcDbLine
 10
248.726611
 20
29.133725
 30
0.0
 11
253.903064
 21
30.865647
 31
0.0
  0
LINE
  5
515
100
AcDbEntity
  8
_
  6
CONTINUOUS
 62
     2
100
AcDbLine
 10
254.282397
 20
31.397078
 30
0.0
 11
259.458881
 21
29.665061
 31
0.0
  0
LINE
  5
516
100
AcDbEntity
  8
_
  6
CONTINUOUS
 62
     2
100
AcDbLine
 10
254.282397
 20
30.905646
 30
0.0
 11
259.458881
 21
29.173629
 31
0.0
  0
LINE
  5
517
100
AcDbEntity
  8
_
  6
CONTINUOUS
 62
     2
100
AcDbLine
 10
257.724994
 20
29.119221
 30
0.0
 11
250.460895
 21
29.119221
 31
0.0
  0
LINE
  5
518
100
AcDbEntity
  8
_
  6
CONTINUOUS
 62
     2
100
AcDbLine
 10
257.724994
 20
28.575192
 30
0.0
 11
250.460895
 21
28.575192
 31
0.0
  0
LINE
  5
519
100
AcDbEntity
  8
_
  6
CONTINUOUS
 62
     2
100
AcDbLine
 10
248.747272
 20
27.012784
 30
0.0
 11
259.43822
 21
27.012784
 31
0.0
  0
LINE
  5
51A
100
AcDbEntity
  8
_
  6
CONTINUOUS
 62
     2
100
AcDbLine
 10
248.747272
 20
26.548817
 30
0.0
 11
259.43822
 21
26.548817
 31
0.0
  0
LINE
  5
51B
100
AcDbEntity
  8
_
  6
CONTINUOUS
 62
     2
100
AcDbLine
 10
250.402667
 20
26.186307
 30
0.0
 11
249.382251
 21
23.998492
 31
0.0
  0
LINE
  5
51C
100
AcDbEntity
  8
_
  6
CONTINUOUS
 62
     2
100
AcDbLine
 10
251.038867
 20
26.186309
 30
0.0
 11
250.01842
 21
23.998492
 31
0.0
  0
LINE
  5
51D
100
AcDbEntity
  8
_
  6
CONTINUOUS
 62
     2
100
AcDbLine
 10
251.675067
 20
26.186309
 30
0.0
 11
250.65462
 21
23.998492
 31
0.0
  0
LINE
  5
51E
100
AcDbEntity
  8
_
  6
CONTINUOUS
 62
     2
100
AcDbLine
 10
256.510822
 20
26.186333
 30
0.0
 11
257.531665
 21
23.998467
 31
0.0
  0
LINE
  5
51F
100
AcDbEntity
  8
_
  6
CONTINUOUS
 62
     2
100
AcDbLine
 10
257.147418
 20
26.186284
 30
0.0
 11
258.167407
 21
23.998517
 31
0.0
  0
LINE
  5
520
100
AcDbEntity
  8
_
  6
CONTINUOUS
 62
     2
100
AcDbLine
 10
257.783984
 20
26.186263
 30
0.0
 11
258.803638
 21
23.998538
 31
0.0
  0
LINE
  5
521
100
AcDbEntity
  8
_
  6
CONTINUOUS
 62
     2
100
AcDbLine
 10
249.137073
 20
23.635983
 30
0.0
 11
259.048419
 21
23.635983
 31
0.0
  0
LINE
  5
522
100
AcDbEntity
  8
_
  6
CONTINUOUS
 62
     2
100
AcDbLine
 10
248.902057
 20
23.131985
 30
0.0
 11
259.283435
 21
23.131985
 31
0.0
  0
LINE
  5
523
100
AcDbEntity
  8
_
  6
CONTINUOUS
 62
     2
100
AcDbLine
 10
262.479572
 20
30.88003
 30
0.0
 11
262.479572
 21
31.270392
 31
0.0
  0
LINE
  5
524
100
AcDbEntity
  8
_
  6
CONTINUOUS
 62
     2
100
AcDbLine
 10
263.063251
 20
30.88003
 30
0.0
 11
263.063251
 21
31.270392
 31
0.0
  0
LINE
  5
525
100
AcDbEntity
  8
_
  6
CONTINUOUS
 62
     2
100
AcDbLine
 10
263.64696
 20
30.88003
 30
0.0
 11
263.64696
 21
31.270392
 31
0.0
  0
LINE
  5
526
100
AcDbEntity
  8
_
  6
CONTINUOUS
 62
     2
100
AcDbLine
 10
260.641376
 20
30.480031
 30
0.0
 11
265.217578
 21
30.480031
 31
0.0
  0
LINE
  5
527
100
AcDbEntity
  8
_
  6
CONTINUOUS
 62
     2
100
AcDbLine
 10
260.641376
 20
29.976033
 30
0.0
 11
264.864764
 21
29.976033
 31
0.0
  0
LINE
  5
528
100
AcDbEntity
  8
_
  6
CONTINUOUS
 62
     2
100
AcDbLine
 10
263.275836
 20
29.648335
 30
0.0
 11
260.470752
 21
25.640944
 31
0.0
  0
LINE
  5
529
100
AcDbEntity
  8
_
  6
CONTINUOUS
 62
     2
100
AcDbLine
 10
263.931323
 20
29.64836
 30
0.0
 11
260.470782
 21
24.705703
 31
0.0
  0
LINE
  5
52A
100
AcDbEntity
  8
_
  6
CONTINUOUS
 62
     2
100
AcDbLine
 10
264.547595
 20
29.648354
 30
0.0
 11
260.470782
 21
23.825146
 31
0.0
  0
LINE
  5
52B
100
AcDbEntity
  8
_
  6
CONTINUOUS
 62
     2
100
AcDbLine
 10
263.585986
 20
27.577382
 30
0.0
 11
265.357349
 21
26.336928
 31
0.0
  0
LINE
  5
52C
100
AcDbEntity
  8
_
  6
CONTINUOUS
 62
     2
100
AcDbLine
 10
263.296893
 20
27.164399
 30
0.0
 11
265.357318
 21
25.721598
 31
0.0
  0
LINE
  5
52D
100
AcDbEntity
  8
_
  6
CONTINUOUS
 62
     2
100
AcDbLine
 10
262.989001
 20
26.724625
 30
0.0
 11
265.357318
 21
25.0663
 31
0.0
  0
LINE
  5
52E
100
AcDbEntity
  8
_
  6
CONTINUOUS
 62
     2
100
AcDbLine
 10
262.479572
 20
26.294446
 30
0.0
 11
262.479572
 21
23.2
 31
0.0
  0
LINE
  5
52F
100
AcDbEntity
  8
_
  6
CONTINUOUS
 62
     2
100
AcDbLine
 10
263.063251
 20
26.272631
 30
0.0
 11
263.063251
 21
23.2
 31
0.0
  0
LINE
  5
530
100
AcDbEntity
  8
_
  6
CONTINUOUS
 62
     2
100
AcDbLine
 10
263.64696
 20
25.863913
 30
0.0
 11
263.64696
 21
23.2
 31
0.0
  0
LINE
  5
531
100
AcDbEntity
  8
_
  6
CONTINUOUS
 62
     2
100
AcDbLine
 10
267.922748
 20
24.035983
 30
0.0
 11
267.922748
 21
31.270392
 31
0.0
  0
LINE
  5
532
100
AcDbEntity
  8
_
  6
CONTINUOUS
 62
     2
100
AcDbLine
 10
268.506427
 20
24.035983
 30
0.0
 11
268.506427
 21
31.270392
 31
0.0
  0
LINE
  5
533
100
AcDbEntity
  8
_
  6
CONTINUOUS
 62
     2
100
AcDbLine
 10
269.090137
 20
24.035983
 30
0.0
 11
269.090137
 21
31.270392
 31
0.0
  0
LINE
  5
534
100
AcDbEntity
  8
_
  6
CONTINUOUS
 62
     2
100
AcDbLine
 10
266.084979
 20
29.068806
 30
0.0
 11
267.522754
 21
29.068806
 31
0.0
  0
LINE
  5
535
100
AcDbEntity
  8
_
  6
CONTINUOUS
 62
     2
100
AcDbLine
 10
266.084979
 20
28.564839
 30
0.0
 11
267.522754
 21
28.564839
 31
0.0
  0
LINE
  5
536
100
AcDbEntity
  8
_
  6
CONTINUOUS
 62
     2
100
AcDbLine
 10
269.490131
 20
29.068806
 30
0.0
 11
270.929553
 21
29.068806
 31
0.0
  0
LINE
  5
537
100
AcDbEntity
  8
_
  6
CONTINUOUS
 62
     2
100
AcDbLine
 10
269.490131
 20
28.524838
 30
0.0
 11
270.929553
 21
28.524838
 31
0.0
  0
LINE
  5
538
100
AcDbEntity
  8
_
  6
CONTINUOUS
 62
     2
100
AcDbLine
 10
265.278186
 20
23.635983
 30
0.0
 11
271.131335
 21
23.635983
 31
0.0
  0
LINE
  5
539
100
AcDbEntity
  8
_
  6
CONTINUOUS
 62
     2
100
AcDbLine
 10
265.278186
 20
23.131985
 30
0.0
 11
271.131335
 21
23.131985
 31
0.0
  0
LINE
  5
53A
100
AcDbEntity
  8
_
  6
CONTINUOUS
 62
     2
100
AcDbLine
 10
219.695117
 20
26.670728
 30
0.0
 11
223.956805
 21
26.670728
 31
0.0
  0
LINE
  5
53B
100
AcDbEntity
  8
_
  6
CONTINUOUS
 62
     6
100
AcDbLine
 10
400.0
 20
37.0
 30
0.0
 11
150.0
 21
37.0
 31
0.0
  0
TEXT
  5
53C
100
AcDbEntity
  8
_
  6
CONTINUOUS
 62
     2
100
AcDbText
 10
194.2
 20
41.7
 30
0.0
 40
13.0
  1
化粧鏡
 41
1.076923
  7
EXCADSTD
 72
     5
 11
244.2
 21
41.7
 31
0.0
100
AcDbText
  0
TEXT
  5
53D
100
AcDbEntity
  8
_
  6
CONTINUOUS
 62
     2
100
AcDbText
 10
306.400001
 20
42.35
 30
0.0
 40
13.0
  1
ＮＭ５
 41
0.801231
  7
EXCADSTD
 72
     5
 11
343.599999
 21
42.35
 31
0.0
100
AcDbText
  0
TEXT
  5
53E
100
AcDbEntity
  8
_
  6
CONTINUOUS
 62
     7
100
AcDbText
 10
303.85
 20
20.15
 30
0.0
 40
14.0
  1
２４１０００
 41
0.8
  7
EXCADSTD
 72
     5
 11
383.85
 21
20.15
 31
0.0
100
AcDbText
  0
TEXT
  5
53F
100
AcDbEntity
  8
_
  6
CONTINUOUS
 62
     6
100
AcDbText
 10
36.768823
 20
19.390015
 30
0.0
 40
5.0
  1
１５
 41
0.75768
  7
EXCADSTD
 72
     5
 11
45.036555
 21
19.390015
 31
0.0
100
AcDbText
  0
TEXT
  5
540
100
AcDbEntity
  8
_
  6
CONTINUOUS
 62
     6
100
AcDbText
 10
48.645215
 20
19.390015
 30
0.0
 40
5.0
  1
９
 41
0.89208
  7
EXCADSTD
 72
     5
 11
52.893215
 21
19.390015
 31
0.0
100
AcDbText
  0
TEXT
  5
541
100
AcDbEntity
  8
_
  6
CONTINUOUS
 62
     6
100
AcDbText
 10
57.768823
 20
19.390015
 30
0.0
 40
5.0
  1
２０
 41
0.75768
  7
EXCADSTD
 72
     5
 11
66.036555
 21
19.390015
 31
0.0
100
AcDbText
  0
TEXT
  5
542
100
AcDbEntity
  8
_
  6
CONTINUOUS
 62
     2
100
AcDbText
 10
40.3
 20
33.0
 30
0.0
 40
12.0
  1
風穴
 41
0.784
  7
EXCADSTD
 72
     5
 11
60.83184
 21
33.0
 31
0.0
100
AcDbText
  0
TEXT
  5
543
100
AcDbEntity
  8
_
  6
CONTINUOUS
 62
     2
100
AcDbText
 10
100.1
 20
33.0
 30
0.0
 40
12.0
  1
中村
 41
0.784
  7
EXCADSTD
 72
     5
 11
120.63184
 21
33.0
 31
0.0
100
AcDbText
  0
TEXT
  5
544
100
AcDbEntity
  8
_
  6
CONTINUOUS
 62
     2
100
AcDbText
 10
126.1
 20
33.0
 30
0.0
 40
12.0
  1
中村
 41
0.784
  7
EXCADSTD
 72
     5
 11
146.63184
 21
33.0
 31
0.0
100
AcDbText
  0
ARC
  5
545
100
AcDbEntity
  8
_2
  6
EXLTYPE2
 62
     6
100
AcDbCircle
 10
61.0
 20
106.0
 30
0.0
 40
2.0
100
AcDbArc
 50
90.0
 51
180.0
  0
LINE
  5
546
100
AcDbEntity
  8
_2
  6
CONTINUOUS
 62
     7
100
AcDbLine
 10
46.0
 20
84.0
 30
0.0
 11
58.7
 21
84.0
 31
0.0
  0
ARC
  5
547
100
AcDbEntity
  8
_2
  6
CONTINUOUS
 62
     6
100
AcDbCircle
 10
61.0
 20
86.0
 30
0.0
 40
2.0
100
AcDbArc
 50
90.0
 51
180.0
  0
ARC
  5
548
100
AcDbEntity
  8
_2
  6
CONTINUOUS
 62
     6
100
AcDbCircle
 10
87.0
 20
86.0
 30
0.0
 40
2.0
100
AcDbArc
 50
0.0
 51
90.0
  0
ARC
  5
549
100
AcDbEntity
  8
_2
  6
EXLTYPE2
 62
     6
100
AcDbCircle
 10
74.0
 20
88.0
 30
0.0
 40
2.5
100
AcDbArc
 50
180.0
 51
0.0
  0
LINE
  5
54A
100
AcDbEntity
  8
_2
  6
CONTINUOUS
 62
     6
100
AcDbLine
 10
61.0
 20
88.0
 30
0.0
 11
87.0
 21
88.0
 31
0.0
  0
LINE
  5
54B
100
AcDbEntity
  8
_2
  6
EXLTYPE2
 62
     6
100
AcDbLine
 10
61.0
 20
108.0
 30
0.0
 11
87.0
 21
108.0
 31
0.0
  0
LINE
  5
54C
100
AcDbEntity
  8
_2
  6
CONTINUOUS
 62
     6
100
AcDbLine
 10
59.0
 20
80.0
 30
0.0
 11
89.0
 21
80.0
 31
0.0
  0
LINE
  5
54D
100
AcDbEntity
  8
_2
  6
CONTINUOUS
 62
     6
100
AcDbLine
 10
59.0
 20
80.0
 30
0.0
 11
59.0
 21
86.0
 31
0.0
  0
LINE
  5
54E
100
AcDbEntity
  8
_2
  6
EXLTYPE2
 62
     6
100
AcDbLine
 10
59.0
 20
86.0
 30
0.0
 11
59.0
 21
106.0
 31
0.0
  0
LINE
  5
54F
100
AcDbEntity
  8
_2
  6
CONTINUOUS
 62
     6
100
AcDbLine
 10
89.0
 20
80.0
 30
0.0
 11
89.0
 21
86.0
 31
0.0
  0
LINE
  5
550
100
AcDbEntity
  8
_2
  6
EXLTYPE2
 62
     6
100
AcDbLine
 10
89.0
 20
86.0
 30
0.0
 11
89.0
 21
106.0
 31
0.0
  0
LINE
  5
551
100
AcDbEntity
  8
_2
  6
CONTINUOUS
 62
     7
100
AcDbLine
 10
344.0
 20
541.0
 30
0.0
 11
349.0
 21
541.0
 31
0.0
  0
LINE
  5
552
100
AcDbEntity
  8
_2
  6
CONTINUOUS
 62
     7
100
AcDbLine
 10
344.0
 20
84.0
 30
0.0
 11
349.0
 21
84.0
 31
0.0
  0
ARC
  5
553
100
AcDbEntity
  8
_2
  6
EXLTYPE2
 62
     6
100
AcDbCircle
 10
299.0
 20
516.0
 30
0.0
 40
2.0
100
AcDbArc
 50
270.0
 51
0.0
  0
ARC
  5
554
100
AcDbEntity
  8
_2
  6
EXLTYPE2
 62
     6
100
AcDbCircle
 10
273.0
 20
516.0
 30
0.0
 40
2.0
100
AcDbArc
 50
180.0
 51
270.0
  0
ARC
  5
555
100
AcDbEntity
  8
_2
  6
EXLTYPE2
 62
     6
100
AcDbCircle
 10
286.0
 20
521.5
 30
0.0
 40
2.5
100
AcDbArc
 50
180.0
 51
0.0
  0
ARC
  5
556
100
AcDbEntity
  8
_2
  6
CONTINUOUS
 62
     6
100
AcDbCircle
 10
299.0
 20
536.0
 30
0.0
 40
2.0
100
AcDbArc
 50
270.0
 51
0.0
  0
ARC
  5
557
100
AcDbEntity
  8
_2
  6
CONTINUOUS
 62
     6
100
AcDbCircle
 10
273.0
 20
536.0
 30
0.0
 40
2.0
100
AcDbArc
 50
180.0
 51
270.0
  0
LINE
  5
558
100
AcDbEntity
  8
_2
  6
EXLTYPE2
 62
     6
100
AcDbLine
 10
299.0
 20
514.0
 30
0.0
 11
273.0
 21
514.0
 31
0.0
  0
LINE
  5
559
100
AcDbEntity
  8
_2
  6
EXLTYPE2
 62
     6
100
AcDbLine
 10
301.0
 20
536.0
 30
0.0
 11
301.0
 21
516.0
 31
0.0
  0
LINE
  5
55A
100
AcDbEntity
  8
_2
  6
EXLTYPE2
 62
     6
100
AcDbLine
 10
271.0
 20
536.0
 30
0.0
 11
271.0
 21
516.0
 31
0.0
  0
LINE
  5
55B
100
AcDbEntity
  8
_2
  6
CONTINUOUS
 62
     6
100
AcDbLine
 10
301.0
 20
542.0
 30
0.0
 11
271.0
 21
542.0
 31
0.0
  0
LINE
  5
55C
100
AcDbEntity
  8
_2
  6
CONTINUOUS
 62
     6
100
AcDbLine
 10
299.0
 20
534.0
 30
0.0
 11
273.0
 21
534.0
 31
0.0
  0
LINE
  5
55D
100
AcDbEntity
  8
_2
  6
CONTINUOUS
 62
     6
100
AcDbLine
 10
301.0
 20
542.0
 30
0.0
 11
301.0
 21
536.0
 31
0.0
  0
LINE
  5
55E
100
AcDbEntity
  8
_2
  6
CONTINUOUS
 62
     6
100
AcDbLine
 10
271.0
 20
542.0
 30
0.0
 11
271.0
 21
536.0
 31
0.0
  0
ARC
  5
55F
100
AcDbEntity
  8
_2
  6
EXLTYPE2
 62
     6
100
AcDbCircle
 10
299.0
 20
106.0
 30
0.0
 40
2.0
100
AcDbArc
 50
0.0
 51
90.0
  0
ARC
  5
560
100
AcDbEntity
  8
_2
  6
EXLTYPE2
 62
     6
100
AcDbCircle
 10
273.0
 20
106.0
 30
0.0
 40
2.0
100
AcDbArc
 50
90.0
 51
180.0
  0
ARC
  5
561
100
AcDbEntity
  8
_2
  6
EXLTYPE2
 62
     6
100
AcDbCircle
 10
286.0
 20
88.0
 30
0.0
 40
2.5
100
AcDbArc
 50
180.0
 51
0.0
  0
ARC
  5
562
100
AcDbEntity
  8
_2
  6
CONTINUOUS
 62
     6
100
AcDbCircle
 10
299.0
 20
86.0
 30
0.0
 40
2.0
100
AcDbArc
 50
0.0
 51
90.0
  0
ARC
  5
563
100
AcDbEntity
  8
_2
  6
CONTINUOUS
 62
     6
100
AcDbCircle
 10
273.0
 20
86.0
 30
0.0
 40
2.0
100
AcDbArc
 50
90.0
 51
180.0
  0
LINE
  5
564
100
AcDbEntity
  8
_2
  6
EXLTYPE2
 62
     6
100
AcDbLine
 10
299.0
 20
108.0
 30
0.0
 11
273.0
 21
108.0
 31
0.0
  0
LINE
  5
565
100
AcDbEntity
  8
_2
  6
EXLTYPE2
 62
     6
100
AcDbLine
 10
301.0
 20
86.0
 30
0.0
 11
301.0
 21
106.0
 31
0.0
  0
LINE
  5
566
100
AcDbEntity
  8
_2
  6
EXLTYPE2
 62
     6
100
AcDbLine
 10
271.0
 20
86.0
 30
0.0
 11
271.0
 21
106.0
 31
0.0
  0
LINE
  5
567
100
AcDbEntity
  8
_2
  6
CONTINUOUS
 62
     6
100
AcDbLine
 10
301.0
 20
80.0
 30
0.0
 11
271.0
 21
80.0
 31
0.0
  0
LINE
  5
568
100
AcDbEntity
  8
_2
  6
CONTINUOUS
 62
     6
100
AcDbLine
 10
299.0
 20
88.0
 30
0.0
 11
273.0
 21
88.0
 31
0.0
  0
LINE
  5
569
100
AcDbEntity
  8
_2
  6
CONTINUOUS
 62
     6
100
AcDbLine
 10
301.0
 20
80.0
 30
0.0
 11
301.0
 21
86.0
 31
0.0
  0
LINE
  5
56A
100
AcDbEntity
  8
_2
  6
CONTINUOUS
 62
     6
100
AcDbLine
 10
271.0
 20
80.0
 30
0.0
 11
271.0
 21
86.0
 31
0.0
  0
LINE
  5
56B
100
AcDbEntity
  8
_2
  6
CONTINUOUS
 62
     7
100
AcDbLine
 10
301.3
 20
84.0
 30
0.0
 11
314.0
 21
84.0
 31
0.0
  0
LINE
  5
56C
100
AcDbEntity
  8
_2
  6
CONTINUOUS
 62
     7
100
AcDbLine
 10
301.3
 20
541.0
 30
0.0
 11
314.0
 21
541.0
 31
0.0
  0
LINE
  5
56D
100
AcDbEntity
  8
_2
  6
CONTINUOUS
 62
     3
100
AcDbLine
 10
286.0
 20
537.0
 30
0.0
 11
301.74
 21
537.0
 31
0.0
  0
LINE
  5
56E
100
AcDbEntity
  8
_2
  6
CONTINUOUS
 62
     3
100
AcDbLine
 10
271.6
 20
534.0
 30
0.0
 11
255.0
 21
534.0
 31
0.0
  0
LINE
  5
56F
100
AcDbEntity
  8
_2
  6
CONTINUOUS
 62
     3
100
AcDbLine
 10
271.6
 20
514.0
 30
0.0
 11
243.0
 21
514.0
 31
0.0
  0
LINE
  5
570
100
AcDbEntity
  8
_2
  6
CONTINUOUS
 62
     3
100
AcDbLine
 10
269.6
 20
542.0
 30
0.0
 11
243.0
 21
542.0
 31
0.0
  0
LINE
  5
571
100
AcDbEntity
  8
_2
  6
CONTINUOUS
 62
     3
100
AcDbLine
 10
271.0
 20
514.6
 30
0.0
 11
271.0
 21
487.4
 31
0.0
  0
LINE
  5
572
100
AcDbEntity
  8
_2
  6
CONTINUOUS
 62
     3
100
AcDbLine
 10
301.0
 20
514.6
 30
0.0
 11
301.0
 21
487.4
 31
0.0
  0
LINE
  5
573
100
AcDbEntity
  8
_2
  6
CONTINUOUS
 62
     7
100
AcDbLine
 10
46.0
 20
541.0
 30
0.0
 11
58.7
 21
541.0
 31
0.0
  0
LINE
  5
574
100
AcDbEntity
  8
_2
  6
CONTINUOUS
 62
     3
100
AcDbLine
 10
315.4
 20
541.0
 30
0.0
 11
334.0
 21
541.0
 31
0.0
  0
LINE
  5
575
100
AcDbEntity
  8
_2
  6
CONTINUOUS
 62
     3
100
AcDbLine
 10
314.0
 20
542.4
 30
0.0
 11
314.0
 21
557.0
 31
0.0
  0
LINE
  5
576
100
AcDbEntity
  8
_2
  6
CONTINUOUS
 62
     3
100
AcDbLine
 10
46.0
 20
542.4
 30
0.0
 11
46.0
 21
558.0
 31
0.0
  0
LINE
  5
577
100
AcDbEntity
  8
_2
  6
CONTINUOUS
 62
     3
100
AcDbLine
 10
315.4
 20
84.0
 30
0.0
 11
334.0
 21
84.0
 31
0.0
  0
LINE
  5
578
100
AcDbEntity
  8
_2
  6
CONTINUOUS
 62
     6
100
AcDbLine
 10
353.0
 20
541.0
 30
0.0
 11
353.0
 21
514.0
 31
0.0
  0
LINE
  5
579
100
AcDbEntity
  8
_2
  6
CONTINUOUS
 62
     6
100
AcDbLine
 10
349.0
 20
541.0
 30
0.0
 11
352.0
 21
541.0
 31
0.0
  0
LINE
  5
57A
100
AcDbEntity
  8
_2
  6
CONTINUOUS
 62
     6
100
AcDbLine
 10
344.0
 20
542.0
 30
0.0
 11
352.0
 21
542.0
 31
0.0
  0
LINE
  5
57B
100
AcDbEntity
  8
_2
  6
CONTINUOUS
 62
     6
100
AcDbLine
 10
343.0
 20
534.0
 30
0.0
 11
343.0
 21
541.0
 31
0.0
  0
LINE
  5
57C
100
AcDbEntity
  8
_2
  6
CONTINUOUS
 62
     6
100
AcDbLine
 10
352.0
 20
541.0
 30
0.0
 11
352.0
 21
514.0
 31
0.0
  0
LINE
  5
57D
100
AcDbEntity
  8
_2
  6
CONTINUOUS
 62
     6
100
AcDbLine
 10
344.0
 20
542.0
 30
0.0
 11
343.0
 21
541.0
 31
0.0
  0
LINE
  5
57E
100
AcDbEntity
  8
_2
  6
CONTINUOUS
 62
     6
100
AcDbLine
 10
352.0
 20
542.0
 30
0.0
 11
353.0
 21
541.0
 31
0.0
  0
LINE
  5
57F
100
AcDbEntity
  8
_2
  6
CONTINUOUS
 62
     6
100
AcDbLine
 10
349.0
 20
514.0
 30
0.0
 11
353.0
 21
514.0
 31
0.0
  0
LINE
  5
580
100
AcDbEntity
  8
_2
  6
CONTINUOUS
 62
     6
100
AcDbLine
 10
349.0
 20
519.0
 30
0.0
 11
353.0
 21
519.0
 31
0.0
  0
CIRCLE
  5
581
100
AcDbEntity
  8
_2
  6
CONTINUOUS
 62
     6
100
AcDbCircle
 10
349.88
 20
516.64
 30
0.0
 40
0.141421
  0
CIRCLE
  5
582
100
AcDbEntity
  8
_2
  6
CONTINUOUS
 62
     6
100
AcDbCircle
 10
349.94
 20
515.04
 30
0.0
 40
0.141421
  0
CIRCLE
  5
583
100
AcDbEntity
  8
_2
  6
CONTINUOUS
 62
     6
100
AcDbCircle
 10
351.16
 20
515.7
 30
0.0
 40
0.141421
  0
CIRCLE
  5
584
100
AcDbEntity
  8
_2
  6
CONTINUOUS
 62
     6
100
AcDbCircle
 10
351.18
 20
517.5
 30
0.0
 40
0.141421
  0
CIRCLE
  5
585
100
AcDbEntity
  8
_2
  6
CONTINUOUS
 62
     6
100
AcDbCircle
 10
349.94
 20
518.12
 30
0.0
 40
0.141421
  0
LINE
  5
586
100
AcDbEntity
  8
_2
  6
CONTINUOUS
 62
     6
100
AcDbLine
 10
343.0
 20
534.0
 30
0.0
 11
344.0
 21
534.0
 31
0.0
  0
LINE
  5
587
100
AcDbEntity
  8
_2
  6
CONTINUOUS
 62
     6
100
AcDbLine
 10
344.0
 20
80.0
 30
0.0
 11
343.0
 21
81.0
 31
0.0
  0
LINE
  5
588
100
AcDbEntity
  8
_2
  6
CONTINUOUS
 62
     6
100
AcDbLine
 10
344.0
 20
80.0
 30
0.0
 11
352.0
 21
80.0
 31
0.0
  0
LINE
  5
589
100
AcDbEntity
  8
_2
  6
CONTINUOUS
 62
     6
100
AcDbLine
 10
352.0
 20
80.0
 30
0.0
 11
353.0
 21
81.0
 31
0.0
  0
LINE
  5
58A
100
AcDbEntity
  8
_2
  6
CONTINUOUS
 62
     6
100
AcDbLine
 10
349.0
 20
84.0
 30
0.0
 11
352.0
 21
84.0
 31
0.0
  0
LINE
  5
58B
100
AcDbEntity
  8
_2
  6
CONTINUOUS
 62
     6
100
AcDbLine
 10
352.0
 20
81.0
 30
0.0
 11
352.0
 21
108.0
 31
0.0
  0
LINE
  5
58C
100
AcDbEntity
  8
_2
  6
CONTINUOUS
 62
     6
100
AcDbLine
 10
353.0
 20
81.0
 30
0.0
 11
353.0
 21
108.0
 31
0.0
  0
LINE
  5
58D
100
AcDbEntity
  8
_2
  6
CONTINUOUS
 62
     6
100
AcDbLine
 10
349.0
 20
108.0
 30
0.0
 11
353.0
 21
108.0
 31
0.0
  0
CIRCLE
  5
58E
100
AcDbEntity
  8
_2
  6
CONTINUOUS
 62
     6
100
AcDbCircle
 10
351.18
 20
107.5
 30
0.0
 40
0.141421
  0
CIRCLE
  5
58F
100
AcDbEntity
  8
_2
  6
CONTINUOUS
 62
     6
100
AcDbCircle
 10
349.94
 20
106.88
 30
0.0
 40
0.141421
  0
LINE
  5
590
100
AcDbEntity
  8
_2
  6
CONTINUOUS
 62
     6
100
AcDbLine
 10
343.0
 20
88.0
 30
0.0
 11
344.0
 21
88.0
 31
0.0
  0
LINE
  5
591
100
AcDbEntity
  8
_2
  6
CONTINUOUS
 62
     6
100
AcDbLine
 10
343.0
 20
88.0
 30
0.0
 11
343.0
 21
81.0
 31
0.0
  0
LINE
  5
592
100
AcDbEntity
  8
_2
  6
CONTINUOUS
 62
     6
100
AcDbLine
 10
344.0
 20
81.0
 30
0.0
 11
352.0
 21
81.0
 31
0.0
  0
LINE
  5
593
100
AcDbEntity
  8
_2
  6
CONTINUOUS
 62
     6
100
AcDbLine
 10
344.0
 20
81.0
 30
0.0
 11
344.0
 21
84.0
 31
0.0
  0
LINE
  5
594
100
AcDbEntity
  8
_2
  6
CONTINUOUS
 62
     6
100
AcDbLine
 10
349.0
 20
86.0
 30
0.0
 11
353.0
 21
86.0
 31
0.0
  0
CIRCLE
  5
595
100
AcDbEntity
  8
_2
  6
CONTINUOUS
 62
     6
100
AcDbCircle
 10
351.06
 20
105.98
 30
0.0
 40
0.141421
  0
CIRCLE
  5
596
100
AcDbEntity
  8
_2
  6
CONTINUOUS
 62
     6
100
AcDbCircle
 10
350.08
 20
105.4
 30
0.0
 40
0.141421
  0
CIRCLE
  5
597
100
AcDbEntity
  8
_2
  6
CONTINUOUS
 62
     6
100
AcDbCircle
 10
351.36
 20
104.6
 30
0.0
 40
0.141421
  0
CIRCLE
  5
598
100
AcDbEntity
  8
_2
  6
CONTINUOUS
 62
     6
100
AcDbCircle
 10
345.44
 20
83.2
 30
0.0
 40
0.141421
  0
CIRCLE
  5
599
100
AcDbEntity
  8
_2
  6
CONTINUOUS
 62
     6
100
AcDbCircle
 10
347.82
 20
83.14
 30
0.0
 40
0.141421
  0
CIRCLE
  5
59A
100
AcDbEntity
  8
_2
  6
CONTINUOUS
 62
     6
100
AcDbCircle
 10
350.08
 20
83.14
 30
0.0
 40
0.141421
  0
CIRCLE
  5
59B
100
AcDbEntity
  8
_2
  6
CONTINUOUS
 62
     6
100
AcDbCircle
 10
346.48
 20
81.8
 30
0.0
 40
0.141421
  0
CIRCLE
  5
59C
100
AcDbEntity
  8
_2
  6
CONTINUOUS
 62
     6
100
AcDbCircle
 10
349.1
 20
81.64
 30
0.0
 40
0.141421
  0
CIRCLE
  5
59D
100
AcDbEntity
  8
_2
  6
CONTINUOUS
 62
     6
100
AcDbCircle
 10
351.18
 20
81.7
 30
0.0
 40
0.141421
  0
CIRCLE
  5
59E
100
AcDbEntity
  8
_2
  6
CONTINUOUS
 62
     6
100
AcDbCircle
 10
350.08
 20
85.22
 30
0.0
 40
0.141421
  0
CIRCLE
  5
59F
100
AcDbEntity
  8
_2
  6
CONTINUOUS
 62
     6
100
AcDbCircle
 10
351.18
 20
84.6
 30
0.0
 40
0.141421
  0
ARC
  5
5A0
100
AcDbEntity
  8
_2
  6
EXLTYPE2
 62
     6
100
AcDbCircle
 10
61.0
 20
516.0
 30
0.0
 40
2.0
100
AcDbArc
 50
180.0
 51
270.0
  0
ARC
  5
5A1
100
AcDbEntity
  8
_2
  6
EXLTYPE2
 62
     6
100
AcDbCircle
 10
87.0
 20
516.0
 30
0.0
 40
2.0
100
AcDbArc
 50
270.0
 51
0.0
  0
ARC
  5
5A2
100
AcDbEntity
  8
_2
  6
CONTINUOUS
 62
     6
100
AcDbCircle
 10
61.0
 20
536.0
 30
0.0
 40
2.0
100
AcDbArc
 50
180.0
 51
270.0
  0
ARC
  5
5A3
100
AcDbEntity
  8
_2
  6
CONTINUOUS
 62
     6
100
AcDbCircle
 10
87.0
 20
536.0
 30
0.0
 40
2.0
100
AcDbArc
 50
270.0
 51
0.0
  0
LINE
  5
5A4
100
AcDbEntity
  8
_2
  6
EXLTYPE2
 62
     6
100
AcDbLine
 10
61.0
 20
514.0
 30
0.0
 11
87.0
 21
514.0
 31
0.0
  0
LINE
  5
5A5
100
AcDbEntity
  8
_2
  6
EXLTYPE2
 62
     6
100
AcDbLine
 10
59.0
 20
536.0
 30
0.0
 11
59.0
 21
516.0
 31
0.0
  0
LINE
  5
5A6
100
AcDbEntity
  8
_2
  6
EXLTYPE2
 62
     6
100
AcDbLine
 10
89.0
 20
536.0
 30
0.0
 11
89.0
 21
516.0
 31
0.0
  0
LINE
  5
5A7
100
AcDbEntity
  8
_2
  6
CONTINUOUS
 62
     6
100
AcDbLine
 10
59.0
 20
542.0
 30
0.0
 11
89.0
 21
542.0
 31
0.0
  0
LINE
  5
5A8
100
AcDbEntity
  8
_2
  6
CONTINUOUS
 62
     6
100
AcDbLine
 10
61.0
 20
534.0
 30
0.0
 11
87.0
 21
534.0
 31
0.0
  0
LINE
  5
5A9
100
AcDbEntity
  8
_2
  6
CONTINUOUS
 62
     6
100
AcDbLine
 10
59.0
 20
542.0
 30
0.0
 11
59.0
 21
536.0
 31
0.0
  0
LINE
  5
5AA
100
AcDbEntity
  8
_2
  6
CONTINUOUS
 62
     6
100
AcDbLine
 10
89.0
 20
542.0
 30
0.0
 11
89.0
 21
536.0
 31
0.0
  0
ARC
  5
5AB
100
AcDbEntity
  8
_2
  6
EXLTYPE2
 62
     6
100
AcDbCircle
 10
74.0
 20
521.5
 30
0.0
 40
2.5
100
AcDbArc
 50
180.0
 51
0.0
  0
CIRCLE
  5
5AC
100
AcDbEntity
  8
_2
  6
EXLTYPE2
 62
     6
100
AcDbCircle
 10
286.0
 20
101.0
 30
0.0
 40
4.0
  0
CIRCLE
  5
5AD
100
AcDbEntity
  8
_2
  6
EXLTYPE2
 62
     6
100
AcDbCircle
 10
74.0
 20
101.0
 30
0.0
 40
4.0
  0
CIRCLE
  5
5AE
100
AcDbEntity
  8
_2
  6
EXLTYPE2
 62
     6
100
AcDbCircle
 10
74.0
 20
534.5
 30
0.0
 40
4.0
  0
CIRCLE
  5
5AF
100
AcDbEntity
  8
_2
  6
EXLTYPE2
 62
     6
100
AcDbCircle
 10
286.0
 20
534.5
 30
0.0
 40
4.0
  0
LINE
  5
5B0
100
AcDbEntity
  8
_2
  6
EXLTYPE2
 62
     6
100
AcDbLine
 10
71.5
 20
521.5
 30
0.0
 11
71.5
 21
531.377501
 31
0.0
  0
LINE
  5
5B1
100
AcDbEntity
  8
_2
  6
EXLTYPE2
 62
     6
100
AcDbLine
 10
76.5
 20
521.5
 30
0.0
 11
76.5
 21
531.377501
 31
0.0
  0
LINE
  5
5B2
100
AcDbEntity
  8
_2
  6
EXLTYPE2
 62
     6
100
AcDbLine
 10
283.5
 20
521.5
 30
0.0
 11
283.5
 21
531.377501
 31
0.0
  0
LINE
  5
5B3
100
AcDbEntity
  8
_2
  6
EXLTYPE2
 62
     6
100
AcDbLine
 10
288.5
 20
521.5
 30
0.0
 11
288.5
 21
531.377501
 31
0.0
  0
LINE
  5
5B4
100
AcDbEntity
  8
_2
  6
EXLTYPE2
 62
     6
100
AcDbLine
 10
285.6
 20
536.75
 30
0.0
 11
286.4
 21
536.75
 31
0.0
  0
LINE
  5
5B5
100
AcDbEntity
  8
_2
  6
EXLTYPE2
 62
     6
100
AcDbLine
 10
285.6
 20
532.25
 30
0.0
 11
286.4
 21
532.25
 31
0.0
  0
LINE
  5
5B6
100
AcDbEntity
  8
_2
  6
EXLTYPE2
 62
     6
100
AcDbLine
 10
283.75
 20
534.1
 30
0.0
 11
283.75
 21
534.9
 31
0.0
  0
LINE
  5
5B7
100
AcDbEntity
  8
_2
  6
EXLTYPE2
 62
     6
100
AcDbLine
 10
288.25
 20
534.1
 30
0.0
 11
288.25
 21
534.9
 31
0.0
  0
LINE
  5
5B8
100
AcDbEntity
  8
_2
  6
EXLTYPE2
 62
     6
100
AcDbLine
 10
283.75
 20
534.9
 30
0.0
 11
284.84635
 21
534.98635
 31
0.0
  0
LINE
  5
5B9
100
AcDbEntity
  8
_2
  6
EXLTYPE2
 62
     6
100
AcDbLine
 10
285.6
 20
536.75
 30
0.0
 11
285.51365
 21
535.65365
 31
0.0
  0
LINE
  5
5BA
100
AcDbEntity
  8
_2
  6
EXLTYPE2
 62
     6
100
AcDbLine
 10
284.84635
 20
534.98635
 30
0.0
 11
285.51365
 21
535.65365
 31
0.0
  0
LINE
  5
5BB
100
AcDbEntity
  8
_2
  6
EXLTYPE2
 62
     6
100
AcDbLine
 10
285.51365
 20
533.34635
 30
0.0
 11
284.84635
 21
534.01365
 31
0.0
  0
LINE
  5
5BC
100
AcDbEntity
  8
_2
  6
EXLTYPE2
 62
     6
100
AcDbLine
 10
287.15365
 20
534.01365
 30
0.0
 11
286.48635
 21
533.34635
 31
0.0
  0
LINE
  5
5BD
100
AcDbEntity
  8
_2
  6
EXLTYPE2
 62
     6
100
AcDbLine
 10
286.48635
 20
535.65365
 30
0.0
 11
287.15365
 21
534.98635
 31
0.0
  0
LINE
  5
5BE
100
AcDbEntity
  8
_2
  6
EXLTYPE2
 62
     6
100
AcDbLine
 10
283.75
 20
534.1
 30
0.0
 11
284.84635
 21
534.01365
 31
0.0
  0
LINE
  5
5BF
100
AcDbEntity
  8
_2
  6
EXLTYPE2
 62
     6
100
AcDbLine
 10
285.6
 20
532.25
 30
0.0
 11
285.51365
 21
533.34635
 31
0.0
  0
LINE
  5
5C0
100
AcDbEntity
  8
_2
  6
EXLTYPE2
 62
     6
100
AcDbLine
 10
286.4
 20
532.25
 30
0.0
 11
286.48635
 21
533.34635
 31
0.0
  0
LINE
  5
5C1
100
AcDbEntity
  8
_2
  6
EXLTYPE2
 62
     6
100
AcDbLine
 10
288.25
 20
534.1
 30
0.0
 11
287.15365
 21
534.01365
 31
0.0
  0
LINE
  5
5C2
100
AcDbEntity
  8
_2
  6
EXLTYPE2
 62
     6
100
AcDbLine
 10
288.25
 20
534.9
 30
0.0
 11
287.15365
 21
534.98635
 31
0.0
  0
LINE
  5
5C3
100
AcDbEntity
  8
_2
  6
EXLTYPE2
 62
     6
100
AcDbLine
 10
286.4
 20
536.75
 30
0.0
 11
286.48635
 21
535.65365
 31
0.0
  0
LINE
  5
5C4
100
AcDbEntity
  8
_2
  6
EXLTYPE2
 62
     6
100
AcDbLine
 10
73.6
 20
536.75
 30
0.0
 11
74.4
 21
536.75
 31
0.0
  0
LINE
  5
5C5
100
AcDbEntity
  8
_2
  6
EXLTYPE2
 62
     6
100
AcDbLine
 10
73.6
 20
532.25
 30
0.0
 11
74.4
 21
532.25
 31
0.0
  0
LINE
  5
5C6
100
AcDbEntity
  8
_2
  6
EXLTYPE2
 62
     6
100
AcDbLine
 10
71.75
 20
534.1
 30
0.0
 11
71.75
 21
534.9
 31
0.0
  0
LINE
  5
5C7
100
AcDbEntity
  8
_2
  6
EXLTYPE2
 62
     6
100
AcDbLine
 10
76.25
 20
534.1
 30
0.0
 11
76.25
 21
534.9
 31
0.0
  0
LINE
  5
5C8
100
AcDbEntity
  8
_2
  6
EXLTYPE2
 62
     6
100
AcDbLine
 10
71.75
 20
534.9
 30
0.0
 11
72.84635
 21
534.98635
 31
0.0
  0
LINE
  5
5C9
100
AcDbEntity
  8
_2
  6
EXLTYPE2
 62
     6
100
AcDbLine
 10
73.6
 20
536.75
 30
0.0
 11
73.51365
 21
535.65365
 31
0.0
  0
LINE
  5
5CA
100
AcDbEntity
  8
_2
  6
EXLTYPE2
 62
     6
100
AcDbLine
 10
72.84635
 20
534.98635
 30
0.0
 11
73.51365
 21
535.65365
 31
0.0
  0
LINE
  5
5CB
100
AcDbEntity
  8
_2
  6
EXLTYPE2
 62
     6
100
AcDbLine
 10
73.51365
 20
533.34635
 30
0.0
 11
72.84635
 21
534.01365
 31
0.0
  0
LINE
  5
5CC
100
AcDbEntity
  8
_2
  6
EXLTYPE2
 62
     6
100
AcDbLine
 10
75.15365
 20
534.01365
 30
0.0
 11
74.48635
 21
533.34635
 31
0.0
  0
LINE
  5
5CD
100
AcDbEntity
  8
_2
  6
EXLTYPE2
 62
     6
100
AcDbLine
 10
74.48635
 20
535.65365
 30
0.0
 11
75.15365
 21
534.98635
 31
0.0
  0
LINE
  5
5CE
100
AcDbEntity
  8
_2
  6
EXLTYPE2
 62
     6
100
AcDbLine
 10
71.75
 20
534.1
 30
0.0
 11
72.84635
 21
534.01365
 31
0.0
  0
LINE
  5
5CF
100
AcDbEntity
  8
_2
  6
EXLTYPE2
 62
     6
100
AcDbLine
 10
73.6
 20
532.25
 30
0.0
 11
73.51365
 21
533.34635
 31
0.0
  0
LINE
  5
5D0
100
AcDbEntity
  8
_2
  6
EXLTYPE2
 62
     6
100
AcDbLine
 10
74.4
 20
532.25
 30
0.0
 11
74.48635
 21
533.34635
 31
0.0
  0
LINE
  5
5D1
100
AcDbEntity
  8
_2
  6
EXLTYPE2
 62
     6
100
AcDbLine
 10
76.25
 20
534.1
 30
0.0
 11
75.15365
 21
534.01365
 31
0.0
  0
LINE
  5
5D2
100
AcDbEntity
  8
_2
  6
EXLTYPE2
 62
     6
100
AcDbLine
 10
76.25
 20
534.9
 30
0.0
 11
75.15365
 21
534.98635
 31
0.0
  0
LINE
  5
5D3
100
AcDbEntity
  8
_2
  6
EXLTYPE2
 62
     6
100
AcDbLine
 10
74.4
 20
536.75
 30
0.0
 11
74.48635
 21
535.65365
 31
0.0
  0
LINE
  5
5D4
100
AcDbEntity
  8
_2
  6
EXLTYPE2
 62
     6
100
AcDbLine
 10
71.5
 20
88.0
 30
0.0
 11
71.5
 21
97.877501
 31
0.0
  0
LINE
  5
5D5
100
AcDbEntity
  8
_2
  6
EXLTYPE2
 62
     6
100
AcDbLine
 10
76.5
 20
88.0
 30
0.0
 11
76.5
 21
97.877501
 31
0.0
  0
LINE
  5
5D6
100
AcDbEntity
  8
_2
  6
EXLTYPE2
 62
     6
100
AcDbLine
 10
73.6
 20
103.25
 30
0.0
 11
74.4
 21
103.25
 31
0.0
  0
LINE
  5
5D7
100
AcDbEntity
  8
_2
  6
EXLTYPE2
 62
     6
100
AcDbLine
 10
73.6
 20
98.75
 30
0.0
 11
74.4
 21
98.75
 31
0.0
  0
LINE
  5
5D8
100
AcDbEntity
  8
_2
  6
EXLTYPE2
 62
     6
100
AcDbLine
 10
71.75
 20
100.6
 30
0.0
 11
71.75
 21
101.4
 31
0.0
  0
LINE
  5
5D9
100
AcDbEntity
  8
_2
  6
EXLTYPE2
 62
     6
100
AcDbLine
 10
76.25
 20
100.6
 30
0.0
 11
76.25
 21
101.4
 31
0.0
  0
LINE
  5
5DA
100
AcDbEntity
  8
_2
  6
EXLTYPE2
 62
     6
100
AcDbLine
 10
71.75
 20
101.4
 30
0.0
 11
72.84635
 21
101.48635
 31
0.0
  0
LINE
  5
5DB
100
AcDbEntity
  8
_2
  6
EXLTYPE2
 62
     6
100
AcDbLine
 10
73.6
 20
103.25
 30
0.0
 11
73.51365
 21
102.15365
 31
0.0
  0
LINE
  5
5DC
100
AcDbEntity
  8
_2
  6
EXLTYPE2
 62
     6
100
AcDbLine
 10
72.84635
 20
101.48635
 30
0.0
 11
73.51365
 21
102.15365
 31
0.0
  0
LINE
  5
5DD
100
AcDbEntity
  8
_2
  6
EXLTYPE2
 62
     6
100
AcDbLine
 10
73.51365
 20
99.84635
 30
0.0
 11
72.84635
 21
100.51365
 31
0.0
  0
LINE
  5
5DE
100
AcDbEntity
  8
_2
  6
EXLTYPE2
 62
     6
100
AcDbLine
 10
75.15365
 20
100.51365
 30
0.0
 11
74.48635
 21
99.84635
 31
0.0
  0
LINE
  5
5DF
100
AcDbEntity
  8
_2
  6
EXLTYPE2
 62
     6
100
AcDbLine
 10
74.48635
 20
102.15365
 30
0.0
 11
75.15365
 21
101.48635
 31
0.0
  0
LINE
  5
5E0
100
AcDbEntity
  8
_2
  6
EXLTYPE2
 62
     6
100
AcDbLine
 10
71.75
 20
100.6
 30
0.0
 11
72.84635
 21
100.51365
 31
0.0
  0
LINE
  5
5E1
100
AcDbEntity
  8
_2
  6
EXLTYPE2
 62
     6
100
AcDbLine
 10
73.6
 20
98.75
 30
0.0
 11
73.51365
 21
99.84635
 31
0.0
  0
LINE
  5
5E2
100
AcDbEntity
  8
_2
  6
EXLTYPE2
 62
     6
100
AcDbLine
 10
74.4
 20
98.75
 30
0.0
 11
74.48635
 21
99.84635
 31
0.0
  0
LINE
  5
5E3
100
AcDbEntity
  8
_2
  6
EXLTYPE2
 62
     6
100
AcDbLine
 10
76.25
 20
100.6
 30
0.0
 11
75.15365
 21
100.51365
 31
0.0
  0
LINE
  5
5E4
100
AcDbEntity
  8
_2
  6
EXLTYPE2
 62
     6
100
AcDbLine
 10
76.25
 20
101.4
 30
0.0
 11
75.15365
 21
101.48635
 31
0.0
  0
LINE
  5
5E5
100
AcDbEntity
  8
_2
  6
EXLTYPE2
 62
     6
100
AcDbLine
 10
74.4
 20
103.25
 30
0.0
 11
74.48635
 21
102.15365
 31
0.0
  0
LINE
  5
5E6
100
AcDbEntity
  8
_2
  6
EXLTYPE2
 62
     6
100
AcDbLine
 10
283.5
 20
88.0
 30
0.0
 11
283.5
 21
97.877501
 31
0.0
  0
LINE
  5
5E7
100
AcDbEntity
  8
_2
  6
EXLTYPE2
 62
     6
100
AcDbLine
 10
288.5
 20
88.0
 30
0.0
 11
288.5
 21
97.877501
 31
0.0
  0
LINE
  5
5E8
100
AcDbEntity
  8
_2
  6
EXLTYPE2
 62
     6
100
AcDbLine
 10
285.6
 20
103.25
 30
0.0
 11
286.4
 21
103.25
 31
0.0
  0
LINE
  5
5E9
100
AcDbEntity
  8
_2
  6
EXLTYPE2
 62
     6
100
AcDbLine
 10
285.6
 20
98.75
 30
0.0
 11
286.4
 21
98.75
 31
0.0
  0
LINE
  5
5EA
100
AcDbEntity
  8
_2
  6
EXLTYPE2
 62
     6
100
AcDbLine
 10
283.75
 20
100.6
 30
0.0
 11
283.75
 21
101.4
 31
0.0
  0
LINE
  5
5EB
100
AcDbEntity
  8
_2
  6
EXLTYPE2
 62
     6
100
AcDbLine
 10
288.25
 20
100.6
 30
0.0
 11
288.25
 21
101.4
 31
0.0
  0
LINE
  5
5EC
100
AcDbEntity
  8
_2
  6
EXLTYPE2
 62
     6
100
AcDbLine
 10
283.75
 20
101.4
 30
0.0
 11
284.84635
 21
101.48635
 31
0.0
  0
LINE
  5
5ED
100
AcDbEntity
  8
_2
  6
EXLTYPE2
 62
     6
100
AcDbLine
 10
285.6
 20
103.25
 30
0.0
 11
285.51365
 21
102.15365
 31
0.0
  0
LINE
  5
5EE
100
AcDbEntity
  8
_2
  6
EXLTYPE2
 62
     6
100
AcDbLine
 10
284.84635
 20
101.48635
 30
0.0
 11
285.51365
 21
102.15365
 31
0.0
  0
LINE
  5
5EF
100
AcDbEntity
  8
_2
  6
EXLTYPE2
 62
     6
100
AcDbLine
 10
285.51365
 20
99.84635
 30
0.0
 11
284.84635
 21
100.51365
 31
0.0
  0
LINE
  5
5F0
100
AcDbEntity
  8
_2
  6
EXLTYPE2
 62
     6
100
AcDbLine
 10
287.15365
 20
100.51365
 30
0.0
 11
286.48635
 21
99.84635
 31
0.0
  0
LINE
  5
5F1
100
AcDbEntity
  8
_2
  6
EXLTYPE2
 62
     6
100
AcDbLine
 10
286.48635
 20
102.15365
 30
0.0
 11
287.15365
 21
101.48635
 31
0.0
  0
LINE
  5
5F2
100
AcDbEntity
  8
_2
  6
EXLTYPE2
 62
     6
100
AcDbLine
 10
283.75
 20
100.6
 30
0.0
 11
284.84635
 21
100.51365
 31
0.0
  0
LINE
  5
5F3
100
AcDbEntity
  8
_2
  6
EXLTYPE2
 62
     6
100
AcDbLine
 10
285.6
 20
98.75
 30
0.0
 11
285.51365
 21
99.84635
 31
0.0
  0
LINE
  5
5F4
100
AcDbEntity
  8
_2
  6
EXLTYPE2
 62
     6
100
AcDbLine
 10
286.4
 20
98.75
 30
0.0
 11
286.48635
 21
99.84635
 31
0.0
  0
LINE
  5
5F5
100
AcDbEntity
  8
_2
  6
EXLTYPE2
 62
     6
100
AcDbLine
 10
288.25
 20
100.6
 30
0.0
 11
287.15365
 21
100.51365
 31
0.0
  0
LINE
  5
5F6
100
AcDbEntity
  8
_2
  6
EXLTYPE2
 62
     6
100
AcDbLine
 10
288.25
 20
101.4
 30
0.0
 11
287.15365
 21
101.48635
 31
0.0
  0
LINE
  5
5F7
100
AcDbEntity
  8
_2
  6
EXLTYPE2
 62
     6
100
AcDbLine
 10
286.4
 20
103.25
 30
0.0
 11
286.48635
 21
102.15365
 31
0.0
  0
LINE
  5
5F8
100
AcDbEntity
  8
_2
  6
CONTINUOUS
 62
     6
100
AcDbLine
 10
350.5
 20
97.0
 30
0.0
 11
350.5
 21
105.0
 31
0.0
  0
LINE
  5
5F9
100
AcDbEntity
  8
_2
  6
CONTINUOUS
 62
     6
100
AcDbLine
 10
350.2
 20
97.0
 30
0.0
 11
350.5
 21
97.0
 31
0.0
  0
LINE
  5
5FA
100
AcDbEntity
  8
_2
  6
CONTINUOUS
 62
     6
100
AcDbLine
 10
350.2
 20
105.0
 30
0.0
 11
350.5
 21
105.0
 31
0.0
  0
LINE
  5
5FB
100
AcDbEntity
  8
_2
  6
CONTINUOUS
 62
     6
100
AcDbLine
 10
352.984979
 20
103.0
 30
0.0
 11
353.690287
 21
99.0
 31
0.0
  0
LINE
  5
5FC
100
AcDbEntity
  8
_2
  6
CONTINUOUS
 62
     6
100
AcDbLine
 10
354.734979
 20
103.0
 30
0.0
 11
355.440287
 21
99.0
 31
0.0
  0
LINE
  5
5FD
100
AcDbEntity
  8
_2
  6
CONTINUOUS
 62
     6
100
AcDbLine
 10
356.484979
 20
103.0
 30
0.0
 11
357.190287
 21
99.0
 31
0.0
  0
LINE
  5
5FE
100
AcDbEntity
  8
_2
  6
CONTINUOUS
 62
     6
100
AcDbLine
 10
358.234979
 20
103.0
 30
0.0
 11
358.940287
 21
99.0
 31
0.0
  0
LINE
  5
5FF
100
AcDbEntity
  8
_2
  6
CONTINUOUS
 62
     6
100
AcDbLine
 10
359.984979
 20
103.0
 30
0.0
 11
360.690287
 21
99.0
 31
0.0
  0
LINE
  5
600
100
AcDbEntity
  8
_2
  6
CONTINUOUS
 62
     6
100
AcDbLine
 10
361.734979
 20
103.0
 30
0.0
 11
362.440287
 21
99.0
 31
0.0
  0
LINE
  5
601
100
AcDbEntity
  8
_2
  6
CONTINUOUS
 62
     6
100
AcDbLine
 10
363.484979
 20
103.0
 30
0.0
 11
364.190287
 21
99.0
 31
0.0
  0
LINE
  5
602
100
AcDbEntity
  8
_2
  6
CONTINUOUS
 62
     6
100
AcDbLine
 10
365.234979
 20
103.0
 30
0.0
 11
365.940287
 21
99.0
 31
0.0
  0
LINE
  5
603
100
AcDbEntity
  8
_2
  6
CONTINUOUS
 62
     6
100
AcDbLine
 10
366.984979
 20
103.0
 30
0.0
 11
367.690287
 21
99.0
 31
0.0
  0
LINE
  5
604
100
AcDbEntity
  8
_2
  6
CONTINUOUS
 62
     6
100
AcDbLine
 10
368.734979
 20
103.0
 30
0.0
 11
369.440287
 21
99.0
 31
0.0
  0
LINE
  5
605
100
AcDbEntity
  8
_2
  6
CONTINUOUS
 62
     6
100
AcDbLine
 10
370.484979
 20
103.0
 30
0.0
 11
371.190287
 21
99.0
 31
0.0
  0
LINE
  5
606
100
AcDbEntity
  8
_2
  6
CONTINUOUS
 62
     6
100
AcDbLine
 10
377.460968
 20
100.003074
 30
0.0
 11
380.2
 21
101.0
 31
0.0
  0
ARC
  5
607
100
AcDbEntity
  8
_2
  6
CONTINUOUS
 62
     6
100
AcDbCircle
 10
374.040766
 20
109.4
 30
0.0
 40
10.0
100
AcDbArc
 50
270.0
 51
290.0
  0
LINE
  5
608
100
AcDbEntity
  8
_2
  6
CONTINUOUS
 62
     6
100
AcDbLine
 10
377.460968
 20
101.996926
 30
0.0
 11
380.2
 21
101.0
 31
0.0
  0
ARC
  5
609
100
AcDbEntity
  8
_2
  6
CONTINUOUS
 62
     6
100
AcDbCircle
 10
374.040766
 20
92.6
 30
0.0
 40
10.0
100
AcDbArc
 50
70.0
 51
90.0
  0
LINE
  5
60A
100
AcDbEntity
  8
_2
  6
CONTINUOUS
 62
     6
100
AcDbLine
 10
372.234979
 20
103.0
 30
0.0
 11
372.940287
 21
99.0
 31
0.0
  0
LINE
  5
60B
100
AcDbEntity
  8
_2
  6
CONTINUOUS
 62
     6
100
AcDbLine
 10
373.984979
 20
103.0
 30
0.0
 11
374.690287
 21
99.0
 31
0.0
  0
LINE
  5
60C
100
AcDbEntity
  8
_2
  6
CONTINUOUS
 62
     6
100
AcDbLine
 10
375.764636
 20
102.831808
 30
0.0
 11
376.392672
 21
99.270039
 31
0.0
  0
LINE
  5
60D
100
AcDbEntity
  8
_2
  6
CONTINUOUS
 62
     6
100
AcDbLine
 10
377.606165
 20
102.312721
 30
0.0
 11
378.04956
 21
99.7981
 31
0.0
  0
LINE
  5
60E
100
AcDbEntity
  8
_2
  6
CONTINUOUS
 62
     6
100
AcDbLine
 10
379.476178
 20
101.632092
 30
0.0
 11
379.694022
 21
100.396635
 31
0.0
  0
LINE
  5
60F
100
AcDbEntity
  8
_2
  6
CONTINUOUS
 62
     6
100
AcDbLine
 10
350.2
 20
105.0
 30
0.0
 11
350.2
 21
97.0
 31
0.0
  0
LINE
  5
610
100
AcDbEntity
  8
_2
  6
CONTINUOUS
 62
     6
100
AcDbLine
 10
352.0
 20
103.5
 30
0.0
 11
350.5
 21
105.0
 31
0.0
  0
LINE
  5
611
100
AcDbEntity
  8
_2
  6
CONTINUOUS
 62
     6
100
AcDbLine
 10
352.0
 20
98.5
 30
0.0
 11
350.5
 21
97.0
 31
0.0
  0
LINE
  5
612
100
AcDbEntity
  8
_2
  6
CONTINUOUS
 62
     6
100
AcDbLine
 10
353.0
 20
102.6
 30
0.0
 11
374.040766
 21
102.6
 31
0.0
  0
LINE
  5
613
100
AcDbEntity
  8
_2
  6
CONTINUOUS
 62
     6
100
AcDbLine
 10
353.0
 20
99.4
 30
0.0
 11
374.040766
 21
99.4
 31
0.0
  0
LINE
  5
614
100
AcDbEntity
  8
_2
  6
CONTINUOUS
 62
     6
100
AcDbLine
 10
350.5
 20
530.5
 30
0.0
 11
350.5
 21
538.5
 31
0.0
  0
LINE
  5
615
100
AcDbEntity
  8
_2
  6
CONTINUOUS
 62
     6
100
AcDbLine
 10
350.2
 20
530.5
 30
0.0
 11
350.5
 21
530.5
 31
0.0
  0
LINE
  5
616
100
AcDbEntity
  8
_2
  6
CONTINUOUS
 62
     6
100
AcDbLine
 10
350.2
 20
538.5
 30
0.0
 11
350.5
 21
538.5
 31
0.0
  0
LINE
  5
617
100
AcDbEntity
  8
_2
  6
CONTINUOUS
 62
     6
100
AcDbLine
 10
352.984979
 20
536.5
 30
0.0
 11
353.690287
 21
532.5
 31
0.0
  0
LINE
  5
618
100
AcDbEntity
  8
_2
  6
CONTINUOUS
 62
     6
100
AcDbLine
 10
354.734979
 20
536.5
 30
0.0
 11
355.440287
 21
532.5
 31
0.0
  0
LINE
  5
619
100
AcDbEntity
  8
_2
  6
CONTINUOUS
 62
     6
100
AcDbLine
 10
356.484979
 20
536.5
 30
0.0
 11
357.190287
 21
532.5
 31
0.0
  0
LINE
  5
61A
100
AcDbEntity
  8
_2
  6
CONTINUOUS
 62
     6
100
AcDbLine
 10
358.234979
 20
536.5
 30
0.0
 11
358.940287
 21
532.5
 31
0.0
  0
LINE
  5
61B
100
AcDbEntity
  8
_2
  6
CONTINUOUS
 62
     6
100
AcDbLine
 10
359.984979
 20
536.5
 30
0.0
 11
360.690287
 21
532.5
 31
0.0
  0
LINE
  5
61C
100
AcDbEntity
  8
_2
  6
CONTINUOUS
 62
     6
100
AcDbLine
 10
361.734979
 20
536.5
 30
0.0
 11
362.440287
 21
532.5
 31
0.0
  0
LINE
  5
61D
100
AcDbEntity
  8
_2
  6
CONTINUOUS
 62
     6
100
AcDbLine
 10
363.484979
 20
536.5
 30
0.0
 11
364.190287
 21
532.5
 31
0.0
  0
LINE
  5
61E
100
AcDbEntity
  8
_2
  6
CONTINUOUS
 62
     6
100
AcDbLine
 10
365.234979
 20
536.5
 30
0.0
 11
365.940287
 21
532.5
 31
0.0
  0
LINE
  5
61F
100
AcDbEntity
  8
_2
  6
CONTINUOUS
 62
     6
100
AcDbLine
 10
366.984979
 20
536.5
 30
0.0
 11
367.690287
 21
532.5
 31
0.0
  0
LINE
  5
620
100
AcDbEntity
  8
_2
  6
CONTINUOUS
 62
     6
100
AcDbLine
 10
368.734979
 20
536.5
 30
0.0
 11
369.440287
 21
532.5
 31
0.0
  0
LINE
  5
621
100
AcDbEntity
  8
_2
  6
CONTINUOUS
 62
     6
100
AcDbLine
 10
370.484979
 20
536.5
 30
0.0
 11
371.190287
 21
532.5
 31
0.0
  0
LINE
  5
622
100
AcDbEntity
  8
_2
  6
CONTINUOUS
 62
     6
100
AcDbLine
 10
377.460968
 20
533.503074
 30
0.0
 11
380.2
 21
534.5
 31
0.0
  0
ARC
  5
623
100
AcDbEntity
  8
_2
  6
CONTINUOUS
 62
     6
100
AcDbCircle
 10
374.040766
 20
542.9
 30
0.0
 40
10.0
100
AcDbArc
 50
270.0
 51
290.0
  0
LINE
  5
624
100
AcDbEntity
  8
_2
  6
CONTINUOUS
 62
     6
100
AcDbLine
 10
377.460968
 20
535.496926
 30
0.0
 11
380.2
 21
534.5
 31
0.0
  0
ARC
  5
625
100
AcDbEntity
  8
_2
  6
CONTINUOUS
 62
     6
100
AcDbCircle
 10
374.040766
 20
526.1
 30
0.0
 40
10.0
100
AcDbArc
 50
70.0
 51
90.0
  0
LINE
  5
626
100
AcDbEntity
  8
_2
  6
CONTINUOUS
 62
     6
100
AcDbLine
 10
372.234979
 20
536.5
 30
0.0
 11
372.940287
 21
532.5
 31
0.0
  0
LINE
  5
627
100
AcDbEntity
  8
_2
  6
CONTINUOUS
 62
     6
100
AcDbLine
 10
373.984979
 20
536.5
 30
0.0
 11
374.690287
 21
532.5
 31
0.0
  0
LINE
  5
628
100
AcDbEntity
  8
_2
  6
CONTINUOUS
 62
     6
100
AcDbLine
 10
375.764636
 20
536.331808
 30
0.0
 11
376.392672
 21
532.770039
 31
0.0
  0
LINE
  5
629
100
AcDbEntity
  8
_2
  6
CONTINUOUS
 62
     6
100
AcDbLine
 10
377.606165
 20
535.812721
 30
0.0
 11
378.04956
 21
533.2981
 31
0.0
  0
LINE
  5
62A
100
AcDbEntity
  8
_2
  6
CONTINUOUS
 62
     6
100
AcDbLine
 10
379.476178
 20
535.132092
 30
0.0
 11
379.694022
 21
533.896635
 31
0.0
  0
LINE
  5
62B
100
AcDbEntity
  8
_2
  6
CONTINUOUS
 62
     6
100
AcDbLine
 10
350.2
 20
538.5
 30
0.0
 11
350.2
 21
530.5
 31
0.0
  0
LINE
  5
62C
100
AcDbEntity
  8
_2
  6
CONTINUOUS
 62
     6
100
AcDbLine
 10
352.0
 20
537.0
 30
0.0
 11
350.5
 21
538.5
 31
0.0
  0
LINE
  5
62D
100
AcDbEntity
  8
_2
  6
CONTINUOUS
 62
     6
100
AcDbLine
 10
352.0
 20
532.0
 30
0.0
 11
350.5
 21
530.5
 31
0.0
  0
LINE
  5
62E
100
AcDbEntity
  8
_2
  6
CONTINUOUS
 62
     6
100
AcDbLine
 10
353.0
 20
536.1
 30
0.0
 11
374.040766
 21
536.1
 31
0.0
  0
LINE
  5
62F
100
AcDbEntity
  8
_2
  6
CONTINUOUS
 62
     6
100
AcDbLine
 10
353.0
 20
532.9
 30
0.0
 11
374.040766
 21
532.9
 31
0.0
  0
LEADER
  5
630
100
AcDbEntity
  8
_2
  6
CONTINUOUS
 62
     6
100
AcDbLeader
  3
STANDARD
 73
     3
 74
     1
 75
     0
 40
0.0
 76
     2
 10
360.690287
 20
532.5
 30
0.0
 10
366.970531
 20
517.2
 30
0.0
 77
     6
1001
ACAD
1000
DSTYLE
1002
{
1070
    41
1040
7.0
1070
     5
1000
_EX_NORM
1070
     6
1000
_EX_NORM
1070
     7
1000
_EX_NORM
1070
   341
1005
28
1002
}
  0
TEXT
  5
631
100
AcDbEntity
  8
_2
  6
CONTINUOUS
 62
     2
100
AcDbText
 10
366.970531
 20
517.9
 30
0.0
 40
8.0
  1
４×３０
 41
0.819
  7
EXCADSTD
 72
     5
 11
398.170531
 21
517.9
 31
0.0
100
AcDbText
  0
LINE
  5
632
100
AcDbEntity
  8
_2
  6
CONTINUOUS
 62
     6
100
AcDbLine
 10
366.970531
 20
517.2
 30
0.0
 11
395.230531
 21
517.2
 31
0.0
  0
LINE
  5
633
100
AcDbEntity
  8
_2
  6
CONTINUOUS
 62
     7
100
AcDbLine
 10
89.3
 20
541.0
 30
0.0
 11
175.203302
 21
541.0
 31
0.0
  0
LINE
  5
634
100
AcDbEntity
  8
_2
  6
CONTINUOUS
 62
     7
100
AcDbLine
 10
179.798574
 20
541.0
 30
0.0
 11
270.7
 21
541.0
 31
0.0
  0
LINE
  5
635
100
AcDbEntity
  8
_2
  6
CONTINUOUS
 62
     7
100
AcDbLine
 10
89.3
 20
84.0
 30
0.0
 11
174.080023
 21
84.0
 31
0.0
  0
LINE
  5
636
100
AcDbEntity
  8
_2
  6
CONTINUOUS
 62
     7
100
AcDbLine
 10
178.671991
 20
84.0
 30
0.0
 11
270.7
 21
84.0
 31
0.0
  0
LINE
  5
637
100
AcDbEntity
  8
_2
  6
CONTINUOUS
 62
     7
100
AcDbLine
 10
349.0
 20
84.0
 30
0.0
 11
349.0
 21
541.0
 31
0.0
  0
LINE
  5
638
100
AcDbEntity
  8
_2
  6
CONTINUOUS
 62
     7
100
AcDbLine
 10
344.0
 20
84.0
 30
0.0
 11
344.0
 21
541.0
 31
0.0
  0
LINE
  5
639
100
AcDbEntity
  8
_2
  6
CONTINUOUS
 62
     7
100
AcDbLine
 10
46.0
 20
84.0
 30
0.0
 11
46.0
 21
328.687577
 31
0.0
  0
LINE
  5
63A
100
AcDbEntity
  8
_2
  6
CONTINUOUS
 62
     7
100
AcDbLine
 10
46.0
 20
332.413465
 30
0.0
 11
46.0
 21
541.0
 31
0.0
  0
LINE
  5
63B
100
AcDbEntity
  8
_2
  6
CONTINUOUS
 62
     7
100
AcDbLine
 10
314.0
 20
541.0
 30
0.0
 11
314.0
 21
334.002715
 31
0.0
  0
LINE
  5
63C
100
AcDbEntity
  8
_2
  6
CONTINUOUS
 62
     7
100
AcDbLine
 10
314.0
 20
330.112552
 30
0.0
 11
314.0
 21
84.0
 31
0.0
  0
ENDSEC
  0
SECTION
  2
OBJECTS
  0
DICTIONARY
  5
19
100
AcDbDictionary
  3
ACAD_GROUP
350
1A
  3
ACAD_MLINESTYLE
350
1B
  0
DICTIONARY
  5
1A
102
{ACAD_REACTORS
330
19
102
}
100
AcDbDictionary
  0
DICTIONARY
  5
1B
102
{ACAD_REACTORS
330
19
102
}
100
AcDbDictionary
  3
STANDARD
350
1C
  0
MLINESTYLE
  5
1C
102
{ACAD_REACTORS
330
1B
102
}
100
AcDbMlineStyle
  2
Standard
 70
     0
  3

 62
     0
 51
90.0
 52
90.0
 71
     2
 49
0.5
 62
   256
  6
ByLayer
 49
-0.5
 62
   256
  6
ByLayer
  0
ENDSEC
  0
EOF
