  0
SECTION
  2
HEADER
  9
$ACADVER
  1
AC1014
  9
$ACADMAINTVER
 70
     0
  9
$DWGCODEPAGE
  3
ANSI_932
  9
$INSBASE
 10
0.0
 20
0.0
 30
0.0
  9
$EXTMIN
 10
-2.1
 20
11.5
 30
0.0
  9
$EXTMAX
 10
199.9
 20
291.5
 30
0.0
  9
$LIMMIN
 10
0.0
 20
0.0
  9
$LIMMAX
 10
210.0
 20
297.0
  9
$ORTHOMODE
 70
     0
  9
$REGENMODE
 70
     1
  9
$FILLMODE
 70
     1
  9
$QTEXTMODE
 70
     0
  9
$MIRRTEXT
 70
     1
  9
$DRAGMODE
 70
     2
  9
$LTSCALE
 40
1.0
  9
$OSMODE
 70
     0
  9
$ATTMODE
 70
     1
  9
$TEXTSIZE
 40
0.2
  9
$TRACEWID
 40
0.05
  9
$TEXTSTYLE
  7
STANDARD
  9
$CLAYER
  8
枠_
  9
$CELTYPE
  6
CONTINUOUS
  9
$CECOLOR
 62
   256
  9
$CELTSCALE
 40
1.0
  9
$DELOBJ
 70
     1
  9
$DISPSILH
 70
     0
  9
$DIMSCALE
 40
1.0
  9
$DIMASZ
 40
0.18
  9
$DIMEXO
 40
0.0625
  9
$DIMDLI
 40
0.38
  9
$DIMRND
 40
0.0
  9
$DIMDLE
 40
0.0
  9
$DIMEXE
 40
0.18
  9
$DIMTP
 40
0.0
  9
$DIMTM
 40
0.0
  9
$DIMTXT
 40
0.18
  9
$DIMCEN
 40
0.09
  9
$DIMTSZ
 40
0.0
  9
$DIMTOL
 70
     0
  9
$DIMLIM
 70
     0
  9
$DIMTIH
 70
     1
  9
$DIMTOH
 70
     1
  9
$DIMSE1
 70
     0
  9
$DIMSE2
 70
     0
  9
$DIMTAD
 70
     0
  9
$DIMZIN
 70
     0
  9
$DIMBLK
  1

  9
$DIMASO
 70
     1
  9
$DIMSHO
 70
     1
  9
$DIMPOST
  1

  9
$DIMAPOST
  1

  9
$DIMALT
 70
     0
  9
$DIMALTD
 70
     2
  9
$DIMALTF
 40
25.4
  9
$DIMLFAC
 40
1.0
  9
$DIMTOFL
 70
     0
  9
$DIMTVP
 40
0.0
  9
$DIMTIX
 70
     0
  9
$DIMSOXD
 70
     0
  9
$DIMSAH
 70
     0
  9
$DIMBLK1
  1

  9
$DIMBLK2
  1

  9
$DIMSTYLE
  2
STANDARD
  9
$DIMCLRD
 70
     0
  9
$DIMCLRE
 70
     0
  9
$DIMCLRT
 70
     0
  9
$DIMTFAC
 40
1.0
  9
$DIMGAP
 40
0.09
  9
$DIMJUST
 70
     0
  9
$DIMSD1
 70
     0
  9
$DIMSD2
 70
     0
  9
$DIMTOLJ
 70
     1
  9
$DIMTZIN
 70
     0
  9
$DIMALTZ
 70
     0
  9
$DIMALTTZ
 70
     0
  9
$DIMFIT
 70
     3
  9
$DIMUPT
 70
     0
  9
$DIMUNIT
 70
     2
  9
$DIMDEC
 70
     4
  9
$DIMTDEC
 70
     4
  9
$DIMALTU
 70
     2
  9
$DIMALTTD
 70
     2
  9
$DIMTXSTY
  7
STANDARD
  9
$DIMAUNIT
 70
     0
  9
$LUNITS
 70
     2
  9
$LUPREC
 70
     4
  9
$SKETCHINC
 40
0.1
  9
$FILLETRAD
 40
0.0
  9
$AUNITS
 70
     0
  9
$AUPREC
 70
     0
  9
$MENU
  1
acad
  9
$ELEVATION
 40
0.0
  9
$PELEVATION
 40
0.0
  9
$THICKNESS
 40
0.0
  9
$LIMCHECK
 70
     0
  9
$BLIPMODE
 70
     1
  9
$CHAMFERA
 40
0.0
  9
$CHAMFERB
 40
0.0
  9
$CHAMFERC
 40
0.0
  9
$CHAMFERD
 40
0.0
  9
$SKPOLY
 70
     0
  9
$TDCREATE
 40
2454513.026225289
  9
$TDUPDATE
 40
2454513.026225289
  9
$TDINDWG
 40
0.0000000000
  9
$TDUSRTIMER
 40
0.0000000000
  9
$USRTIMER
 70
     1
  9
$ANGBASE
 50
0.0
  9
$ANGDIR
 70
     0
  9
$PDMODE
 70
     0
  9
$PDSIZE
 40
0.0
  9
$PLINEWID
 40
0.0
  9
$COORDS
 70
     1
  9
$SPLFRAME
 70
     0
  9
$SPLINETYPE
 70
     6
  9
$SPLINESEGS
 70
     8
  9
$ATTDIA
 70
     0
  9
$ATTREQ
 70
     1
  9
$HANDLING
 70
     1
  9
$HANDSEED
  5
908
  9
$SURFTAB1
 70
     6
  9
$SURFTAB2
 70
     6
  9
$SURFTYPE
 70
     6
  9
$SURFU
 70
     6
  9
$SURFV
 70
     6
  9
$UCSNAME
  2

  9
$UCSORG
 10
0.0
 20
0.0
 30
0.0
  9
$UCSXDIR
 10
1.0
 20
0.0
 30
0.0
  9
$UCSYDIR
 10
0.0
 20
1.0
 30
0.0
  9
$PUCSNAME
  2

  9
$PUCSORG
 10
0.0
 20
0.0
 30
0.0
  9
$PUCSXDIR
 10
1.0
 20
0.0
 30
0.0
  9
$PUCSYDIR
 10
0.0
 20
1.0
 30
0.0
  9
$USERI1
 70
     0
  9
$USERI2
 70
     0
  9
$USERI3
 70
     0
  9
$USERI4
 70
     0
  9
$USERI5
 70
     0
  9
$USERR1
 40
0.0
  9
$USERR2
 40
0.0
  9
$USERR3
 40
0.0
  9
$USERR4
 40
0.0
  9
$USERR5
 40
0.0
  9
$WORLDVIEW
 70
     1
  9
$SHADEDGE
 70
     3
  9
$SHADEDIF
 70
    70
  9
$TILEMODE
 70
     1
  9
$MAXACTVP
 70
    16
  9
$PINSBASE
 10
0.0
 20
0.0
 30
0.0
  9
$PLIMCHECK
 70
     0
  9
$PEXTMIN
 10
1.000000E+20
 20
1.000000E+20
 30
1.000000E+20
  9
$PEXTMAX
 10
-1.000000E+20
 20
-1.000000E+20
 30
-1.000000E+20
  9
$PLIMMIN
 10
0.0
 20
0.0
  9
$PLIMMAX
 10
12.0
 20
9.0
  9
$UNITMODE
 70
     0
  9
$VISRETAIN
 70
     0
  9
$PLINEGEN
 70
     1
  9
$PSLTSCALE
 70
     0
  9
$TREEDEPTH
 70
  3020
  9
$PICKSTYLE
 70
     1
  9
$CMLSTYLE
  2
Standard
  9
$CMLJUST
 70
     0
  9
$CMLSCALE
 40
1.0
  9
$PROXYGRAPHICS
 70
     0
  9
$MEASUREMENT
 70
     0
  0
ENDSEC
  0
SECTION
  2
CLASSES
  0
CLASS
  1
LWPOLYLINE
  2
AcDbPolyline
  3
"AutoCAD"
 90
        0
280
     0
281
     1
  0
CLASS
  1
IMAGE
  2
AcDbRasterImage
  3
ISM
 90
      127
280
     0
281
     1
  0
CLASS
  1
OLE2FRAME
  2
AcDbOle2Frame
  3
""
 90
        0
280
     0
281
     1
  0
CLASS
  1
HATCH
  2
AcDbHatch
  3
"ACAD_SEDONA"
 90
        0
280
     0
281
     1
  0
CLASS
  1
DICTIONARYVAR
  2
AcDbDictionaryVar
  3
"AutoCAD"
 90
        0
280
     0
281
     0
  0
CLASS
  1
RASTERVARIABLES
  2
AcDbRasterVariables
  3
ISM
 90
        0
280
     0
281
     0
  0
CLASS
  1
IMAGEDEF
  2
AcDbRasterImageDef
  3
ISM
 90
        0
280
     0
281
     0
  0
CLASS
  1
IMAGEDEF_REACTOR
  2
AcDbRasterImageDefReactor
  3
ISM
 90
        1
280
     0
281
     0
  0
CLASS
  1
IDBUFFER
  2
AcDbIdBuffer
  3
"Acad"
 90
        0
280
     0
281
     0
  0
CLASS
  1
SPATIAL_FILTER
  2
AcDbSpatialFilter
  3
"Acad"
 90
        0
280
     0
281
     0
  0
CLASS
  1
XRECORD
  2
AcDbXrecord
  3
"<Built In>"
 90
        0
280
     0
281
     0
  0
CLASS
  1
SORTENTSTABLE
  2
AcDbSortentsTable
  3
"AutoCAD"
 90
        0
280
     0
281
     0
  0
CLASS
  1
LAYER_INDEX
  2
AcDbLayerIndex
  3
"Acad"
 90
        0
280
     0
281
     0
  0
CLASS
  1
SPATIAL_INDEX
  2
AcDbSpatialIndex
  3
"Acad"
 90
        0
280
     0
281
     0
  0
CLASS
  1
OBJECT_PTR
  2
CAseDLPNTableRecord
  3
"ASE-LPNTableRecord"
 90
        1
280
     0
281
     0
  0
CLASS
  1
LAYOUT
  2
AcDbLayout
  3
"AutoCAD 2000"
 90
        1
280
     0
281
     0
  0
CLASS
  1
PLOTSETTINGS
  2
AcDbPlotSettings
  3
"AutoCAD 2000"
 90
        1
280
     0
281
     0
  0
CLASS
  1
ACDBDICTIONARYWDFLT
  2
AcDbDictionaryWithDefault
  3
"AutoCAD 2000"
 90
        1
280
     0
281
     0
  0
CLASS
  1
ACDBPLACEHOLDER
  2
AcDbPlaceHolder
  3
"AutoCAD 2000"
 90
        1
280
     0
281
     0
  0
CLASS
  1
VBA_PROJECT
  2
AcDbVbaProject
  3
"acadvba"
 90
        1
280
     0
281
     0
  0
CLASS
  1
WIPEOUT
  2
AcDbWipeout
  3
WipeOut|AutoCAD Express Tool|expresstools@autodesk.com
 90
      127
280
     0
281
     1
  0
CLASS
  1
WIPEOUTVARIABLES
  2
AcDbWipeoutVariables
  3
WipeOut|AutoCAD Express Tool|expresstools@autodesk.com
 90
        0
280
     0
281
     0
  0
CLASS
  1
RTEXT
  2
RText
  3
RText|AutoCAD Express Tool|expresstools@autodesk.com
 90
        0
280
     0
281
     1
  0
CLASS
  1
ARCALIGNEDTEXT
  2
AcDbArcAlignedText
  3
ATEXT|AutoCAD Express Tool|expresstools@autodesk.com
 90
        0
280
     0
281
     1
  0
ENDSEC
  0
SECTION
  2
TABLES
  0
TABLE
  2
VPORT
  5
7
100
AcDbSymbolTable
 70
     1
  0
VPORT
  5
15
100
AcDbSymbolTableRecord
100
AcDbViewportTableRecord
  2
*ACTIVE
 70
     0
 10
0.0
 20
0.0
 11
1.0
 21
1.0
 12
989.0
 22
1515.0
 13
0.0
 23
0.0
 14
1.0
 24
1.0
 15
0.0
 25
0.0
 16
0.0
 26
0.0
 36
1.0
 17
0.0
 27
0.0
 37
0.0
 40
2800.0
 41
1.722533
 42
50.0
 43
0.0
 44
0.0
 50
0.0
 51
0.0
 71
     0
 72
   100
 73
     1
 74
     1
 75
     0
 76
     0
 77
     0
 78
     0
  0
ENDTAB
  0
TABLE
  2
LTYPE
  5
4
100
AcDbSymbolTable
 70
     9
  0
LTYPE
  5
11
100
AcDbSymbolTableRecord
100
AcDbLinetypeTableRecord
  2
BYBLOCK
 70
    64
  3

 72
    65
 73
     0
 40
0.0
  0
LTYPE
  5
12
100
AcDbSymbolTableRecord
100
AcDbLinetypeTableRecord
  2
BYLAYER
 70
    64
  3

 72
    65
 73
     0
 40
0.0
  0
LTYPE
  5
13
100
AcDbSymbolTableRecord
100
AcDbLinetypeTableRecord
  2
CONTINUOUS
 70
    64
  3
実線
 72
    65
 73
     0
 40
0.0
  0
LTYPE
  5
1D
100
AcDbSymbolTableRecord
100
AcDbLinetypeTableRecord
  2
EXLTYPE1
 70
    64
  3
破線
 72
    65
 73
     2
 40
3.0
 49
2.0
 74
     0
 49
-1.0
 74
     0
  0
LTYPE
  5
1E
100
AcDbSymbolTableRecord
100
AcDbLinetypeTableRecord
  2
EXLTYPE2
 70
    64
  3
点線
 72
    65
 73
     2
 40
2.0
 49
1.0
 74
     0
 49
-1.0
 74
     0
  0
LTYPE
  5
1F
100
AcDbSymbolTableRecord
100
AcDbLinetypeTableRecord
  2
EXLTYPE3
 70
    64
  3
一点鎖線
 72
    65
 73
     4
 40
10.0
 49
7.0
 74
     0
 49
-1.0
 74
     0
 49
1.0
 74
     0
 49
-1.0
 74
     0
  0
LTYPE
  5
20
100
AcDbSymbolTableRecord
100
AcDbLinetypeTableRecord
  2
EXLTYPE4
 70
    64
  3
二点鎖線
 72
    65
 73
     6
 40
12.0
 49
7.0
 74
     0
 49
-1.0
 74
     0
 49
1.0
 74
     0
 49
-1.0
 74
     0
 49
1.0
 74
     0
 49
-1.0
 74
     0
  0
LTYPE
  5
21
100
AcDbSymbolTableRecord
100
AcDbLinetypeTableRecord
  2
EXLTYPE5
 70
    64
  3
三点鎖線
 72
    65
 73
     8
 40
37.0
 49
30.0
 74
     0
 49
-1.0
 74
     0
 49
1.0
 74
     0
 49
-1.0
 74
     0
 49
1.0
 74
     0
 49
-1.0
 74
     0
 49
1.0
 74
     0
 49
-1.0
 74
     0
  0
LTYPE
  5
22
100
AcDbSymbolTableRecord
100
AcDbLinetypeTableRecord
  2
EXLTYPE6
 70
    64
  3
四点鎖線
 72
    65
 73
    10
 40
39.0
 49
30.0
 74
     0
 49
-1.0
 74
     0
 49
1.0
 74
     0
 49
-1.0
 74
     0
 49
1.0
 74
     0
 49
-1.0
 74
     0
 49
1.0
 74
     0
 49
-1.0
 74
     0
 49
1.0
 74
     0
 49
-1.0
 74
     0
  0
ENDTAB
  0
TABLE
  2
LAYER
  5
2
100
AcDbSymbolTable
 70
     6
  0
LAYER
  5
14
100
AcDbSymbolTableRecord
100
AcDbLayerTableRecord
  2
0
 70
     0
 62
     7
  6
CONTINUOUS
  0
LAYER
  5
25
100
AcDbSymbolTableRecord
100
AcDbLayerTableRecord
  2
枠_
 70
    64
 62
     7
  6
CONTINUOUS
  0
LAYER
  5
26
100
AcDbSymbolTableRecord
100
AcDbLayerTableRecord
  2
スト－ル
 70
    64
 62
     7
  6
CONTINUOUS
  0
LAYER
  5
27
100
AcDbSymbolTableRecord
100
AcDbLayerTableRecord
  2
フラッシュバルブ
 70
    64
 62
     7
  6
CONTINUOUS
  0
LAYER
  5
28
100
AcDbSymbolTableRecord
100
AcDbLayerTableRecord
  2
寸法
 70
    64
 62
     7
  6
CONTINUOUS
  0
LAYER
  5
29
100
AcDbSymbolTableRecord
100
AcDbLayerTableRecord
  2
器具明細表
 70
    64
 62
     7
  6
CONTINUOUS
  0
ENDTAB
  0
TABLE
  2
STYLE
  5
3
100
AcDbSymbolTable
 70
     3
  0
STYLE
  5
17
100
AcDbSymbolTableRecord
100
AcDbTextStyleTableRecord
  2
STANDARD
 70
     0
 40
0.0
 41
1.0
 50
0.0
 71
     0
 42
0.0
  3
monotxt
  4
extfont
  0
STYLE
  5
23
100
AcDbSymbolTableRecord
100
AcDbTextStyleTableRecord
  2
EXCADSTD
 70
    64
 40
0.0
 41
1.0
 50
0.0
 71
     0
 42
0.2
  3
monotxt
  4
extfont
  0
STYLE
  5
24
100
AcDbSymbolTableRecord
100
AcDbTextStyleTableRecord
  2
EXCADVERT
 70
    68
 40
0.0
 41
1.0
 50
0.0
 71
     0
 42
0.286885
  3
monotxt
  4
extfont
  0
ENDTAB
  0
TABLE
  2
VIEW
  5
5
100
AcDbSymbolTable
 70
     0
  0
ENDTAB
  0
TABLE
  2
UCS
  5
6
100
AcDbSymbolTable
 70
     0
  0
ENDTAB
  0
TABLE
  2
APPID
  5
8
100
AcDbSymbolTable
 70
     1
  0
APPID
  5
16
100
AcDbSymbolTableRecord
100
AcDbRegAppTableRecord
  2
ACAD
 70
     0
  0
ENDTAB
  0
TABLE
  2
DIMSTYLE
  5
9
100
AcDbSymbolTable
 70
     1
  0
DIMSTYLE
105
18
100
AcDbSymbolTableRecord
100
AcDbDimStyleTableRecord
  2
STANDARD
 70
     0
  3

  4

  5

  6

  7

 40
1.0
 41
0.18
 42
0.0625
 43
0.38
 44
0.18
 45
0.0
 46
0.0
 47
0.0
 48
0.0
 71
     0
 72
     0
 73
     1
 74
     1
 75
     0
 76
     0
 77
     0
 78
     0
140
0.18
141
0.09
142
0.0
143
25.4
144
1.0
145
0.0
146
1.0
147
0.09
170
     0
171
     2
172
     1
173
     0
174
     0
175
     0
176
     0
177
     0
178
     0
270
     2
271
     4
272
     4
273
     2
274
     2
275
     0
280
     0
281
     0
282
     0
283
     1
284
     0
285
     0
286
     0
287
     0
288
     0
340
17
  0
ENDTAB
  0
TABLE
  2
BLOCK_RECORD
  5
1
100
AcDbSymbolTable
 70
    15
  0
BLOCK_RECORD
  5
A
100
AcDbSymbolTableRecord
100
AcDbBlockTableRecord
  2
*MODEL_SPACE
  0
BLOCK_RECORD
  5
B
100
AcDbSymbolTableRecord
100
AcDbBlockTableRecord
  2
*PAPER_SPACE
  0
BLOCK_RECORD
  5
2A
100
AcDbSymbolTableRecord
100
AcDbBlockTableRecord
  2
_EX_NORM
  0
BLOCK_RECORD
  5
2B
100
AcDbSymbolTableRecord
100
AcDbBlockTableRecord
  2
_EX_BNORM
  0
BLOCK_RECORD
  5
2C
100
AcDbSymbolTableRecord
100
AcDbBlockTableRecord
  2
_EX_BCIR
  0
BLOCK_RECORD
  5
2D
100
AcDbSymbolTableRecord
100
AcDbBlockTableRecord
  2
_EX_RCIVIL
  0
BLOCK_RECORD
  5
2E
100
AcDbSymbolTableRecord
100
AcDbBlockTableRecord
  2
_EX_SLANT
  0
BLOCK_RECORD
  5
2F
100
AcDbSymbolTableRecord
100
AcDbBlockTableRecord
  2
_EX_NONE
  0
BLOCK_RECORD
  5
30
100
AcDbSymbolTableRecord
100
AcDbBlockTableRecord
  2
_EX_CIVIL
  0
BLOCK_RECORD
  5
31
100
AcDbSymbolTableRecord
100
AcDbBlockTableRecord
  2
_EX_WCIR
  0
BLOCK_RECORD
  5
32
100
AcDbSymbolTableRecord
100
AcDbBlockTableRecord
  2
_EX_WCIR2
  0
BLOCK_RECORD
  5
33
100
AcDbSymbolTableRecord
100
AcDbBlockTableRecord
  2
_EX_WNORM
  0
BLOCK_RECORD
  5
34
100
AcDbSymbolTableRecord
100
AcDbBlockTableRecord
  2
_EX_NNORM
  0
BLOCK_RECORD
  5
35
100
AcDbSymbolTableRecord
100
AcDbBlockTableRecord
  2
_EX_BBOX
  0
BLOCK_RECORD
  5
36
100
AcDbSymbolTableRecord
100
AcDbBlockTableRecord
  2
_EX_WBOX
  0
BLOCK_RECORD
  5
37
100
AcDbSymbolTableRecord
100
AcDbBlockTableRecord
  2
_EX_INTEGRAL
  0
BLOCK_RECORD
  5
38
100
AcDbSymbolTableRecord
100
AcDbBlockTableRecord
  2
NC510LSK
  0
ENDTAB
  0
ENDSEC
  0
SECTION
  2
BLOCKS
  0
BLOCK
  5
D
100
AcDbEntity
  8
0
100
AcDbBlockBegin
  2
*MODEL_SPACE
 70
     0
 10
0.0
 20
0.0
 30
0.0
  3
*MODEL_SPACE
  1

  0
ENDBLK
  5
E
100
AcDbEntity
  8
0
100
AcDbBlockEnd
  0
BLOCK
  5
F
100
AcDbEntity
 67
     1
  8
0
100
AcDbBlockBegin
  2
*PAPER_SPACE
 70
     0
 10
0.0
 20
0.0
 30
0.0
  3
*PAPER_SPACE
  1

  0
ENDBLK
  5
10
100
AcDbEntity
 67
     1
  8
0
100
AcDbBlockEnd
  0
BLOCK
  5
39
100
AcDbEntity
  8
0
100
AcDbBlockBegin
  2
_EX_NORM
 70
     0
 10
0.0
 20
0.0
 30
0.0
  3
_EX_NORM
  1

  0
LINE
  5
3A
100
AcDbEntity
  8
0
  6
CONTINUOUS
 62
     0
100
AcDbLine
 10
0.0
 20
0.0
 30
0.0
 11
-1.0
 21
0.0
 31
0.0
  0
LINE
  5
3B
100
AcDbEntity
  8
0
  6
CONTINUOUS
 62
     0
100
AcDbLine
 10
0.0
 20
0.0
 30
0.0
 11
-1.0
 21
0.166667
 31
0.0
  0
LINE
  5
3C
100
AcDbEntity
  8
0
  6
CONTINUOUS
 62
     0
100
AcDbLine
 10
0.0
 20
0.0
 30
0.0
 11
-1.0
 21
-0.166667
 31
0.0
  0
ENDBLK
  5
3D
100
AcDbEntity
  8
0
100
AcDbBlockEnd
  0
BLOCK
  5
3E
100
AcDbEntity
  8
0
100
AcDbBlockBegin
  2
_EX_BNORM
 70
     0
 10
0.0
 20
0.0
 30
0.0
  3
_EX_BNORM
  1

  0
LINE
  5
3F
100
AcDbEntity
  8
0
  6
CONTINUOUS
 62
     0
100
AcDbLine
 10
0.0
 20
0.0
 30
0.0
 11
-1.0
 21
0.0
 31
0.0
  0
LINE
  5
40
100
AcDbEntity
  8
0
  6
CONTINUOUS
 62
     0
100
AcDbLine
 10
0.0
 20
0.0
 30
0.0
 11
-1.0
 21
0.166667
 31
0.0
  0
LINE
  5
41
100
AcDbEntity
  8
0
  6
CONTINUOUS
 62
     0
100
AcDbLine
 10
0.0
 20
0.0
 30
0.0
 11
-1.0
 21
-0.166667
 31
0.0
  0
LINE
  5
42
100
AcDbEntity
  8
0
  6
CONTINUOUS
 62
     0
100
AcDbLine
 10
0.0
 20
0.0
 30
0.0
 11
-1.0
 21
0.083333
 31
0.0
  0
LINE
  5
43
100
AcDbEntity
  8
0
  6
CONTINUOUS
 62
     0
100
AcDbLine
 10
0.0
 20
0.0
 30
0.0
 11
-1.0
 21
-0.083333
 31
0.0
  0
LINE
  5
44
100
AcDbEntity
  8
0
  6
CONTINUOUS
 62
     0
100
AcDbLine
 10
-1.0
 20
0.166667
 30
0.0
 11
-1.0
 21
-0.166667
 31
0.0
  0
ENDBLK
  5
45
100
AcDbEntity
  8
0
100
AcDbBlockEnd
  0
BLOCK
  5
46
100
AcDbEntity
  8
0
100
AcDbBlockBegin
  2
_EX_BCIR
 70
     0
 10
0.0
 20
0.0
 30
0.0
  3
_EX_BCIR
  1

  0
LINE
  5
47
100
AcDbEntity
  8
0
  6
CONTINUOUS
 62
     0
100
AcDbLine
 10
0.0
 20
0.0
 30
0.0
 11
-1.0
 21
0.0
 31
0.0
  0
CIRCLE
  5
48
100
AcDbEntity
  8
0
  6
CONTINUOUS
 62
     0
100
AcDbCircle
 10
0.0
 20
0.0
 30
0.0
 40
0.5
  0
CIRCLE
  5
49
100
AcDbEntity
  8
0
  6
CONTINUOUS
 62
     0
100
AcDbCircle
 10
0.0
 20
0.0
 30
0.0
 40
0.25
  0
ENDBLK
  5
4A
100
AcDbEntity
  8
0
100
AcDbBlockEnd
  0
BLOCK
  5
4B
100
AcDbEntity
  8
0
100
AcDbBlockBegin
  2
_EX_RCIVIL
 70
     0
 10
0.0
 20
0.0
 30
0.0
  3
_EX_RCIVIL
  1

  0
LINE
  5
4C
100
AcDbEntity
  8
0
  6
CONTINUOUS
 62
     0
100
AcDbLine
 10
0.0
 20
0.0
 30
0.0
 11
-1.0
 21
0.0
 31
0.0
  0
LINE
  5
4D
100
AcDbEntity
  8
0
  6
CONTINUOUS
 62
     0
100
AcDbLine
 10
-1.0
 20
-0.25
 30
0.0
 11
0.0
 21
-0.25
 31
0.0
  0
LINE
  5
4E
100
AcDbEntity
  8
0
  6
CONTINUOUS
 62
     0
100
AcDbLine
 10
-1.0
 20
-0.125
 30
0.0
 11
0.0
 21
-0.125
 31
0.0
  0
ENDBLK
  5
4F
100
AcDbEntity
  8
0
100
AcDbBlockEnd
  0
BLOCK
  5
50
100
AcDbEntity
  8
0
100
AcDbBlockBegin
  2
_EX_SLANT
 70
     0
 10
0.0
 20
0.0
 30
0.0
  3
_EX_SLANT
  1

  0
LINE
  5
51
100
AcDbEntity
  8
0
  6
CONTINUOUS
 62
     0
100
AcDbLine
 10
0.0
 20
0.0
 30
0.0
 11
-1.0
 21
0.0
 31
0.0
  0
LINE
  5
52
100
AcDbEntity
  8
0
  6
CONTINUOUS
 62
     0
100
AcDbLine
 10
0.707107
 20
0.707107
 30
0.0
 11
-0.707107
 21
-0.707107
 31
0.0
  0
ENDBLK
  5
53
100
AcDbEntity
  8
0
100
AcDbBlockEnd
  0
BLOCK
  5
54
100
AcDbEntity
  8
0
100
AcDbBlockBegin
  2
_EX_NONE
 70
     0
 10
0.0
 20
0.0
 30
0.0
  3
_EX_NONE
  1

  0
LINE
  5
55
100
AcDbEntity
  8
0
  6
CONTINUOUS
 62
     0
100
AcDbLine
 10
0.0
 20
0.0
 30
0.0
 11
-1.0
 21
0.0
 31
0.0
  0
ENDBLK
  5
56
100
AcDbEntity
  8
0
100
AcDbBlockEnd
  0
BLOCK
  5
57
100
AcDbEntity
  8
0
100
AcDbBlockBegin
  2
_EX_CIVIL
 70
     0
 10
0.0
 20
0.0
 30
0.0
  3
_EX_CIVIL
  1

  0
LINE
  5
58
100
AcDbEntity
  8
0
  6
CONTINUOUS
 62
     0
100
AcDbLine
 10
0.0
 20
0.0
 30
0.0
 11
-1.0
 21
0.0
 31
0.0
  0
LINE
  5
59
100
AcDbEntity
  8
0
  6
CONTINUOUS
 62
     0
100
AcDbLine
 10
-1.0
 20
0.25
 30
0.0
 11
0.0
 21
0.25
 31
0.0
  0
LINE
  5
5A
100
AcDbEntity
  8
0
  6
CONTINUOUS
 62
     0
100
AcDbLine
 10
-1.0
 20
0.125
 30
0.0
 11
0.0
 21
0.125
 31
0.0
  0
ENDBLK
  5
5B
100
AcDbEntity
  8
0
100
AcDbBlockEnd
  0
BLOCK
  5
5C
100
AcDbEntity
  8
0
100
AcDbBlockBegin
  2
_EX_WCIR
 70
     0
 10
0.0
 20
0.0
 30
0.0
  3
_EX_WCIR
  1

  0
LINE
  5
5D
100
AcDbEntity
  8
0
  6
CONTINUOUS
 62
     0
100
AcDbLine
 10
0.0
 20
0.0
 30
0.0
 11
-1.0
 21
0.0
 31
0.0
  0
CIRCLE
  5
5E
100
AcDbEntity
  8
0
  6
CONTINUOUS
 62
     0
100
AcDbCircle
 10
0.0
 20
0.0
 30
0.0
 40
0.5
  0
ENDBLK
  5
5F
100
AcDbEntity
  8
0
100
AcDbBlockEnd
  0
BLOCK
  5
60
100
AcDbEntity
  8
0
100
AcDbBlockBegin
  2
_EX_WCIR2
 70
     0
 10
0.0
 20
0.0
 30
0.0
  3
_EX_WCIR2
  1

  0
LINE
  5
61
100
AcDbEntity
  8
0
  6
CONTINUOUS
 62
     0
100
AcDbLine
 10
-0.5
 20
0.0
 30
0.0
 11
-1.0
 21
0.0
 31
0.0
  0
CIRCLE
  5
62
100
AcDbEntity
  8
0
  6
CONTINUOUS
 62
     0
100
AcDbCircle
 10
0.0
 20
0.0
 30
0.0
 40
0.5
  0
ENDBLK
  5
63
100
AcDbEntity
  8
0
100
AcDbBlockEnd
  0
BLOCK
  5
64
100
AcDbEntity
  8
0
100
AcDbBlockBegin
  2
_EX_WNORM
 70
     0
 10
0.0
 20
0.0
 30
0.0
  3
_EX_WNORM
  1

  0
LINE
  5
65
100
AcDbEntity
  8
0
  6
CONTINUOUS
 62
     0
100
AcDbLine
 10
-1.0
 20
0.0
 30
0.0
 11
-1.0
 21
0.0
 31
0.0
  0
LINE
  5
66
100
AcDbEntity
  8
0
  6
CONTINUOUS
 62
     0
100
AcDbLine
 10
0.0
 20
0.0
 30
0.0
 11
-1.0
 21
0.166667
 31
0.0
  0
LINE
  5
67
100
AcDbEntity
  8
0
  6
CONTINUOUS
 62
     0
100
AcDbLine
 10
0.0
 20
0.0
 30
0.0
 11
-1.0
 21
-0.166667
 31
0.0
  0
LINE
  5
68
100
AcDbEntity
  8
0
  6
CONTINUOUS
 62
     0
100
AcDbLine
 10
-1.0
 20
0.166667
 30
0.0
 11
-1.0
 21
-0.166667
 31
0.0
  0
ENDBLK
  5
69
100
AcDbEntity
  8
0
100
AcDbBlockEnd
  0
BLOCK
  5
6A
100
AcDbEntity
  8
0
100
AcDbBlockBegin
  2
_EX_NNORM
 70
     0
 10
0.0
 20
0.0
 30
0.0
  3
_EX_NNORM
  1

  0
LINE
  5
6B
100
AcDbEntity
  8
0
  6
CONTINUOUS
 62
     0
100
AcDbLine
 10
0.0
 20
0.0
 30
0.0
 11
-1.0
 21
0.0
 31
0.0
  0
LINE
  5
6C
100
AcDbEntity
  8
0
  6
CONTINUOUS
 62
     0
100
AcDbLine
 10
0.0
 20
0.0
 30
0.0
 11
-1.0
 21
0.166667
 31
0.0
  0
LINE
  5
6D
100
AcDbEntity
  8
0
  6
CONTINUOUS
 62
     0
100
AcDbLine
 10
0.0
 20
0.0
 30
0.0
 11
-1.0
 21
-0.166667
 31
0.0
  0
LINE
  5
6E
100
AcDbEntity
  8
0
  6
CONTINUOUS
 62
     0
100
AcDbLine
 10
-1.0
 20
0.166667
 30
0.0
 11
-1.0
 21
-0.166667
 31
0.0
  0
ENDBLK
  5
6F
100
AcDbEntity
  8
0
100
AcDbBlockEnd
  0
BLOCK
  5
70
100
AcDbEntity
  8
0
100
AcDbBlockBegin
  2
_EX_BBOX
 70
     0
 10
0.0
 20
0.0
 30
0.0
  3
_EX_BBOX
  1

  0
LINE
  5
71
100
AcDbEntity
  8
0
  6
CONTINUOUS
 62
     0
100
AcDbLine
 10
0.0
 20
0.0
 30
0.0
 11
-1.0
 21
0.0
 31
0.0
  0
LINE
  5
72
100
AcDbEntity
  8
0
  6
CONTINUOUS
 62
     0
100
AcDbLine
 10
-0.5
 20
0.5
 30
0.0
 11
0.5
 21
0.5
 31
0.0
  0
LINE
  5
73
100
AcDbEntity
  8
0
  6
CONTINUOUS
 62
     0
100
AcDbLine
 10
0.5
 20
0.5
 30
0.0
 11
0.5
 21
-0.5
 31
0.0
  0
LINE
  5
74
100
AcDbEntity
  8
0
  6
CONTINUOUS
 62
     0
100
AcDbLine
 10
0.5
 20
-0.5
 30
0.0
 11
-0.5
 21
-0.5
 31
0.0
  0
LINE
  5
75
100
AcDbEntity
  8
0
  6
CONTINUOUS
 62
     0
100
AcDbLine
 10
-0.5
 20
-0.5
 30
0.0
 11
-0.5
 21
0.5
 31
0.0
  0
LINE
  5
76
100
AcDbEntity
  8
0
  6
CONTINUOUS
 62
     0
100
AcDbLine
 10
-0.25
 20
0.25
 30
0.0
 11
0.25
 21
0.25
 31
0.0
  0
LINE
  5
77
100
AcDbEntity
  8
0
  6
CONTINUOUS
 62
     0
100
AcDbLine
 10
0.25
 20
0.25
 30
0.0
 11
0.25
 21
-0.25
 31
0.0
  0
LINE
  5
78
100
AcDbEntity
  8
0
  6
CONTINUOUS
 62
     0
100
AcDbLine
 10
0.25
 20
-0.25
 30
0.0
 11
-0.25
 21
-0.25
 31
0.0
  0
LINE
  5
79
100
AcDbEntity
  8
0
  6
CONTINUOUS
 62
     0
100
AcDbLine
 10
-0.25
 20
-0.25
 30
0.0
 11
-0.25
 21
0.25
 31
0.0
  0
ENDBLK
  5
7A
100
AcDbEntity
  8
0
100
AcDbBlockEnd
  0
BLOCK
  5
7B
100
AcDbEntity
  8
0
100
AcDbBlockBegin
  2
_EX_WBOX
 70
     0
 10
0.0
 20
0.0
 30
0.0
  3
_EX_WBOX
  1

  0
LINE
  5
7C
100
AcDbEntity
  8
0
  6
CONTINUOUS
 62
     0
100
AcDbLine
 10
-0.5
 20
0.0
 30
0.0
 11
-1.0
 21
0.0
 31
0.0
  0
LINE
  5
7D
100
AcDbEntity
  8
0
  6
CONTINUOUS
 62
     0
100
AcDbLine
 10
-0.5
 20
0.5
 30
0.0
 11
0.5
 21
0.5
 31
0.0
  0
LINE
  5
7E
100
AcDbEntity
  8
0
  6
CONTINUOUS
 62
     0
100
AcDbLine
 10
0.5
 20
0.5
 30
0.0
 11
0.5
 21
-0.5
 31
0.0
  0
LINE
  5
7F
100
AcDbEntity
  8
0
  6
CONTINUOUS
 62
     0
100
AcDbLine
 10
0.5
 20
-0.5
 30
0.0
 11
-0.5
 21
-0.5
 31
0.0
  0
LINE
  5
80
100
AcDbEntity
  8
0
  6
CONTINUOUS
 62
     0
100
AcDbLine
 10
-0.5
 20
-0.5
 30
0.0
 11
-0.5
 21
0.5
 31
0.0
  0
ENDBLK
  5
81
100
AcDbEntity
  8
0
100
AcDbBlockEnd
  0
BLOCK
  5
82
100
AcDbEntity
  8
0
100
AcDbBlockBegin
  2
_EX_INTEGRAL
 70
     0
 10
0.0
 20
0.0
 30
0.0
  3
_EX_INTEGRAL
  1

  0
LINE
  5
83
100
AcDbEntity
  8
0
  6
CONTINUOUS
 62
     0
100
AcDbLine
 10
0.0
 20
0.0
 30
0.0
 11
-1.0
 21
0.0
 31
0.0
  0
ARC
  5
84
100
AcDbEntity
  8
0
  6
CONTINUOUS
 62
     0
100
AcDbCircle
 10
0.542115
 20
0.164992
 30
0.0
 40
0.56667
100
AcDbArc
 50
73.07249
 51
196.927513
  0
ARC
  5
85
100
AcDbEntity
  8
0
  6
CONTINUOUS
 62
     0
100
AcDbCircle
 10
-0.542115
 20
-0.164992
 30
0.0
 40
0.56667
100
AcDbArc
 50
253.072487
 51
16.927513
  0
ENDBLK
  5
86
100
AcDbEntity
  8
0
100
AcDbBlockEnd
  0
BLOCK
  5
87
100
AcDbEntity
  8
0
100
AcDbBlockBegin
  2
NC510LSK
 70
     0
 10
0.0
 20
0.0
 30
0.0
  3
NC510LSK
  1

  0
POINT
  5
88
100
AcDbEntity
  8
0
  6
CONTINUOUS
 62
     7
100
AcDbPoint
 10
0.0
 20
0.0
 30
0.0
  0
ENDBLK
  5
89
100
AcDbEntity
  8
0
100
AcDbBlockEnd
  0
ENDSEC
  0
SECTION
  2
ENTITIES
  0
LEADER
  5
8A
100
AcDbEntity
  8
スト－ル
  6
CONTINUOUS
 62
     6
100
AcDbLeader
  3
STANDARD
 73
     3
 74
     1
 75
     0
 40
0.0
 76
     2
 10
1700.972138
 20
1489.787018
 30
0.0
 10
1611.086426
 20
1541.682617
 30
0.0
 77
     6
1001
ACAD
1000
DSTYLE
1002
{
1070
    41
1040
35.0
1070
     5
1000
_EX_NORM
1070
     6
1000
_EX_NORM
1070
     7
1000
_EX_NORM
1070
   341
1005
2A
1002
}
  0
LEADER
  5
8B
100
AcDbEntity
  8
スト－ル
  6
CONTINUOUS
 62
     6
100
AcDbLeader
  3
STANDARD
 73
     3
 74
     1
 75
     0
 40
0.0
 76
     2
 10
1542.910392
 20
574.8
 30
0.0
 10
1501.276939
 20
502.688641
 30
0.0
 77
     6
1001
ACAD
1000
DSTYLE
1002
{
1070
    41
1040
35.0
1070
     5
1000
_EX_NORM
1070
     6
1000
_EX_NORM
1070
     7
1000
_EX_NORM
1070
   341
1005
2A
1002
}
  0
LEADER
  5
8C
100
AcDbEntity
  8
スト－ル
  6
CONTINUOUS
 62
     6
100
AcDbLeader
  3
STANDARD
 73
     3
 74
     1
 75
     0
 40
0.0
 76
     2
 10
1540.410522
 20
503.550153
 30
0.0
 10
1498.777069
 20
431.438794
 30
0.0
 77
     6
1001
ACAD
1000
DSTYLE
1002
{
1070
    41
1040
35.0
1070
     5
1000
_EX_NORM
1070
     6
1000
_EX_NORM
1070
     7
1000
_EX_NORM
1070
   341
1005
2A
1002
}
  0
LEADER
  5
8D
100
AcDbEntity
  8
フラッシュバルブ
  6
CONTINUOUS
 62
     6
100
AcDbLeader
  3
STANDARD
 73
     3
 74
     1
 75
     0
 40
0.0
 76
     2
 10
1694.310274
 20
1653.8
 30
0.0
 10
1604.831057
 20
1705.460919
 30
0.0
 77
     6
1001
ACAD
1000
DSTYLE
1002
{
1070
    41
1040
35.0
1070
     5
1000
_EX_NORM
1070
     6
1000
_EX_NORM
1070
     7
1000
_EX_NORM
1070
   341
1005
2A
1002
}
  0
POLYLINE
  5
8E
100
AcDbEntity
  8
フラッシュバルブ
  6
CONTINUOUS
 62
     6
100
AcDb2dPolyline
 66
     1
 10
0.0
 20
0.0
 30
0.0
 70
   128
  0
VERTEX
  5
8F
100
AcDbEntity
  8
フラッシュバルブ
  6
CONTINUOUS
 62
     6
100
AcDbVertex
100
AcDb2dVertex
 10
1794.378474
 20
1652.496545
 30
0.0
  0
VERTEX
  5
90
100
AcDbEntity
  8
フラッシュバルブ
  6
CONTINUOUS
 62
     6
100
AcDbVertex
100
AcDb2dVertex
 10
1822.318385
 20
1700.889947
 30
0.0
  0
SEQEND
  5
91
100
AcDbEntity
  8
フラッシュバルブ
  6
CONTINUOUS
 62
     6
  0
LINE
  5
92
100
AcDbEntity
  8
フラッシュバルブ
  6
CONTINUOUS
 62
     6
100
AcDbLine
 10
1806.826643
 20
1685.724107
 30
0.0
 11
1794.378474
 21
1652.496545
 31
0.0
  0
LINE
  5
93
100
AcDbEntity
  8
フラッシュバルブ
  6
CONTINUOUS
 62
     6
100
AcDbLine
 10
1794.378474
 20
1652.496545
 30
0.0
 11
1816.930275
 21
1679.890779
 31
0.0
  0
TEXT
  5
94
100
AcDbEntity
  8
寸法
  6
CONTINUOUS
 62
     2
100
AcDbText
 10
873.3099
 20
1494.995944
 30
0.0
 40
40.0
  1
１７５
 50
90.0
 41
0.833
  7
EXCADSTD
 72
     5
 11
873.3099
 21
1613.995944
 31
0.0
100
AcDbText
  0
LINE
  5
95
100
AcDbEntity
  8
寸法
  6
CONTINUOUS
 62
     3
100
AcDbLine
 10
876.8099
 20
1641.996007
 30
0.0
 11
876.8099
 21
1466.99588
 31
0.0
  0
LINE
  5
96
100
AcDbEntity
  8
寸法
  6
CONTINUOUS
 62
     3
100
AcDbLine
 10
882.643234
 20
1606.996007
 30
0.0
 11
876.8099
 21
1641.996007
 31
0.0
  0
LINE
  5
97
100
AcDbEntity
  8
寸法
  6
CONTINUOUS
 62
     3
100
AcDbLine
 10
876.8099
 20
1641.996007
 30
0.0
 11
870.976567
 21
1606.996007
 31
0.0
  0
LINE
  5
98
100
AcDbEntity
  8
寸法
  6
CONTINUOUS
 62
     3
100
AcDbLine
 10
870.976567
 20
1501.99588
 30
0.0
 11
876.8099
 21
1466.99588
 31
0.0
  0
LINE
  5
99
100
AcDbEntity
  8
寸法
  6
CONTINUOUS
 62
     3
100
AcDbLine
 10
876.8099
 20
1466.99588
 30
0.0
 11
882.643234
 21
1501.99588
 31
0.0
  0
TEXT
  5
9A
100
AcDbEntity
  8
寸法
  6
CONTINUOUS
 62
     2
100
AcDbText
 10
873.3099
 20
967.49794
 30
0.0
 40
40.0
  1
８８０
 50
90.0
 41
0.833
  7
EXCADSTD
 72
     5
 11
873.3099
 21
1086.49794
 31
0.0
100
AcDbText
  0
LINE
  5
9B
100
AcDbEntity
  8
寸法
  6
CONTINUOUS
 62
     3
100
AcDbLine
 10
876.8099
 20
1466.99588
 30
0.0
 11
876.8099
 21
587.0
 31
0.0
  0
LINE
  5
9C
100
AcDbEntity
  8
寸法
  6
CONTINUOUS
 62
     3
100
AcDbLine
 10
882.643234
 20
1431.99588
 30
0.0
 11
876.8099
 21
1466.99588
 31
0.0
  0
LINE
  5
9D
100
AcDbEntity
  8
寸法
  6
CONTINUOUS
 62
     3
100
AcDbLine
 10
876.8099
 20
1466.99588
 30
0.0
 11
870.976567
 21
1431.99588
 31
0.0
  0
LINE
  5
9E
100
AcDbEntity
  8
寸法
  6
CONTINUOUS
 62
     3
100
AcDbLine
 10
870.976567
 20
622.0
 30
0.0
 11
876.8099
 21
587.0
 31
0.0
  0
LINE
  5
9F
100
AcDbEntity
  8
寸法
  6
CONTINUOUS
 62
     3
100
AcDbLine
 10
876.8099
 20
587.0
 30
0.0
 11
882.643234
 21
622.0
 31
0.0
  0
TEXT
  5
A0
100
AcDbEntity
  8
寸法
  6
CONTINUOUS
 62
     2
100
AcDbText
 10
953.3099
 20
1036.498025
 30
0.0
 40
40.0
  1
１０５５
 50
90.0
 41
0.819
  7
EXCADSTD
 72
     5
 11
953.3099
 21
1192.498024
 31
0.0
100
AcDbText
  0
LINE
  5
A1
100
AcDbEntity
  8
寸法
  6
CONTINUOUS
 62
     3
100
AcDbLine
 10
956.8099
 20
1641.996049
 30
0.0
 11
956.8099
 21
587.0
 31
0.0
  0
LINE
  5
A2
100
AcDbEntity
  8
寸法
  6
CONTINUOUS
 62
     3
100
AcDbLine
 10
962.643234
 20
1606.996049
 30
0.0
 11
956.8099
 21
1641.996049
 31
0.0
  0
LINE
  5
A3
100
AcDbEntity
  8
寸法
  6
CONTINUOUS
 62
     3
100
AcDbLine
 10
956.8099
 20
1641.996049
 30
0.0
 11
950.976567
 21
1606.996049
 31
0.0
  0
LINE
  5
A4
100
AcDbEntity
  8
寸法
  6
CONTINUOUS
 62
     3
100
AcDbLine
 10
950.976567
 20
622.0
 30
0.0
 11
956.8099
 21
587.0
 31
0.0
  0
LINE
  5
A5
100
AcDbEntity
  8
寸法
  6
CONTINUOUS
 62
     3
100
AcDbLine
 10
956.8099
 20
587.0
 30
0.0
 11
962.643234
 21
622.0
 31
0.0
  0
LINE
  5
A6
100
AcDbEntity
  8
枠_
  6
EXLTYPE2
 62
     6
100
AcDbLine
 10
169.0
 20
1515.0
 30
0.0
 11
-21.0
 21
1515.0
 31
0.0
  0
LINE
  5
A7
100
AcDbEntity
  8
枠_
  6
CONTINUOUS
 62
     7
100
AcDbLine
 10
179.0
 20
115.0
 30
0.0
 11
1999.0
 21
115.0
 31
0.0
  0
LINE
  5
A8
100
AcDbEntity
  8
枠_
  6
CONTINUOUS
 62
     7
100
AcDbLine
 10
1999.0
 20
115.0
 30
0.0
 11
1999.0
 21
2915.0
 31
0.0
  0
LINE
  5
A9
100
AcDbEntity
  8
枠_
  6
CONTINUOUS
 62
     7
100
AcDbLine
 10
179.0
 20
115.0
 30
0.0
 11
179.0
 21
2915.0
 31
0.0
  0
LINE
  5
AA
100
AcDbEntity
  8
枠_
  6
CONTINUOUS
 62
     7
100
AcDbLine
 10
179.0
 20
2915.0
 30
0.0
 11
1999.0
 21
2915.0
 31
0.0
  0
LINE
  5
AB
100
AcDbEntity
  8
枠_
  6
CONTINUOUS
 62
     7
100
AcDbLine
 10
179.0
 20
335.0
 30
0.0
 11
1999.0
 21
335.0
 31
0.0
  0
LINE
  5
AC
100
AcDbEntity
  8
枠_
  6
CONTINUOUS
 62
     6
100
AcDbLine
 10
1999.0
 20
215.0
 30
0.0
 11
749.0
 21
215.0
 31
0.0
  0
LINE
  5
AD
100
AcDbEntity
  8
枠_
  6
CONTINUOUS
 62
     6
100
AcDbLine
 10
1859.0
 20
335.0
 30
0.0
 11
1859.0
 21
215.0
 31
0.0
  0
LINE
  5
AE
100
AcDbEntity
  8
枠_
  6
CONTINUOUS
 62
     6
100
AcDbLine
 10
1809.0
 20
335.0
 30
0.0
 11
1809.0
 21
215.0
 31
0.0
  0
LINE
  5
AF
100
AcDbEntity
  8
枠_
  6
CONTINUOUS
 62
     6
100
AcDbLine
 10
1439.0
 20
335.0
 30
0.0
 11
1439.0
 21
115.0
 31
0.0
  0
LINE
  5
B0
100
AcDbEntity
  8
枠_
  6
CONTINUOUS
 62
     6
100
AcDbLine
 10
1389.0
 20
335.0
 30
0.0
 11
1389.0
 21
115.0
 31
0.0
  0
LINE
  5
B1
100
AcDbEntity
  8
枠_
  6
CONTINUOUS
 62
     6
100
AcDbLine
 10
799.0
 20
335.0
 30
0.0
 11
799.0
 21
215.0
 31
0.0
  0
LINE
  5
B2
100
AcDbEntity
  8
枠_
  6
CONTINUOUS
 62
     6
100
AcDbLine
 10
749.0
 20
335.0
 30
0.0
 11
749.0
 21
115.0
 31
0.0
  0
LINE
  5
B3
100
AcDbEntity
  8
枠_
  6
CONTINUOUS
 62
     6
100
AcDbLine
 10
619.0
 20
335.0
 30
0.0
 11
619.0
 21
115.0
 31
0.0
  0
LINE
  5
B4
100
AcDbEntity
  8
枠_
  6
CONTINUOUS
 62
     6
100
AcDbLine
 10
489.0
 20
335.0
 30
0.0
 11
489.0
 21
115.0
 31
0.0
  0
LINE
  5
B5
100
AcDbEntity
  8
枠_
  6
CONTINUOUS
 62
     6
100
AcDbLine
 10
334.0
 20
335.0
 30
0.0
 11
334.0
 21
115.0
 31
0.0
  0
LINE
  5
B6
100
AcDbEntity
  8
枠_
  6
CONTINUOUS
 62
     6
100
AcDbLine
 10
179.0
 20
285.0
 30
0.0
 11
749.0
 21
285.0
 31
0.0
  0
LINE
  5
B7
100
AcDbEntity
  8
枠_
  6
CONTINUOUS
 62
     6
100
AcDbLine
 10
1891.653809
 20
238.00293
 30
0.0
 11
1968.993896
 21
316.699829
 31
0.0
  0
LINE
  5
B8
100
AcDbEntity
  8
枠_
  6
EXLTYPE2
 62
     6
100
AcDbLine
 10
179.0
 20
165.0
 30
0.0
 11
489.0
 21
165.0
 31
0.0
  0
CIRCLE
  5
B9
100
AcDbEntity
  8
枠_
  6
CONTINUOUS
 62
     6
100
AcDbCircle
 10
229.0
 20
140.0
 30
0.0
 40
1.0
  0
CIRCLE
  5
BA
100
AcDbEntity
  8
枠_
  6
CONTINUOUS
 62
     6
100
AcDbCircle
 10
279.0
 20
140.0
 30
0.0
 40
1.0
  0
CIRCLE
  5
BB
100
AcDbEntity
  8
枠_
  6
CONTINUOUS
 62
     6
100
AcDbCircle
 10
384.0
 20
140.0
 30
0.0
 40
1.0
  0
CIRCLE
  5
BC
100
AcDbEntity
  8
枠_
  6
CONTINUOUS
 62
     6
100
AcDbCircle
 10
434.0
 20
140.0
 30
0.0
 40
1.0
  0
LINE
  5
BD
100
AcDbEntity
  8
枠_
  6
EXLTYPE2
 62
     6
100
AcDbLine
 10
169.0
 20
1515.0
 30
0.0
 11
-21.0
 21
1515.0
 31
0.0
  0
TEXT
  5
BE
100
AcDbEntity
  8
枠_
  6
CONTINUOUS
 62
     2
100
AcDbText
 10
1889.537109
 20
282.722778
 30
0.0
 40
30.0
  1
１
 41
0.826
  7
EXCADSTD
 72
     5
 11
1913.13711
 21
282.722778
 31
0.0
100
AcDbText
  0
TEXT
  5
BF
100
AcDbEntity
  8
枠_
  6
CONTINUOUS
 62
     2
100
AcDbText
 10
1930.279297
 20
238.348846
 30
0.0
 40
30.0
  1
１０
 41
0.791
  7
EXCADSTD
 72
     5
 11
1982.067198
 21
238.348846
 31
0.0
100
AcDbText
  0
TEXT
  5
C0
100
AcDbEntity
  8
枠_
  6
CONTINUOUS
 62
     2
100
AcDbText
 10
201.5
 20
288.75
 30
0.0
 40
42.5
  1
製図
 41
1.087059
  7
EXCADSTD
 72
     5
 11
302.326
 21
288.75
 31
0.0
100
AcDbText
  0
TEXT
  5
C1
100
AcDbEntity
  8
枠_
  6
CONTINUOUS
 62
     2
100
AcDbText
 10
356.5
 20
288.75
 30
0.0
 40
42.5
  1
写図
 41
1.087059
  7
EXCADSTD
 72
     5
 11
457.326
 21
288.75
 31
0.0
100
AcDbText
  0
TEXT
  5
C2
100
AcDbEntity
  8
枠_
  6
CONTINUOUS
 62
     2
100
AcDbText
 10
506.5
 20
288.75
 30
0.0
 40
42.5
  1
検図
 41
0.938824
  7
EXCADSTD
 72
     5
 11
593.577
 21
288.75
 31
0.0
100
AcDbText
  0
TEXT
  5
C3
100
AcDbEntity
  8
枠_
  6
CONTINUOUS
 62
     2
100
AcDbText
 10
636.5
 20
288.75
 30
0.0
 40
42.5
  1
承認
 41
0.938824
  7
EXCADSTD
 72
     5
 11
723.577
 21
288.75
 31
0.0
100
AcDbText
  0
TEXT
  5
C4
100
AcDbEntity
  8
枠_
  6
CONTINUOUS
 62
     2
100
AcDbText
 10
752.75
 20
278.75
 30
0.0
 40
42.5
  1
品
 41
0.84
  7
EXCADSTD
 72
     5
 11
786.75
 21
278.75
 31
0.0
100
AcDbText
  0
TEXT
  5
C5
100
AcDbEntity
  8
枠_
  6
CONTINUOUS
 62
     2
100
AcDbText
 10
752.75
 20
228.75
 30
0.0
 40
42.5
  1
名
 41
0.84
  7
EXCADSTD
 72
     5
 11
786.75
 21
228.75
 31
0.0
100
AcDbText
  0
TEXT
  5
C6
100
AcDbEntity
  8
枠_
  6
CONTINUOUS
 62
     2
100
AcDbText
 10
1392.75
 20
278.75
 30
0.0
 40
42.5
  1
品
 41
0.84
  7
EXCADSTD
 72
     5
 11
1426.75
 21
278.75
 31
0.0
100
AcDbText
  0
TEXT
  5
C7
100
AcDbEntity
  8
枠_
  6
CONTINUOUS
 62
     2
100
AcDbText
 10
1392.75
 20
228.75
 30
0.0
 40
42.5
  1
番
 41
0.84
  7
EXCADSTD
 72
     5
 11
1426.75
 21
228.75
 31
0.0
100
AcDbText
  0
TEXT
  5
C8
100
AcDbEntity
  8
枠_
  6
CONTINUOUS
 62
     2
100
AcDbText
 10
1812.75
 20
278.75
 30
0.0
 40
42.5
  1
尺
 41
0.84
  7
EXCADSTD
 72
     5
 11
1846.75
 21
278.75
 31
0.0
100
AcDbText
  0
TEXT
  5
C9
100
AcDbEntity
  8
枠_
  6
CONTINUOUS
 62
     2
100
AcDbText
 10
1812.75
 20
228.75
 30
0.0
 40
42.5
  1
度
 41
0.84
  7
EXCADSTD
 72
     5
 11
1846.75
 21
228.75
 31
0.0
100
AcDbText
  0
TEXT
  5
CA
100
AcDbEntity
  8
枠_
  6
CONTINUOUS
 62
     2
100
AcDbText
 10
1392.75
 20
165.75
 30
0.0
 40
42.5
  1
図
 41
0.84
  7
EXCADSTD
 72
     5
 11
1426.75
 21
165.75
 31
0.0
100
AcDbText
  0
TEXT
  5
CB
100
AcDbEntity
  8
枠_
  6
CONTINUOUS
 62
     2
100
AcDbText
 10
1392.75
 20
122.75
 30
0.0
 40
42.5
  1
番
 41
0.84
  7
EXCADSTD
 72
     5
 11
1426.75
 21
122.75
 31
0.0
100
AcDbText
  0
LINE
  5
CC
100
AcDbEntity
  8
枠_
  6
CONTINUOUS
 62
     3
100
AcDbLine
 10
826.447754
 20
180.287994
 30
0.0
 11
818.384094
 21
180.287994
 31
0.0
  0
LINE
  5
CD
100
AcDbEntity
  8
枠_
  6
CONTINUOUS
 62
     3
100
AcDbLine
 10
826.447754
 20
188.351959
 30
0.0
 11
826.447754
 21
180.287994
 31
0.0
  0
LINE
  5
CE
100
AcDbEntity
  8
枠_
  6
CONTINUOUS
 62
     3
100
AcDbLine
 10
818.384094
 20
188.351959
 30
0.0
 11
826.447754
 21
188.351959
 31
0.0
  0
LINE
  5
CF
100
AcDbEntity
  8
枠_
  6
CONTINUOUS
 62
     3
100
AcDbLine
 10
818.384094
 20
188.351959
 30
0.0
 11
818.384094
 21
180.287994
 31
0.0
  0
LINE
  5
D0
100
AcDbEntity
  8
枠_
  6
CONTINUOUS
 62
     3
100
AcDbLine
 10
815.359192
 20
180.287994
 30
0.0
 11
807.295532
 21
180.287994
 31
0.0
  0
LINE
  5
D1
100
AcDbEntity
  8
枠_
  6
CONTINUOUS
 62
     3
100
AcDbLine
 10
815.359192
 20
188.351959
 30
0.0
 11
815.359192
 21
180.287994
 31
0.0
  0
LINE
  5
D2
100
AcDbEntity
  8
枠_
  6
CONTINUOUS
 62
     3
100
AcDbLine
 10
807.295532
 20
188.351959
 30
0.0
 11
815.359192
 21
188.351959
 31
0.0
  0
LINE
  5
D3
100
AcDbEntity
  8
枠_
  6
CONTINUOUS
 62
     3
100
AcDbLine
 10
807.295532
 20
188.351959
 30
0.0
 11
807.295532
 21
180.287994
 31
0.0
  0
LINE
  5
D4
100
AcDbEntity
  8
枠_
  6
CONTINUOUS
 62
     3
100
AcDbLine
 10
798.887329
 20
144.0
 30
0.0
 11
770.0
 21
144.0
 31
0.0
  0
ARC
  5
D5
100
AcDbEntity
  8
枠_
  6
CONTINUOUS
 62
     3
100
AcDbCircle
 10
798.887329
 20
162.144073
 30
0.0
 40
18.143997
100
AcDbArc
 50
270.000031
 51
334.000137
  0
LINE
  5
D6
100
AcDbEntity
  8
枠_
  6
CONTINUOUS
 62
     3
100
AcDbLine
 10
826.447754
 20
177.264008
 30
0.0
 11
815.193024
 21
154.190125
 31
0.0
  0
LINE
  5
D7
100
AcDbEntity
  8
枠_
  6
CONTINUOUS
 62
     3
100
AcDbLine
 10
814.112244
 20
177.264008
 30
0.0
 11
826.447754
 21
177.264008
 31
0.0
  0
LINE
  5
D8
100
AcDbEntity
  8
枠_
  6
CONTINUOUS
 62
     3
100
AcDbLine
 10
805.01297
 20
158.60907
 30
0.0
 11
814.112244
 21
177.264008
 31
0.0
  0
ARC
  5
D9
100
AcDbEntity
  8
枠_
  6
CONTINUOUS
 62
     3
100
AcDbCircle
 10
797.765503
 20
162.144073
 30
0.0
 40
8.064
100
AcDbArc
 50
270.000031
 51
333.99855
  0
LINE
  5
DA
100
AcDbEntity
  8
枠_
  6
CONTINUOUS
 62
     3
100
AcDbLine
 10
770.0
 20
154.079956
 30
0.0
 11
797.765503
 21
154.079956
 31
0.0
  0
LINE
  5
DB
100
AcDbEntity
  8
枠_
  6
CONTINUOUS
 62
     3
100
AcDbLine
 10
770.0
 20
154.079956
 30
0.0
 11
770.0
 21
144.0
 31
0.0
  0
LINE
  5
DC
100
AcDbEntity
  8
枠_
  6
CONTINUOUS
 62
     3
100
AcDbLine
 10
798.224945
 20
167.183899
 30
0.0
 11
770.0
 21
167.183899
 31
0.0
  0
LINE
  5
DD
100
AcDbEntity
  8
枠_
  6
CONTINUOUS
 62
     3
100
AcDbLine
 10
798.224945
 20
176.256012
 30
0.0
 11
798.224945
 21
167.183899
 31
0.0
  0
LINE
  5
DE
100
AcDbEntity
  8
枠_
  6
CONTINUOUS
 62
     3
100
AcDbLine
 10
770.0
 20
176.256012
 30
0.0
 11
798.224945
 21
176.256012
 31
0.0
  0
LINE
  5
DF
100
AcDbEntity
  8
枠_
  6
CONTINUOUS
 62
     3
100
AcDbLine
 10
770.0
 20
176.256012
 30
0.0
 11
770.0
 21
167.183899
 31
0.0
  0
LINE
  5
E0
100
AcDbEntity
  8
枠_
  6
CONTINUOUS
 62
     3
100
AcDbLine
 10
798.224945
 20
179.279999
 30
0.0
 11
770.0
 21
179.279999
 31
0.0
  0
LINE
  5
E1
100
AcDbEntity
  8
枠_
  6
CONTINUOUS
 62
     3
100
AcDbLine
 10
798.224945
 20
188.351959
 30
0.0
 11
798.224945
 21
179.279999
 31
0.0
  0
LINE
  5
E2
100
AcDbEntity
  8
枠_
  6
CONTINUOUS
 62
     3
100
AcDbLine
 10
770.0
 20
188.351959
 30
0.0
 11
798.224945
 21
188.351959
 31
0.0
  0
LINE
  5
E3
100
AcDbEntity
  8
枠_
  6
CONTINUOUS
 62
     3
100
AcDbLine
 10
770.0
 20
188.351959
 30
0.0
 11
770.0
 21
179.279999
 31
0.0
  0
LINE
  5
E4
100
AcDbEntity
  8
枠_
  6
CONTINUOUS
 62
     3
100
AcDbLine
 10
829.472656
 20
177.264008
 30
0.0
 11
829.472656
 21
170.207886
 31
0.0
  0
LINE
  5
E5
100
AcDbEntity
  8
枠_
  6
CONTINUOUS
 62
     3
100
AcDbLine
 10
829.472656
 20
177.264008
 30
0.0
 11
838.654022
 21
177.264008
 31
0.0
  0
LINE
  5
E6
100
AcDbEntity
  8
枠_
  6
CONTINUOUS
 62
     3
100
AcDbLine
 10
837.536316
 20
184.319977
 30
0.0
 11
838.654022
 21
177.264008
 31
0.0
  0
LINE
  5
E7
100
AcDbEntity
  8
枠_
  6
CONTINUOUS
 62
     3
100
AcDbLine
 10
837.536316
 20
184.319977
 30
0.0
 11
848.76236
 21
184.319977
 31
0.0
  0
LINE
  5
E8
100
AcDbEntity
  8
枠_
  6
CONTINUOUS
 62
     3
100
AcDbLine
 10
848.76236
 20
184.319977
 30
0.0
 11
849.879913
 21
177.264008
 31
0.0
  0
LINE
  5
E9
100
AcDbEntity
  8
枠_
  6
CONTINUOUS
 62
     3
100
AcDbLine
 10
849.879913
 20
177.264008
 30
0.0
 11
877.85675
 21
177.264008
 31
0.0
  0
LINE
  5
EA
100
AcDbEntity
  8
枠_
  6
CONTINUOUS
 62
     3
100
AcDbLine
 10
877.85675
 20
177.264008
 30
0.0
 11
871.973114
 21
164.050507
 31
0.0
  0
ARC
  5
EB
100
AcDbEntity
  8
枠_
  6
CONTINUOUS
 62
     3
100
AcDbCircle
 10
858.161011
 20
170.200409
 30
0.0
 40
15.120106
100
AcDbArc
 50
263.465775
 51
335.998779
  0
LINE
  5
EC
100
AcDbEntity
  8
枠_
  6
CONTINUOUS
 62
     3
100
AcDbLine
 10
856.438446
 20
155.178589
 30
0.0
 11
855.337067
 21
162.144073
 31
0.0
  0
ARC
  5
ED
100
AcDbEntity
  8
枠_
  6
CONTINUOUS
 62
     3
100
AcDbCircle
 10
855.058136
 20
168.192047
 30
0.0
 40
6.048006
100
AcDbArc
 50
272.623749
 51
336.006531
  0
LINE
  5
EE
100
AcDbEntity
  8
枠_
  6
CONTINUOUS
 62
     3
100
AcDbLine
 10
860.585022
 20
165.732025
 30
0.0
 11
862.576294
 21
170.207886
 31
0.0
  0
LINE
  5
EF
100
AcDbEntity
  8
枠_
  6
CONTINUOUS
 62
     3
100
AcDbLine
 10
862.576294
 20
170.207886
 30
0.0
 11
850.99762
 21
170.207886
 31
0.0
  0
LINE
  5
F0
100
AcDbEntity
  8
枠_
  6
CONTINUOUS
 62
     3
100
AcDbLine
 10
850.99762
 20
170.207886
 30
0.0
 11
855.148468
 21
144.0
 31
0.0
  0
LINE
  5
F1
100
AcDbEntity
  8
枠_
  6
CONTINUOUS
 62
     3
100
AcDbLine
 10
855.148468
 20
144.0
 30
0.0
 11
843.922424
 21
144.0
 31
0.0
  0
LINE
  5
F2
100
AcDbEntity
  8
枠_
  6
CONTINUOUS
 62
     2
100
AcDbLine
 10
843.922424
 20
144.0
 30
0.0
 11
839.771729
 21
170.207886
 31
0.0
  0
LINE
  5
F3
100
AcDbEntity
  8
枠_
  6
CONTINUOUS
 62
     2
100
AcDbLine
 10
839.771729
 20
170.207886
 30
0.0
 11
829.472656
 21
170.207886
 31
0.0
  0
LINE
  5
F4
100
AcDbEntity
  8
枠_
  6
CONTINUOUS
 62
     3
100
AcDbLine
 10
876.847687
 20
144.0
 30
0.0
 11
876.847687
 21
154.079956
 31
0.0
  0
LINE
  5
F5
100
AcDbEntity
  8
枠_
  6
CONTINUOUS
 62
     3
100
AcDbLine
 10
876.847687
 20
154.079956
 30
0.0
 11
933.295441
 21
154.079956
 31
0.0
  0
LINE
  5
F6
100
AcDbEntity
  8
枠_
  6
CONTINUOUS
 62
     3
100
AcDbLine
 10
933.295441
 20
154.079956
 30
0.0
 11
933.295441
 21
144.0
 31
0.0
  0
LINE
  5
F7
100
AcDbEntity
  8
枠_
  6
CONTINUOUS
 62
     3
100
AcDbLine
 10
933.295441
 20
144.0
 30
0.0
 11
876.847687
 21
144.0
 31
0.0
  0
LINE
  5
F8
100
AcDbEntity
  8
枠_
  6
CONTINUOUS
 62
     3
100
AcDbLine
 10
880.879517
 20
188.351959
 30
0.0
 11
880.879517
 21
178.272003
 31
0.0
  0
LINE
  5
F9
100
AcDbEntity
  8
枠_
  6
CONTINUOUS
 62
     3
100
AcDbLine
 10
880.879517
 20
188.351959
 30
0.0
 11
929.263611
 21
188.351959
 31
0.0
  0
LINE
  5
FA
100
AcDbEntity
  8
枠_
  6
CONTINUOUS
 62
     3
100
AcDbLine
 10
929.263611
 20
188.351959
 30
0.0
 11
929.263611
 21
178.272003
 31
0.0
  0
LINE
  5
FB
100
AcDbEntity
  8
枠_
  6
CONTINUOUS
 62
     3
100
AcDbLine
 10
929.263611
 20
178.272003
 30
0.0
 11
880.879517
 21
178.272003
 31
0.0
  0
LINE
  5
FC
100
AcDbEntity
  8
枠_
  6
CONTINUOUS
 62
     3
100
AcDbLine
 10
940.352173
 20
188.351959
 30
0.0
 11
940.352173
 21
178.272003
 31
0.0
  0
LINE
  5
FD
100
AcDbEntity
  8
枠_
  6
CONTINUOUS
 62
     3
100
AcDbLine
 10
940.352173
 20
188.351959
 30
0.0
 11
992.768097
 21
188.351959
 31
0.0
  0
LINE
  5
FE
100
AcDbEntity
  8
枠_
  6
CONTINUOUS
 62
     3
100
AcDbLine
 10
992.768097
 20
188.351959
 30
0.0
 11
977.050934
 21
166.718964
 31
0.0
  0
LINE
  5
FF
100
AcDbEntity
  8
枠_
  6
CONTINUOUS
 62
     3
100
AcDbLine
 10
977.050934
 20
166.718964
 30
0.0
 11
996.799927
 21
144.0
 31
0.0
  0
LINE
  5
100
100
AcDbEntity
  8
枠_
  6
CONTINUOUS
 62
     3
100
AcDbLine
 10
996.799927
 20
144.0
 30
0.0
 11
982.108154
 21
144.0
 31
0.0
  0
LINE
  5
101
100
AcDbEntity
  8
枠_
  6
CONTINUOUS
 62
     3
100
AcDbLine
 10
982.108154
 20
144.0
 30
0.0
 11
970.361328
 21
157.512726
 31
0.0
  0
LINE
  5
102
100
AcDbEntity
  8
枠_
  6
CONTINUOUS
 62
     3
100
AcDbLine
 10
970.361328
 20
157.512726
 30
0.0
 11
965.978851
 21
151.479248
 31
0.0
  0
ARC
  5
103
100
AcDbEntity
  8
枠_
  6
CONTINUOUS
 62
     3
100
AcDbCircle
 10
951.299286
 20
162.144073
 30
0.0
 40
18.143997
100
AcDbArc
 50
270.000031
 51
324.00116
  0
LINE
  5
104
100
AcDbEntity
  8
枠_
  6
CONTINUOUS
 62
     3
100
AcDbLine
 10
951.299286
 20
144.0
 30
0.0
 11
936.320343
 21
144.0
 31
0.0
  0
LINE
  5
105
100
AcDbEntity
  8
枠_
  6
CONTINUOUS
 62
     3
100
AcDbLine
 10
936.320343
 20
144.0
 30
0.0
 11
936.320343
 21
154.079956
 31
0.0
  0
LINE
  5
106
100
AcDbEntity
  8
枠_
  6
CONTINUOUS
 62
     3
100
AcDbLine
 10
936.320343
 20
154.079956
 30
0.0
 11
949.0271
 21
154.079956
 31
0.0
  0
ARC
  5
107
100
AcDbEntity
  8
枠_
  6
CONTINUOUS
 62
     3
100
AcDbCircle
 10
949.0271
 20
164.159912
 30
0.0
 40
10.079994
100
AcDbArc
 50
270.000031
 51
323.996597
  0
LINE
  5
108
100
AcDbEntity
  8
枠_
  6
CONTINUOUS
 62
     3
100
AcDbLine
 10
957.180939
 20
158.235077
 30
0.0
 11
971.739502
 21
178.272003
 31
0.0
  0
LINE
  5
109
100
AcDbEntity
  8
枠_
  6
CONTINUOUS
 62
     3
100
AcDbLine
 10
971.739502
 20
178.272003
 30
0.0
 11
940.352173
 21
178.272003
 31
0.0
  0
LINE
  5
10A
100
AcDbEntity
  8
枠_
  6
CONTINUOUS
 62
     3
100
AcDbLine
 10
1008.895569
 20
188.351959
 30
0.0
 11
1008.895569
 21
181.29599
 31
0.0
  0
LINE
  5
10B
100
AcDbEntity
  8
枠_
  6
CONTINUOUS
 62
     3
100
AcDbLine
 10
1008.895569
 20
188.351959
 30
0.0
 11
1061.31134
 21
188.351959
 31
0.0
  0
LINE
  5
10C
100
AcDbEntity
  8
枠_
  6
CONTINUOUS
 62
     3
100
AcDbLine
 10
1061.31134
 20
188.351959
 30
0.0
 11
1061.31134
 21
181.29599
 31
0.0
  0
LINE
  5
10D
100
AcDbEntity
  8
枠_
  6
CONTINUOUS
 62
     3
100
AcDbLine
 10
1061.31134
 20
181.29599
 30
0.0
 11
1040.647736
 21
181.29599
 31
0.0
  0
LINE
  5
10E
100
AcDbEntity
  8
枠_
  6
CONTINUOUS
 62
     3
100
AcDbLine
 10
1040.647736
 20
181.29599
 30
0.0
 11
1040.647736
 21
152.064117
 31
0.0
  0
LINE
  5
10F
100
AcDbEntity
  8
枠_
  6
CONTINUOUS
 62
     3
100
AcDbLine
 10
1040.647736
 20
152.064117
 30
0.0
 11
1063.327332
 21
152.064117
 31
0.0
  0
LINE
  5
110
100
AcDbEntity
  8
枠_
  6
CONTINUOUS
 62
     3
100
AcDbLine
 10
1063.327332
 20
152.064117
 30
0.0
 11
1063.327332
 21
144.0
 31
0.0
  0
LINE
  5
111
100
AcDbEntity
  8
枠_
  6
CONTINUOUS
 62
     3
100
AcDbLine
 10
1063.327332
 20
144.0
 30
0.0
 11
1006.879578
 21
144.0
 31
0.0
  0
LINE
  5
112
100
AcDbEntity
  8
枠_
  6
CONTINUOUS
 62
     3
100
AcDbLine
 10
1006.879578
 20
144.0
 30
0.0
 11
1006.879578
 21
152.064117
 31
0.0
  0
LINE
  5
113
100
AcDbEntity
  8
枠_
  6
CONTINUOUS
 62
     3
100
AcDbLine
 10
1006.879578
 20
152.064117
 30
0.0
 11
1029.559174
 21
152.064117
 31
0.0
  0
LINE
  5
114
100
AcDbEntity
  8
枠_
  6
CONTINUOUS
 62
     3
100
AcDbLine
 10
1029.559174
 20
152.064117
 30
0.0
 11
1029.559174
 21
181.29599
 31
0.0
  0
LINE
  5
115
100
AcDbEntity
  8
枠_
  6
CONTINUOUS
 62
     3
100
AcDbLine
 10
1029.559174
 20
181.29599
 30
0.0
 11
1008.895569
 21
181.29599
 31
0.0
  0
LINE
  5
116
100
AcDbEntity
  8
枠_
  6
CONTINUOUS
 62
     3
100
AcDbLine
 10
1064.336243
 20
182.303986
 30
0.0
 11
1064.336243
 21
177.667145
 31
0.0
  0
LINE
  5
117
100
AcDbEntity
  8
枠_
  6
CONTINUOUS
 62
     3
100
AcDbLine
 10
1064.336243
 20
182.303986
 30
0.0
 11
1073.093109
 21
182.303986
 31
0.0
  0
LINE
  5
118
100
AcDbEntity
  8
枠_
  6
CONTINUOUS
 62
     3
100
AcDbLine
 10
1073.093109
 20
182.303986
 30
0.0
 11
1068.368225
 21
188.351959
 31
0.0
  0
LINE
  5
119
100
AcDbEntity
  8
枠_
  6
CONTINUOUS
 62
     3
100
AcDbLine
 10
1068.368225
 20
188.351959
 30
0.0
 11
1077.32193
 21
188.351959
 31
0.0
  0
LINE
  5
11A
100
AcDbEntity
  8
枠_
  6
CONTINUOUS
 62
     3
100
AcDbLine
 10
1077.32193
 20
188.351959
 30
0.0
 11
1082.046814
 21
182.303986
 31
0.0
  0
LINE
  5
11B
100
AcDbEntity
  8
枠_
  6
CONTINUOUS
 62
     3
100
AcDbLine
 10
1082.046814
 20
182.303986
 30
0.0
 11
1083.993073
 21
182.303986
 31
0.0
  0
LINE
  5
11C
100
AcDbEntity
  8
枠_
  6
CONTINUOUS
 62
     3
100
AcDbLine
 10
1083.993073
 20
182.303986
 30
0.0
 11
1083.993073
 21
188.351959
 31
0.0
  0
LINE
  5
11D
100
AcDbEntity
  8
枠_
  6
CONTINUOUS
 62
     3
100
AcDbLine
 10
1083.993073
 20
188.351959
 30
0.0
 11
1091.047669
 21
188.351959
 31
0.0
  0
LINE
  5
11E
100
AcDbEntity
  8
枠_
  6
CONTINUOUS
 62
     3
100
AcDbLine
 10
1091.047669
 20
188.351959
 30
0.0
 11
1091.047669
 21
182.303986
 31
0.0
  0
LINE
  5
11F
100
AcDbEntity
  8
枠_
  6
CONTINUOUS
 62
     3
100
AcDbLine
 10
1091.047669
 20
182.303986
 30
0.0
 11
1094.072571
 21
182.303986
 31
0.0
  0
LINE
  5
120
100
AcDbEntity
  8
枠_
  6
CONTINUOUS
 62
     3
100
AcDbLine
 10
1094.072571
 20
182.303986
 30
0.0
 11
1094.072571
 21
188.351959
 31
0.0
  0
LINE
  5
121
100
AcDbEntity
  8
枠_
  6
CONTINUOUS
 62
     3
100
AcDbLine
 10
1094.072571
 20
188.351959
 30
0.0
 11
1101.127319
 21
188.351959
 31
0.0
  0
LINE
  5
122
100
AcDbEntity
  8
枠_
  6
CONTINUOUS
 62
     3
100
AcDbLine
 10
1101.127319
 20
188.351959
 30
0.0
 11
1101.127319
 21
182.303986
 31
0.0
  0
LINE
  5
123
100
AcDbEntity
  8
枠_
  6
CONTINUOUS
 62
     3
100
AcDbLine
 10
1101.127319
 20
182.303986
 30
0.0
 11
1103.073578
 21
182.303986
 31
0.0
  0
LINE
  5
124
100
AcDbEntity
  8
枠_
  6
CONTINUOUS
 62
     3
100
AcDbLine
 10
1103.073578
 20
182.303986
 30
0.0
 11
1107.798462
 21
188.351959
 31
0.0
  0
LINE
  5
125
100
AcDbEntity
  8
枠_
  6
CONTINUOUS
 62
     3
100
AcDbLine
 10
1107.798462
 20
188.351959
 30
0.0
 11
1116.752167
 21
188.351959
 31
0.0
  0
LINE
  5
126
100
AcDbEntity
  8
枠_
  6
CONTINUOUS
 62
     3
100
AcDbLine
 10
1116.752167
 20
188.351959
 30
0.0
 11
1112.027283
 21
182.303986
 31
0.0
  0
LINE
  5
127
100
AcDbEntity
  8
枠_
  6
CONTINUOUS
 62
     3
100
AcDbLine
 10
1112.027283
 20
182.303986
 30
0.0
 11
1120.783997
 21
182.303986
 31
0.0
  0
LINE
  5
128
100
AcDbEntity
  8
枠_
  6
CONTINUOUS
 62
     3
100
AcDbLine
 10
1120.783997
 20
182.303986
 30
0.0
 11
1120.783997
 21
177.667145
 31
0.0
  0
LINE
  5
129
100
AcDbEntity
  8
枠_
  6
CONTINUOUS
 62
     3
100
AcDbLine
 10
1120.783997
 20
177.667145
 30
0.0
 11
1110.16098
 21
177.667145
 31
0.0
  0
LINE
  5
12A
100
AcDbEntity
  8
枠_
  6
CONTINUOUS
 62
     3
100
AcDbLine
 10
1110.16098
 20
177.667145
 30
0.0
 11
1108.327637
 21
172.627319
 31
0.0
  0
LINE
  5
12B
100
AcDbEntity
  8
枠_
  6
CONTINUOUS
 62
     3
100
AcDbLine
 10
1108.327637
 20
172.627319
 30
0.0
 11
1120.783997
 21
172.627319
 31
0.0
  0
LINE
  5
12C
100
AcDbEntity
  8
枠_
  6
CONTINUOUS
 62
     3
100
AcDbLine
 10
1120.783997
 20
172.627319
 30
0.0
 11
1120.783997
 21
167.990478
 31
0.0
  0
LINE
  5
12D
100
AcDbEntity
  8
枠_
  6
CONTINUOUS
 62
     3
100
AcDbLine
 10
1120.783997
 20
167.990478
 30
0.0
 11
1097.599945
 21
167.990478
 31
0.0
  0
LINE
  5
12E
100
AcDbEntity
  8
枠_
  6
CONTINUOUS
 62
     3
100
AcDbLine
 10
1097.599945
 20
167.990478
 30
0.0
 11
1097.599945
 21
165.672058
 31
0.0
  0
LINE
  5
12F
100
AcDbEntity
  8
枠_
  6
CONTINUOUS
 62
     3
100
AcDbLine
 10
1097.599945
 20
165.672058
 30
0.0
 11
1120.783997
 21
165.672058
 31
0.0
  0
LINE
  5
130
100
AcDbEntity
  8
枠_
  6
CONTINUOUS
 62
     3
100
AcDbLine
 10
1120.783997
 20
165.672058
 30
0.0
 11
1120.783997
 21
161.035217
 31
0.0
  0
LINE
  5
131
100
AcDbEntity
  8
枠_
  6
CONTINUOUS
 62
     3
100
AcDbLine
 10
1120.783997
 20
161.035217
 30
0.0
 11
1097.599945
 21
161.035217
 31
0.0
  0
LINE
  5
132
100
AcDbEntity
  8
枠_
  6
CONTINUOUS
 62
     3
100
AcDbLine
 10
1097.599945
 20
161.035217
 30
0.0
 11
1097.599945
 21
158.716797
 31
0.0
  0
LINE
  5
133
100
AcDbEntity
  8
枠_
  6
CONTINUOUS
 62
     3
100
AcDbLine
 10
1097.599945
 20
158.716797
 30
0.0
 11
1120.783997
 21
158.716797
 31
0.0
  0
LINE
  5
134
100
AcDbEntity
  8
枠_
  6
CONTINUOUS
 62
     3
100
AcDbLine
 10
1120.783997
 20
158.716797
 30
0.0
 11
1120.783997
 21
154.079956
 31
0.0
  0
LINE
  5
135
100
AcDbEntity
  8
枠_
  6
CONTINUOUS
 62
     3
100
AcDbLine
 10
1120.783997
 20
154.079956
 30
0.0
 11
1109.627838
 21
154.079956
 31
0.0
  0
LINE
  5
136
100
AcDbEntity
  8
枠_
  6
CONTINUOUS
 62
     3
100
AcDbLine
 10
1109.627838
 20
154.079956
 30
0.0
 11
1120.783997
 21
144.0
 31
0.0
  0
LINE
  5
137
100
AcDbEntity
  8
枠_
  6
CONTINUOUS
 62
     3
100
AcDbLine
 10
1120.783997
 20
144.0
 30
0.0
 11
1108.756256
 21
144.0
 31
0.0
  0
LINE
  5
138
100
AcDbEntity
  8
枠_
  6
CONTINUOUS
 62
     3
100
AcDbLine
 10
1108.756256
 20
144.0
 30
0.0
 11
1097.599945
 21
154.079956
 31
0.0
  0
LINE
  5
139
100
AcDbEntity
  8
枠_
  6
CONTINUOUS
 62
     3
100
AcDbLine
 10
1097.599945
 20
154.079956
 30
0.0
 11
1097.599945
 21
144.0
 31
0.0
  0
LINE
  5
13A
100
AcDbEntity
  8
枠_
  6
CONTINUOUS
 62
     3
100
AcDbLine
 10
1097.599945
 20
144.0
 30
0.0
 11
1087.520447
 21
144.0
 31
0.0
  0
LINE
  5
13B
100
AcDbEntity
  8
枠_
  6
CONTINUOUS
 62
     3
100
AcDbLine
 10
1087.520447
 20
144.0
 30
0.0
 11
1087.520447
 21
154.079956
 31
0.0
  0
LINE
  5
13C
100
AcDbEntity
  8
枠_
  6
CONTINUOUS
 62
     3
100
AcDbLine
 10
1087.520447
 20
154.079956
 30
0.0
 11
1076.364136
 21
144.0
 31
0.0
  0
LINE
  5
13D
100
AcDbEntity
  8
枠_
  6
CONTINUOUS
 62
     3
100
AcDbLine
 10
1076.364136
 20
144.0
 30
0.0
 11
1064.336243
 21
144.0
 31
0.0
  0
LINE
  5
13E
100
AcDbEntity
  8
枠_
  6
CONTINUOUS
 62
     3
100
AcDbLine
 10
1064.336243
 20
144.0
 30
0.0
 11
1075.492554
 21
154.079956
 31
0.0
  0
LINE
  5
13F
100
AcDbEntity
  8
枠_
  6
CONTINUOUS
 62
     3
100
AcDbLine
 10
1075.492554
 20
154.079956
 30
0.0
 11
1064.336243
 21
154.079956
 31
0.0
  0
LINE
  5
140
100
AcDbEntity
  8
枠_
  6
CONTINUOUS
 62
     3
100
AcDbLine
 10
1064.336243
 20
154.079956
 30
0.0
 11
1064.336243
 21
158.716797
 31
0.0
  0
LINE
  5
141
100
AcDbEntity
  8
枠_
  6
CONTINUOUS
 62
     3
100
AcDbLine
 10
1064.336243
 20
158.716797
 30
0.0
 11
1087.520447
 21
158.716797
 31
0.0
  0
LINE
  5
142
100
AcDbEntity
  8
枠_
  6
CONTINUOUS
 62
     3
100
AcDbLine
 10
1087.520447
 20
158.716797
 30
0.0
 11
1087.520447
 21
161.035217
 31
0.0
  0
LINE
  5
143
100
AcDbEntity
  8
枠_
  6
CONTINUOUS
 62
     3
100
AcDbLine
 10
1087.520447
 20
161.035217
 30
0.0
 11
1064.336243
 21
161.035217
 31
0.0
  0
LINE
  5
144
100
AcDbEntity
  8
枠_
  6
CONTINUOUS
 62
     3
100
AcDbLine
 10
1064.336243
 20
161.035217
 30
0.0
 11
1064.336243
 21
165.672058
 31
0.0
  0
LINE
  5
145
100
AcDbEntity
  8
枠_
  6
CONTINUOUS
 62
     3
100
AcDbLine
 10
1064.336243
 20
165.672058
 30
0.0
 11
1087.520447
 21
165.672058
 31
0.0
  0
LINE
  5
146
100
AcDbEntity
  8
枠_
  6
CONTINUOUS
 62
     3
100
AcDbLine
 10
1087.520447
 20
165.672058
 30
0.0
 11
1087.520447
 21
167.990478
 31
0.0
  0
LINE
  5
147
100
AcDbEntity
  8
枠_
  6
CONTINUOUS
 62
     3
100
AcDbLine
 10
1087.520447
 20
167.990478
 30
0.0
 11
1064.336243
 21
167.990478
 31
0.0
  0
LINE
  5
148
100
AcDbEntity
  8
枠_
  6
CONTINUOUS
 62
     3
100
AcDbLine
 10
1064.336243
 20
167.990478
 30
0.0
 11
1064.336243
 21
172.627319
 31
0.0
  0
LINE
  5
149
100
AcDbEntity
  8
枠_
  6
CONTINUOUS
 62
     3
100
AcDbLine
 10
1064.336243
 20
172.627319
 30
0.0
 11
1076.792755
 21
172.627319
 31
0.0
  0
LINE
  5
14A
100
AcDbEntity
  8
枠_
  6
CONTINUOUS
 62
     3
100
AcDbLine
 10
1076.792755
 20
172.627319
 30
0.0
 11
1074.959412
 21
177.667145
 31
0.0
  0
LINE
  5
14B
100
AcDbEntity
  8
枠_
  6
CONTINUOUS
 62
     3
100
AcDbLine
 10
1074.959412
 20
177.667145
 30
0.0
 11
1064.336243
 21
177.667145
 31
0.0
  0
LINE
  5
14C
100
AcDbEntity
  8
枠_
  6
CONTINUOUS
 62
     3
100
AcDbLine
 10
1085.684967
 20
177.667145
 30
0.0
 11
1099.435425
 21
177.667145
 31
0.0
  0
LINE
  5
14D
100
AcDbEntity
  8
枠_
  6
CONTINUOUS
 62
     3
100
AcDbLine
 10
1099.435425
 20
177.667145
 30
0.0
 11
1097.599945
 21
172.627319
 31
0.0
  0
LINE
  5
14E
100
AcDbEntity
  8
枠_
  6
CONTINUOUS
 62
     3
100
AcDbLine
 10
1097.599945
 20
172.627319
 30
0.0
 11
1087.520447
 21
172.627319
 31
0.0
  0
LINE
  5
14F
100
AcDbEntity
  8
枠_
  6
CONTINUOUS
 62
     3
100
AcDbLine
 10
1087.520447
 20
172.627319
 30
0.0
 11
1085.684967
 21
177.667145
 31
0.0
  0
LINE
  5
150
100
AcDbEntity
  8
枠_
  6
CONTINUOUS
 62
     3
100
AcDbLine
 10
1148.256378
 20
188.351959
 30
0.0
 11
1144.989472
 21
175.248016
 31
0.0
  0
LINE
  5
151
100
AcDbEntity
  8
枠_
  6
CONTINUOUS
 62
     3
100
AcDbLine
 10
1148.256378
 20
188.351959
 30
0.0
 11
1156.568146
 21
188.351959
 31
0.0
  0
LINE
  5
152
100
AcDbEntity
  8
枠_
  6
CONTINUOUS
 62
     3
100
AcDbLine
 10
1156.568146
 20
188.351959
 30
0.0
 11
1155.310974
 21
183.311981
 31
0.0
  0
LINE
  5
153
100
AcDbEntity
  8
枠_
  6
CONTINUOUS
 62
     3
100
AcDbLine
 10
1155.310974
 20
183.311981
 30
0.0
 11
1158.584137
 21
183.311981
 31
0.0
  0
LINE
  5
154
100
AcDbEntity
  8
枠_
  6
CONTINUOUS
 62
     3
100
AcDbLine
 10
1158.584137
 20
183.311981
 30
0.0
 11
1158.584137
 21
188.351959
 31
0.0
  0
LINE
  5
155
100
AcDbEntity
  8
枠_
  6
CONTINUOUS
 62
     3
100
AcDbLine
 10
1158.584137
 20
188.351959
 30
0.0
 11
1167.656708
 21
188.351959
 31
0.0
  0
LINE
  5
156
100
AcDbEntity
  8
枠_
  6
CONTINUOUS
 62
     3
100
AcDbLine
 10
1167.656708
 20
188.351959
 30
0.0
 11
1167.656708
 21
183.311981
 31
0.0
  0
LINE
  5
157
100
AcDbEntity
  8
枠_
  6
CONTINUOUS
 62
     3
100
AcDbLine
 10
1167.656708
 20
183.311981
 30
0.0
 11
1179.247742
 21
183.311981
 31
0.0
  0
LINE
  5
158
100
AcDbEntity
  8
枠_
  6
CONTINUOUS
 62
     3
100
AcDbLine
 10
1179.247742
 20
183.311981
 30
0.0
 11
1179.247742
 21
178.272003
 31
0.0
  0
LINE
  5
159
100
AcDbEntity
  8
枠_
  6
CONTINUOUS
 62
     3
100
AcDbLine
 10
1167.656708
 20
178.272003
 30
0.0
 11
1179.247742
 21
178.272003
 31
0.0
  0
LINE
  5
15A
100
AcDbEntity
  8
枠_
  6
CONTINUOUS
 62
     3
100
AcDbLine
 10
1167.656708
 20
178.272003
 30
0.0
 11
1167.656708
 21
173.232025
 31
0.0
  0
LINE
  5
15B
100
AcDbEntity
  8
枠_
  6
CONTINUOUS
 62
     3
100
AcDbLine
 10
1167.656708
 20
173.232025
 30
0.0
 11
1180.256653
 21
173.232025
 31
0.0
  0
LINE
  5
15C
100
AcDbEntity
  8
枠_
  6
CONTINUOUS
 62
     3
100
AcDbLine
 10
1180.256653
 20
173.232025
 30
0.0
 11
1180.256653
 21
168.192047
 31
0.0
  0
LINE
  5
15D
100
AcDbEntity
  8
枠_
  6
CONTINUOUS
 62
     3
100
AcDbLine
 10
1180.256653
 20
168.192047
 30
0.0
 11
1175.851593
 21
168.192047
 31
0.0
  0
LINE
  5
15E
100
AcDbEntity
  8
枠_
  6
CONTINUOUS
 62
     3
100
AcDbLine
 10
1175.851593
 20
168.192047
 30
0.0
 11
1180.256653
 21
144.0
 31
0.0
  0
LINE
  5
15F
100
AcDbEntity
  8
枠_
  6
CONTINUOUS
 62
     3
100
AcDbLine
 10
1180.256653
 20
144.0
 30
0.0
 11
1172.059784
 21
144.0
 31
0.0
  0
LINE
  5
160
100
AcDbEntity
  8
枠_
  6
CONTINUOUS
 62
     3
100
AcDbLine
 10
1172.059784
 20
144.0
 30
0.0
 11
1167.656708
 21
168.191742
 31
0.0
  0
LINE
  5
161
100
AcDbEntity
  8
枠_
  6
CONTINUOUS
 62
     3
100
AcDbLine
 10
1167.656708
 20
168.191742
 30
0.0
 11
1167.656708
 21
144.0
 31
0.0
  0
LINE
  5
162
100
AcDbEntity
  8
枠_
  6
CONTINUOUS
 62
     3
100
AcDbLine
 10
1167.656708
 20
144.0
 30
0.0
 11
1158.584137
 21
144.0
 31
0.0
  0
LINE
  5
163
100
AcDbEntity
  8
枠_
  6
CONTINUOUS
 62
     3
100
AcDbLine
 10
1158.584137
 20
144.0
 30
0.0
 11
1158.584137
 21
168.192047
 31
0.0
  0
LINE
  5
164
100
AcDbEntity
  8
枠_
  6
CONTINUOUS
 62
     3
100
AcDbLine
 10
1158.584137
 20
168.192047
 30
0.0
 11
1154.181061
 21
144.0
 31
0.0
  0
LINE
  5
165
100
AcDbEntity
  8
枠_
  6
CONTINUOUS
 62
     3
100
AcDbLine
 10
1154.181061
 20
144.0
 30
0.0
 11
1145.984039
 21
144.0
 31
0.0
  0
LINE
  5
166
100
AcDbEntity
  8
枠_
  6
CONTINUOUS
 62
     3
100
AcDbLine
 10
1145.984039
 20
144.0
 30
0.0
 11
1150.387115
 21
168.192047
 31
0.0
  0
LINE
  5
167
100
AcDbEntity
  8
枠_
  6
CONTINUOUS
 62
     3
100
AcDbLine
 10
1150.387115
 20
168.192047
 30
0.0
 11
1145.984039
 21
168.192047
 31
0.0
  0
LINE
  5
168
100
AcDbEntity
  8
枠_
  6
CONTINUOUS
 62
     3
100
AcDbLine
 10
1145.984039
 20
168.192047
 30
0.0
 11
1145.984039
 21
173.232025
 31
0.0
  0
LINE
  5
169
100
AcDbEntity
  8
枠_
  6
CONTINUOUS
 62
     3
100
AcDbLine
 10
1145.984039
 20
173.232025
 30
0.0
 11
1158.584137
 21
173.232025
 31
0.0
  0
LINE
  5
16A
100
AcDbEntity
  8
枠_
  6
CONTINUOUS
 62
     3
100
AcDbLine
 10
1158.584137
 20
173.232025
 30
0.0
 11
1158.584137
 21
178.272003
 31
0.0
  0
LINE
  5
16B
100
AcDbEntity
  8
枠_
  6
CONTINUOUS
 62
     3
100
AcDbLine
 10
1158.584137
 20
178.272003
 30
0.0
 11
1154.053955
 21
178.272003
 31
0.0
  0
LINE
  5
16C
100
AcDbEntity
  8
枠_
  6
CONTINUOUS
 62
     3
100
AcDbLine
 10
1154.053955
 20
178.272003
 30
0.0
 11
1153.301239
 21
175.248016
 31
0.0
  0
LINE
  5
16D
100
AcDbEntity
  8
枠_
  6
CONTINUOUS
 62
     3
100
AcDbLine
 10
1153.301239
 20
175.248016
 30
0.0
 11
1144.989472
 21
175.248016
 31
0.0
  0
LINE
  5
16E
100
AcDbEntity
  8
枠_
  6
CONTINUOUS
 62
     3
100
AcDbLine
 10
1122.799988
 20
183.311981
 30
0.0
 11
1122.799988
 21
178.272003
 31
0.0
  0
LINE
  5
16F
100
AcDbEntity
  8
枠_
  6
CONTINUOUS
 62
     3
100
AcDbLine
 10
1122.799988
 20
183.311981
 30
0.0
 11
1132.879639
 21
183.311981
 31
0.0
  0
LINE
  5
170
100
AcDbEntity
  8
枠_
  6
CONTINUOUS
 62
     3
100
AcDbLine
 10
1132.879639
 20
183.311981
 30
0.0
 11
1132.879639
 21
188.351959
 31
0.0
  0
LINE
  5
171
100
AcDbEntity
  8
枠_
  6
CONTINUOUS
 62
     3
100
AcDbLine
 10
1132.879639
 20
188.351959
 30
0.0
 11
1141.95221
 21
188.351959
 31
0.0
  0
LINE
  5
172
100
AcDbEntity
  8
枠_
  6
CONTINUOUS
 62
     3
100
AcDbLine
 10
1141.95221
 20
188.351959
 30
0.0
 11
1141.95221
 21
183.311981
 31
0.0
  0
LINE
  5
173
100
AcDbEntity
  8
枠_
  6
CONTINUOUS
 62
     3
100
AcDbLine
 10
1141.95221
 20
183.311981
 30
0.0
 11
1144.975128
 21
183.311981
 31
0.0
  0
LINE
  5
174
100
AcDbEntity
  8
枠_
  6
CONTINUOUS
 62
     3
100
AcDbLine
 10
1144.975128
 20
183.311981
 30
0.0
 11
1144.975128
 21
178.272003
 31
0.0
  0
LINE
  5
175
100
AcDbEntity
  8
枠_
  6
CONTINUOUS
 62
     3
100
AcDbLine
 10
1144.975128
 20
178.272003
 30
0.0
 11
1141.95221
 21
178.272003
 31
0.0
  0
LINE
  5
176
100
AcDbEntity
  8
枠_
  6
CONTINUOUS
 62
     3
100
AcDbLine
 10
1141.95221
 20
178.272003
 30
0.0
 11
1144.975128
 21
174.110016
 31
0.0
  0
LINE
  5
177
100
AcDbEntity
  8
枠_
  6
CONTINUOUS
 62
     3
100
AcDbLine
 10
1144.975128
 20
174.110016
 30
0.0
 11
1144.975128
 21
163.820709
 31
0.0
  0
LINE
  5
178
100
AcDbEntity
  8
枠_
  6
CONTINUOUS
 62
     3
100
AcDbLine
 10
1144.975128
 20
163.820709
 30
0.0
 11
1141.95221
 21
167.982849
 31
0.0
  0
LINE
  5
179
100
AcDbEntity
  8
枠_
  6
CONTINUOUS
 62
     3
100
AcDbLine
 10
1141.95221
 20
167.982849
 30
0.0
 11
1141.95221
 21
144.0
 31
0.0
  0
LINE
  5
17A
100
AcDbEntity
  8
枠_
  6
CONTINUOUS
 62
     3
100
AcDbLine
 10
1141.95221
 20
144.0
 30
0.0
 11
1132.879639
 21
144.0
 31
0.0
  0
LINE
  5
17B
100
AcDbEntity
  8
枠_
  6
CONTINUOUS
 62
     3
100
AcDbLine
 10
1132.879639
 20
144.0
 30
0.0
 11
1132.879639
 21
178.272003
 31
0.0
  0
LINE
  5
17C
100
AcDbEntity
  8
枠_
  6
CONTINUOUS
 62
     3
100
AcDbLine
 10
1132.483826
 20
178.272003
 30
0.0
 11
1128.880615
 21
144.0
 31
0.0
  0
LINE
  5
17D
100
AcDbEntity
  8
枠_
  6
CONTINUOUS
 62
     3
100
AcDbLine
 10
1128.880615
 20
144.0
 30
0.0
 11
1122.799988
 21
144.0
 31
0.0
  0
LINE
  5
17E
100
AcDbEntity
  8
枠_
  6
CONTINUOUS
 62
     3
100
AcDbLine
 10
1122.799988
 20
144.0
 30
0.0
 11
1126.403198
 21
178.272003
 31
0.0
  0
LINE
  5
17F
100
AcDbEntity
  8
枠_
  6
CONTINUOUS
 62
     3
100
AcDbLine
 10
1126.403198
 20
178.272003
 30
0.0
 11
1122.799988
 21
178.272003
 31
0.0
  0
LINE
  5
180
100
AcDbEntity
  8
枠_
  6
CONTINUOUS
 62
     3
100
AcDbLine
 10
1185.295563
 20
172.22403
 30
0.0
 11
1185.295563
 21
166.176056
 31
0.0
  0
LINE
  5
181
100
AcDbEntity
  8
枠_
  6
CONTINUOUS
 62
     3
100
AcDbLine
 10
1185.295563
 20
172.22403
 30
0.0
 11
1215.536347
 21
172.22403
 31
0.0
  0
LINE
  5
182
100
AcDbEntity
  8
枠_
  6
CONTINUOUS
 62
     3
100
AcDbLine
 10
1215.536347
 20
172.22403
 30
0.0
 11
1215.536347
 21
166.176056
 31
0.0
  0
LINE
  5
183
100
AcDbEntity
  8
枠_
  6
CONTINUOUS
 62
     3
100
AcDbLine
 10
1215.536347
 20
166.176056
 30
0.0
 11
1205.959167
 21
166.176056
 31
0.0
  0
LINE
  5
184
100
AcDbEntity
  8
枠_
  6
CONTINUOUS
 62
     3
100
AcDbLine
 10
1205.959167
 20
166.176056
 30
0.0
 11
1205.959167
 21
157.774109
 31
0.0
  0
LINE
  5
185
100
AcDbEntity
  8
枠_
  6
CONTINUOUS
 62
     3
100
AcDbLine
 10
1205.959167
 20
157.774109
 30
0.0
 11
1216.040802
 21
159.916596
 31
0.0
  0
LINE
  5
186
100
AcDbEntity
  8
枠_
  6
CONTINUOUS
 62
     3
100
AcDbLine
 10
1216.040802
 20
159.916596
 30
0.0
 11
1216.040802
 21
150.641998
 31
0.0
  0
LINE
  5
187
100
AcDbEntity
  8
枠_
  6
CONTINUOUS
 62
     3
100
AcDbLine
 10
1216.040802
 20
150.641998
 30
0.0
 11
1184.790955
 21
144.0
 31
0.0
  0
LINE
  5
188
100
AcDbEntity
  8
枠_
  6
CONTINUOUS
 62
     3
100
AcDbLine
 10
1184.790955
 20
144.0
 30
0.0
 11
1184.790955
 21
153.274597
 31
0.0
  0
LINE
  5
189
100
AcDbEntity
  8
枠_
  6
CONTINUOUS
 62
     3
100
AcDbLine
 10
1184.790955
 20
153.274597
 30
0.0
 11
1194.872589
 21
155.417236
 31
0.0
  0
LINE
  5
18A
100
AcDbEntity
  8
枠_
  6
CONTINUOUS
 62
     3
100
AcDbLine
 10
1194.872589
 20
155.417236
 30
0.0
 11
1194.872589
 21
166.176056
 31
0.0
  0
LINE
  5
18B
100
AcDbEntity
  8
枠_
  6
CONTINUOUS
 62
     3
100
AcDbLine
 10
1194.872589
 20
166.176056
 30
0.0
 11
1185.295563
 21
166.176056
 31
0.0
  0
LINE
  5
18C
100
AcDbEntity
  8
枠_
  6
CONTINUOUS
 62
     3
100
AcDbLine
 10
1182.272644
 20
184.319977
 30
0.0
 11
1182.272644
 21
178.272003
 31
0.0
  0
LINE
  5
18D
100
AcDbEntity
  8
枠_
  6
CONTINUOUS
 62
     3
100
AcDbLine
 10
1182.272644
 20
184.319977
 30
0.0
 11
1212.244873
 21
184.319977
 31
0.0
  0
LINE
  5
18E
100
AcDbEntity
  8
枠_
  6
CONTINUOUS
 62
     3
100
AcDbLine
 10
1212.244873
 20
184.319977
 30
0.0
 11
1210.778504
 21
188.351959
 31
0.0
  0
LINE
  5
18F
100
AcDbEntity
  8
枠_
  6
CONTINUOUS
 62
     3
100
AcDbLine
 10
1210.778504
 20
188.351959
 30
0.0
 11
1222.576599
 21
188.351959
 31
0.0
  0
LINE
  5
190
100
AcDbEntity
  8
枠_
  6
CONTINUOUS
 62
     3
100
AcDbLine
 10
1222.576599
 20
188.351959
 30
0.0
 11
1224.044952
 21
184.319977
 31
0.0
  0
LINE
  5
191
100
AcDbEntity
  8
枠_
  6
CONTINUOUS
 62
     3
100
AcDbLine
 10
1224.044952
 20
184.319977
 30
0.0
 11
1226.624908
 21
184.319977
 31
0.0
  0
LINE
  5
192
100
AcDbEntity
  8
枠_
  6
CONTINUOUS
 62
     3
100
AcDbLine
 10
1226.624908
 20
184.319977
 30
0.0
 11
1226.624908
 21
188.351959
 31
0.0
  0
LINE
  5
193
100
AcDbEntity
  8
枠_
  6
CONTINUOUS
 62
     3
100
AcDbLine
 10
1226.624908
 20
188.351959
 30
0.0
 11
1235.695496
 21
188.351959
 31
0.0
  0
LINE
  5
194
100
AcDbEntity
  8
枠_
  6
CONTINUOUS
 62
     3
100
AcDbLine
 10
1235.695496
 20
188.351959
 30
0.0
 11
1235.695496
 21
184.319977
 31
0.0
  0
LINE
  5
195
100
AcDbEntity
  8
枠_
  6
CONTINUOUS
 62
     3
100
AcDbLine
 10
1235.695496
 20
184.319977
 30
0.0
 11
1238.720398
 21
184.319977
 31
0.0
  0
LINE
  5
196
100
AcDbEntity
  8
枠_
  6
CONTINUOUS
 62
     3
100
AcDbLine
 10
1238.720398
 20
184.319977
 30
0.0
 11
1238.720398
 21
178.272003
 31
0.0
  0
LINE
  5
197
100
AcDbEntity
  8
枠_
  6
CONTINUOUS
 62
     3
100
AcDbLine
 10
1238.720398
 20
178.272003
 30
0.0
 11
1226.245422
 21
178.272003
 31
0.0
  0
LINE
  5
198
100
AcDbEntity
  8
枠_
  6
CONTINUOUS
 62
     3
100
AcDbLine
 10
1226.245422
 20
178.272003
 30
0.0
 11
1238.720398
 21
144.0
 31
0.0
  0
LINE
  5
199
100
AcDbEntity
  8
枠_
  6
CONTINUOUS
 62
     3
100
AcDbLine
 10
1238.720398
 20
144.0
 30
0.0
 11
1226.920166
 21
144.0
 31
0.0
  0
LINE
  5
19A
100
AcDbEntity
  8
枠_
  6
CONTINUOUS
 62
     3
100
AcDbLine
 10
1226.920166
 20
144.0
 30
0.0
 11
1214.447327
 21
178.272003
 31
0.0
  0
LINE
  5
19B
100
AcDbEntity
  8
枠_
  6
CONTINUOUS
 62
     3
100
AcDbLine
 10
1214.447327
 20
178.272003
 30
0.0
 11
1182.272644
 21
178.272003
 31
0.0
  0
LINE
  5
19C
100
AcDbEntity
  8
枠_
  6
CONTINUOUS
 62
     3
100
AcDbLine
 10
1240.736389
 20
179.747833
 30
0.0
 11
1240.736389
 21
173.369965
 31
0.0
  0
LINE
  5
19D
100
AcDbEntity
  8
枠_
  6
CONTINUOUS
 62
     3
100
AcDbLine
 10
1240.736389
 20
179.747833
 30
0.0
 11
1269.463654
 21
189.359955
 31
0.0
  0
LINE
  5
19E
100
AcDbEntity
  8
枠_
  6
CONTINUOUS
 62
     3
100
AcDbLine
 10
1269.463654
 20
189.359955
 30
0.0
 11
1298.191071
 21
179.747528
 31
0.0
  0
LINE
  5
19F
100
AcDbEntity
  8
枠_
  6
CONTINUOUS
 62
     3
100
AcDbLine
 10
1298.191071
 20
179.747528
 30
0.0
 11
1298.191071
 21
173.369965
 31
0.0
  0
LINE
  5
1A0
100
AcDbEntity
  8
枠_
  6
CONTINUOUS
 62
     3
100
AcDbLine
 10
1298.191071
 20
173.369965
 30
0.0
 11
1289.624939
 21
176.236786
 31
0.0
  0
LINE
  5
1A1
100
AcDbEntity
  8
枠_
  6
CONTINUOUS
 62
     3
100
AcDbLine
 10
1289.624939
 20
176.236786
 30
0.0
 11
1289.624939
 21
171.216034
 31
0.0
  0
LINE
  5
1A2
100
AcDbEntity
  8
枠_
  6
CONTINUOUS
 62
     3
100
AcDbLine
 10
1289.624939
 20
171.216034
 30
0.0
 11
1249.304504
 21
171.216034
 31
0.0
  0
LINE
  5
1A3
100
AcDbEntity
  8
枠_
  6
CONTINUOUS
 62
     3
100
AcDbLine
 10
1249.304504
 20
171.216034
 30
0.0
 11
1249.304504
 21
176.236786
 31
0.0
  0
LINE
  5
1A4
100
AcDbEntity
  8
枠_
  6
CONTINUOUS
 62
     3
100
AcDbLine
 10
1249.304504
 20
176.236786
 30
0.0
 11
1240.736389
 21
173.369965
 31
0.0
  0
LINE
  5
1A5
100
AcDbEntity
  8
枠_
  6
CONTINUOUS
 62
     3
100
AcDbLine
 10
1252.374573
 20
177.264008
 30
0.0
 11
1269.463654
 21
182.982239
 31
0.0
  0
LINE
  5
1A6
100
AcDbEntity
  8
枠_
  6
CONTINUOUS
 62
     3
100
AcDbLine
 10
1269.463654
 20
182.982239
 30
0.0
 11
1286.554871
 21
177.264008
 31
0.0
  0
LINE
  5
1A7
100
AcDbEntity
  8
枠_
  6
CONTINUOUS
 62
     3
100
AcDbLine
 10
1286.554871
 20
177.264008
 30
0.0
 11
1252.374573
 21
177.264008
 31
0.0
  0
LINE
  5
1A8
100
AcDbEntity
  8
枠_
  6
CONTINUOUS
 62
     3
100
AcDbLine
 10
1240.736389
 20
167.183899
 30
0.0
 11
1240.736389
 21
161.135925
 31
0.0
  0
LINE
  5
1A9
100
AcDbEntity
  8
枠_
  6
CONTINUOUS
 62
     3
100
AcDbLine
 10
1240.736389
 20
167.183899
 30
0.0
 11
1298.191071
 21
167.183899
 31
0.0
  0
LINE
  5
1AA
100
AcDbEntity
  8
枠_
  6
CONTINUOUS
 62
     3
100
AcDbLine
 10
1298.191071
 20
167.183899
 30
0.0
 11
1298.191071
 21
161.135925
 31
0.0
  0
LINE
  5
1AB
100
AcDbEntity
  8
枠_
  6
CONTINUOUS
 62
     3
100
AcDbLine
 10
1298.191071
 20
161.135925
 30
0.0
 11
1290.201111
 21
161.135925
 31
0.0
  0
LINE
  5
1AC
100
AcDbEntity
  8
枠_
  6
CONTINUOUS
 62
     3
100
AcDbLine
 10
1290.201111
 20
161.135925
 30
0.0
 11
1298.191071
 21
144.0
 31
0.0
  0
LINE
  5
1AD
100
AcDbEntity
  8
枠_
  6
CONTINUOUS
 62
     3
100
AcDbLine
 10
1298.191071
 20
144.0
 30
0.0
 11
1240.736389
 21
144.0
 31
0.0
  0
LINE
  5
1AE
100
AcDbEntity
  8
枠_
  6
CONTINUOUS
 62
     3
100
AcDbLine
 10
1240.736389
 20
144.0
 30
0.0
 11
1248.726196
 21
161.135925
 31
0.0
  0
LINE
  5
1AF
100
AcDbEntity
  8
枠_
  6
CONTINUOUS
 62
     3
100
AcDbLine
 10
1248.726196
 20
161.135925
 30
0.0
 11
1240.736389
 21
161.135925
 31
0.0
  0
LINE
  5
1B0
100
AcDbEntity
  8
枠_
  6
CONTINUOUS
 62
     3
100
AcDbLine
 10
1259.847565
 20
161.135925
 30
0.0
 11
1279.079743
 21
161.135925
 31
0.0
  0
LINE
  5
1B1
100
AcDbEntity
  8
枠_
  6
CONTINUOUS
 62
     3
100
AcDbLine
 10
1279.079743
 20
161.135925
 30
0.0
 11
1284.249725
 21
150.047974
 31
0.0
  0
LINE
  5
1B2
100
AcDbEntity
  8
枠_
  6
CONTINUOUS
 62
     3
100
AcDbLine
 10
1284.249725
 20
150.047974
 30
0.0
 11
1254.677582
 21
150.047974
 31
0.0
  0
LINE
  5
1B3
100
AcDbEntity
  8
枠_
  6
CONTINUOUS
 62
     3
100
AcDbLine
 10
1259.847565
 20
161.135925
 30
0.0
 11
1254.677582
 21
150.047974
 31
0.0
  0
LINE
  5
1B4
100
AcDbEntity
  8
枠_
  6
CONTINUOUS
 62
     3
100
AcDbLine
 10
1327.424927
 20
177.264008
 30
0.0
 11
1327.424927
 21
171.216034
 31
0.0
  0
LINE
  5
1B5
100
AcDbEntity
  8
枠_
  6
CONTINUOUS
 62
     3
100
AcDbLine
 10
1327.424927
 20
177.264008
 30
0.0
 11
1336.495514
 21
177.264008
 31
0.0
  0
LINE
  5
1B6
100
AcDbEntity
  8
枠_
  6
CONTINUOUS
 62
     3
100
AcDbLine
 10
1336.495514
 20
177.264008
 30
0.0
 11
1336.495514
 21
188.351959
 31
0.0
  0
LINE
  5
1B7
100
AcDbEntity
  8
枠_
  6
CONTINUOUS
 62
     3
100
AcDbLine
 10
1336.495514
 20
188.351959
 30
0.0
 11
1346.575012
 21
188.351959
 31
0.0
  0
LINE
  5
1B8
100
AcDbEntity
  8
枠_
  6
CONTINUOUS
 62
     3
100
AcDbLine
 10
1346.575012
 20
188.351959
 30
0.0
 11
1346.575012
 21
177.264008
 31
0.0
  0
LINE
  5
1B9
100
AcDbEntity
  8
枠_
  6
CONTINUOUS
 62
     3
100
AcDbLine
 10
1346.575012
 20
177.264008
 30
0.0
 11
1355.647736
 21
177.264008
 31
0.0
  0
LINE
  5
1BA
100
AcDbEntity
  8
枠_
  6
CONTINUOUS
 62
     3
100
AcDbLine
 10
1355.647736
 20
177.264008
 30
0.0
 11
1355.647736
 21
171.216034
 31
0.0
  0
LINE
  5
1BB
100
AcDbEntity
  8
枠_
  6
CONTINUOUS
 62
     3
100
AcDbLine
 10
1355.647736
 20
171.216034
 30
0.0
 11
1346.575012
 21
171.216034
 31
0.0
  0
LINE
  5
1BC
100
AcDbEntity
  8
枠_
  6
CONTINUOUS
 62
     3
100
AcDbLine
 10
1346.575012
 20
171.216034
 30
0.0
 11
1346.575012
 21
150.047974
 31
0.0
  0
LINE
  5
1BD
100
AcDbEntity
  8
枠_
  6
CONTINUOUS
 62
     3
100
AcDbLine
 10
1346.575012
 20
150.047974
 30
0.0
 11
1356.656647
 21
150.047974
 31
0.0
  0
LINE
  5
1BE
100
AcDbEntity
  8
枠_
  6
CONTINUOUS
 62
     3
100
AcDbLine
 10
1356.656647
 20
150.047974
 30
0.0
 11
1356.656647
 21
144.0
 31
0.0
  0
LINE
  5
1BF
100
AcDbEntity
  8
枠_
  6
CONTINUOUS
 62
     3
100
AcDbLine
 10
1356.656647
 20
144.0
 30
0.0
 11
1323.390961
 21
144.0
 31
0.0
  0
LINE
  5
1C0
100
AcDbEntity
  8
枠_
  6
CONTINUOUS
 62
     3
100
AcDbLine
 10
1323.390961
 20
144.0
 30
0.0
 11
1323.390961
 21
150.047974
 31
0.0
  0
LINE
  5
1C1
100
AcDbEntity
  8
枠_
  6
CONTINUOUS
 62
     3
100
AcDbLine
 10
1323.390961
 20
150.047974
 30
0.0
 11
1336.495514
 21
150.047974
 31
0.0
  0
LINE
  5
1C2
100
AcDbEntity
  8
枠_
  6
CONTINUOUS
 62
     3
100
AcDbLine
 10
1336.495514
 20
150.047974
 30
0.0
 11
1336.495514
 21
171.216034
 31
0.0
  0
LINE
  5
1C3
100
AcDbEntity
  8
枠_
  6
CONTINUOUS
 62
     3
100
AcDbLine
 10
1336.495514
 20
171.216034
 30
0.0
 11
1327.424927
 21
171.216034
 31
0.0
  0
LINE
  5
1C4
100
AcDbEntity
  8
枠_
  6
CONTINUOUS
 62
     3
100
AcDbLine
 10
1300.206909
 20
184.319977
 30
0.0
 11
1300.206909
 21
178.272003
 31
0.0
  0
LINE
  5
1C5
100
AcDbEntity
  8
枠_
  6
CONTINUOUS
 62
     3
100
AcDbLine
 10
1300.206909
 20
184.319977
 30
0.0
 11
1309.279633
 21
184.319977
 31
0.0
  0
LINE
  5
1C6
100
AcDbEntity
  8
枠_
  6
CONTINUOUS
 62
     3
100
AcDbLine
 10
1309.279633
 20
184.319977
 30
0.0
 11
1309.279633
 21
188.351959
 31
0.0
  0
LINE
  5
1C7
100
AcDbEntity
  8
枠_
  6
CONTINUOUS
 62
     3
100
AcDbLine
 10
1309.279633
 20
188.351959
 30
0.0
 11
1319.359131
 21
188.351959
 31
0.0
  0
LINE
  5
1C8
100
AcDbEntity
  8
枠_
  6
CONTINUOUS
 62
     3
100
AcDbLine
 10
1319.359131
 20
188.351959
 30
0.0
 11
1319.359131
 21
184.319977
 31
0.0
  0
LINE
  5
1C9
100
AcDbEntity
  8
枠_
  6
CONTINUOUS
 62
     3
100
AcDbLine
 10
1319.359131
 20
184.319977
 30
0.0
 11
1328.431854
 21
184.319977
 31
0.0
  0
LINE
  5
1CA
100
AcDbEntity
  8
枠_
  6
CONTINUOUS
 62
     3
100
AcDbLine
 10
1328.431854
 20
184.319977
 30
0.0
 11
1318.026123
 21
169.45578
 31
0.0
  0
LINE
  5
1CB
100
AcDbEntity
  8
枠_
  6
CONTINUOUS
 62
     3
100
AcDbLine
 10
1318.026123
 20
169.45578
 30
0.0
 11
1327.424927
 21
162.875885
 31
0.0
  0
LINE
  5
1CC
100
AcDbEntity
  8
枠_
  6
CONTINUOUS
 62
     3
100
AcDbLine
 10
1327.424927
 20
162.875885
 30
0.0
 11
1327.424927
 21
151.801209
 31
0.0
  0
LINE
  5
1CD
100
AcDbEntity
  8
枠_
  6
CONTINUOUS
 62
     3
100
AcDbLine
 10
1327.424927
 20
151.801209
 30
0.0
 11
1319.359131
 21
157.447723
 31
0.0
  0
LINE
  5
1CE
100
AcDbEntity
  8
枠_
  6
CONTINUOUS
 62
     3
100
AcDbLine
 10
1319.359131
 20
157.447723
 30
0.0
 11
1319.359131
 21
144.0
 31
0.0
  0
LINE
  5
1CF
100
AcDbEntity
  8
枠_
  6
CONTINUOUS
 62
     3
100
AcDbLine
 10
1319.359131
 20
144.0
 30
0.0
 11
1309.279633
 21
144.0
 31
0.0
  0
LINE
  5
1D0
100
AcDbEntity
  8
枠_
  6
CONTINUOUS
 62
     3
100
AcDbLine
 10
1309.279633
 20
144.0
 30
0.0
 11
1309.279633
 21
156.9599
 31
0.0
  0
LINE
  5
1D1
100
AcDbEntity
  8
枠_
  6
CONTINUOUS
 62
     3
100
AcDbLine
 10
1309.279633
 20
156.9599
 30
0.0
 11
1300.206909
 21
144.0
 31
0.0
  0
LINE
  5
1D2
100
AcDbEntity
  8
枠_
  6
CONTINUOUS
 62
     3
100
AcDbLine
 10
1300.206909
 20
144.0
 30
0.0
 11
1300.206909
 21
159.819397
 31
0.0
  0
LINE
  5
1D3
100
AcDbEntity
  8
枠_
  6
CONTINUOUS
 62
     3
100
AcDbLine
 10
1300.206909
 20
159.819397
 30
0.0
 11
1313.124848
 21
178.272003
 31
0.0
  0
LINE
  5
1D4
100
AcDbEntity
  8
枠_
  6
CONTINUOUS
 62
     3
100
AcDbLine
 10
1313.124848
 20
178.272003
 30
0.0
 11
1300.206909
 21
178.272003
 31
0.0
  0
ARC
  5
1D5
100
AcDbEntity
  8
枠_
  6
CONTINUOUS
 62
     2
100
AcDbCircle
 10
858.161011
 20
170.200409
 30
0.0
 40
6.300122
100
AcDbArc
 50
310.768311
 51
335.998779
  0
LINE
  5
1D6
100
AcDbEntity
  8
枠_
  6
CONTINUOUS
 62
     2
100
AcDbLine
 10
865.400238
 20
170.964111
 30
0.0
 11
863.919678
 21
167.639069
 31
0.0
  0
LINE
  5
1D7
100
AcDbEntity
  8
枠_
  6
CONTINUOUS
 62
     2
100
AcDbLine
 10
847.985077
 20
174.744019
 30
0.0
 11
871.218414
 21
174.744019
 31
0.0
  0
ARC
  5
1D8
100
AcDbEntity
  8
枠_
  6
CONTINUOUS
 62
     2
100
AcDbCircle
 10
951.299286
 20
162.144073
 30
0.0
 40
15.624008
100
AcDbArc
 50
270.000031
 51
324.00116
  0
ARC
  5
1D9
100
AcDbEntity
  8
枠_
  6
CONTINUOUS
 62
     2
100
AcDbCircle
 10
951.299286
 20
162.144073
 30
0.0
 40
13.10401
100
AcDbArc
 50
270.000031
 51
324.00116
  0
ARC
  5
1DA
100
AcDbEntity
  8
枠_
  6
CONTINUOUS
 62
     2
100
AcDbCircle
 10
798.565674
 20
162.144073
 30
0.0
 40
15.62398
100
AcDbArc
 50
270.000031
 51
333.99855
  0
ARC
  5
1DB
100
AcDbEntity
  8
枠_
  6
CONTINUOUS
 62
     2
100
AcDbCircle
 10
797.765503
 20
162.144073
 30
0.0
 40
10.583992
100
AcDbArc
 50
270.000031
 51
333.99855
  0
ARC
  5
1DC
100
AcDbEntity
  8
枠_
  6
CONTINUOUS
 62
     2
100
AcDbCircle
 10
798.165588
 20
162.144073
 30
0.0
 40
13.103991
100
AcDbArc
 50
270.000031
 51
333.99855
  0
LINE
  5
1DD
100
AcDbEntity
  8
枠_
  6
CONTINUOUS
 62
     2
100
AcDbLine
 10
771.84082
 20
186.032127
 30
0.0
 11
796.383972
 21
186.032127
 31
0.0
  0
LINE
  5
1DE
100
AcDbEntity
  8
枠_
  6
CONTINUOUS
 62
     2
100
AcDbLine
 10
771.84082
 20
183.712143
 30
0.0
 11
796.383972
 21
183.712143
 31
0.0
  0
LINE
  5
1DF
100
AcDbEntity
  8
枠_
  6
CONTINUOUS
 62
     2
100
AcDbLine
 10
771.84082
 20
181.392311
 30
0.0
 11
796.383972
 21
181.392311
 31
0.0
  0
LINE
  5
1E0
100
AcDbEntity
  8
枠_
  6
CONTINUOUS
 62
     2
100
AcDbLine
 10
771.84082
 20
174.136032
 30
0.0
 11
796.383972
 21
174.136032
 31
0.0
  0
LINE
  5
1E1
100
AcDbEntity
  8
枠_
  6
CONTINUOUS
 62
     2
100
AcDbLine
 10
771.84082
 20
171.615891
 30
0.0
 11
796.383972
 21
171.615891
 31
0.0
  0
LINE
  5
1E2
100
AcDbEntity
  8
枠_
  6
CONTINUOUS
 62
     2
100
AcDbLine
 10
771.84082
 20
169.296059
 30
0.0
 11
796.383972
 21
169.296059
 31
0.0
  0
LINE
  5
1E3
100
AcDbEntity
  8
枠_
  6
CONTINUOUS
 62
     2
100
AcDbLine
 10
771.84082
 20
151.559967
 30
0.0
 11
797.765503
 21
151.559967
 31
0.0
  0
LINE
  5
1E4
100
AcDbEntity
  8
枠_
  6
CONTINUOUS
 62
     2
100
AcDbLine
 10
771.84082
 20
149.039978
 30
0.0
 11
797.765503
 21
149.039978
 31
0.0
  0
LINE
  5
1E5
100
AcDbEntity
  8
枠_
  6
CONTINUOUS
 62
     2
100
AcDbLine
 10
771.84082
 20
146.519989
 30
0.0
 11
797.765503
 21
146.519989
 31
0.0
  0
LINE
  5
1E6
100
AcDbEntity
  8
枠_
  6
CONTINUOUS
 62
     2
100
AcDbLine
 10
807.277069
 20
157.504028
 30
0.0
 11
816.108246
 21
175.610365
 31
0.0
  0
LINE
  5
1E7
100
AcDbEntity
  8
枠_
  6
CONTINUOUS
 62
     2
100
AcDbLine
 10
809.941254
 20
156.399597
 30
0.0
 11
819.311676
 21
175.610375
 31
0.0
  0
LINE
  5
1E8
100
AcDbEntity
  8
枠_
  6
CONTINUOUS
 62
     2
100
AcDbLine
 10
812.605286
 20
155.294251
 30
0.0
 11
822.513123
 21
175.610346
 31
0.0
  0
LINE
  5
1E9
100
AcDbEntity
  8
枠_
  6
CONTINUOUS
 62
     2
100
AcDbLine
 10
809.136353
 20
185.695976
 30
0.0
 11
813.518372
 21
185.695976
 31
0.0
  0
LINE
  5
1EA
100
AcDbEntity
  8
枠_
  6
CONTINUOUS
 62
     2
100
AcDbLine
 10
809.136353
 20
182.839989
 30
0.0
 11
813.518372
 21
182.839989
 31
0.0
  0
LINE
  5
1EB
100
AcDbEntity
  8
枠_
  6
CONTINUOUS
 62
     2
100
AcDbLine
 10
820.224915
 20
185.695976
 30
0.0
 11
824.606934
 21
185.695976
 31
0.0
  0
LINE
  5
1EC
100
AcDbEntity
  8
枠_
  6
CONTINUOUS
 62
     2
100
AcDbLine
 10
820.224915
 20
182.839989
 30
0.0
 11
824.606934
 21
182.839989
 31
0.0
  0
LINE
  5
1ED
100
AcDbEntity
  8
枠_
  6
CONTINUOUS
 62
     2
100
AcDbLine
 10
831.313477
 20
172.224182
 30
0.0
 11
843.28064
 21
172.224182
 31
0.0
  0
LINE
  5
1EE
100
AcDbEntity
  8
枠_
  6
CONTINUOUS
 62
     2
100
AcDbLine
 10
840.375366
 20
182.502684
 30
0.0
 11
841.605072
 21
174.744019
 31
0.0
  0
LINE
  5
1EF
100
AcDbEntity
  8
枠_
  6
CONTINUOUS
 62
     2
100
AcDbLine
 10
846.188049
 20
145.817303
 30
0.0
 11
842.449036
 21
169.419044
 31
0.0
  0
ARC
  5
1F0
100
AcDbEntity
  8
枠_
  6
CONTINUOUS
 62
     2
100
AcDbCircle
 10
857.960968
 20
170.200409
 30
0.0
 40
8.820121
100
AcDbArc
 50
272.671387
 51
335.998779
  0
ARC
  5
1F1
100
AcDbEntity
  8
枠_
  6
CONTINUOUS
 62
     2
100
AcDbCircle
 10
857.760925
 20
170.200409
 30
0.0
 40
11.340113
100
AcDbArc
 50
267.367432
 51
335.998779
  0
LINE
  5
1F2
100
AcDbEntity
  8
枠_
  6
CONTINUOUS
 62
     2
100
AcDbLine
 10
872.351685
 20
175.090527
 30
0.0
 11
868.121491
 21
165.588593
 31
0.0
  0
LINE
  5
1F3
100
AcDbEntity
  8
枠_
  6
CONTINUOUS
 62
     2
100
AcDbLine
 10
852.090607
 20
145.817303
 30
0.0
 11
848.220367
 21
170.248817
 31
0.0
  0
LINE
  5
1F4
100
AcDbEntity
  8
枠_
  6
CONTINUOUS
 62
     2
100
AcDbLine
 10
849.339294
 20
145.817303
 30
0.0
 11
843.528442
 21
182.502674
 31
0.0
  0
LINE
  5
1F5
100
AcDbEntity
  8
枠_
  6
CONTINUOUS
 62
     2
100
AcDbLine
 10
846.279755
 20
182.502674
 30
0.0
 11
847.39563
 21
175.459465
 31
0.0
  0
LINE
  5
1F6
100
AcDbEntity
  8
枠_
  6
CONTINUOUS
 62
     2
100
AcDbLine
 10
831.313477
 20
174.744019
 30
0.0
 11
839.605103
 21
174.744019
 31
0.0
  0
LINE
  5
1F7
100
AcDbEntity
  8
枠_
  6
CONTINUOUS
 62
     2
100
AcDbLine
 10
868.669891
 20
172.570395
 30
0.0
 11
866.020508
 21
166.613525
 31
0.0
  0
LINE
  5
1F8
100
AcDbEntity
  8
枠_
  6
CONTINUOUS
 62
     2
100
AcDbLine
 10
847.107391
 20
172.224182
 30
0.0
 11
866.338196
 21
172.224182
 31
0.0
  0
ARC
  5
1F9
100
AcDbEntity
  8
枠_
  6
CONTINUOUS
 62
     2
100
AcDbCircle
 10
857.560883
 20
170.200409
 30
0.0
 40
13.860111
100
AcDbArc
 50
269.611328
 51
335.998779
  0
LINE
  5
1FA
100
AcDbEntity
  8
枠_
  6
CONTINUOUS
 62
     2
100
AcDbLine
 10
874.909821
 20
175.090555
 30
0.0
 11
870.222473
 21
164.563355
 31
0.0
  0
LINE
  5
1FB
100
AcDbEntity
  8
枠_
  6
CONTINUOUS
 62
     2
100
AcDbLine
 10
982.312622
 20
183.312134
 30
0.0
 11
961.880646
 21
155.182709
 31
0.0
  0
LINE
  5
1FC
100
AcDbEntity
  8
枠_
  6
CONTINUOUS
 62
     2
100
AcDbLine
 10
976.868134
 20
180.792297
 30
0.0
 11
959.342041
 21
156.664032
 31
0.0
  0
ARC
  5
1FD
100
AcDbEntity
  8
枠_
  6
CONTINUOUS
 62
     2
100
AcDbCircle
 10
951.999359
 20
161.744064
 30
0.0
 40
9.324021
100
AcDbArc
 50
270.000031
 51
324.00116
  0
LINE
  5
1FE
100
AcDbEntity
  8
枠_
  6
CONTINUOUS
 62
     2
100
AcDbLine
 10
882.879486
 20
186.015591
 30
0.0
 11
927.263641
 21
186.015591
 31
0.0
  0
LINE
  5
1FF
100
AcDbEntity
  8
枠_
  6
CONTINUOUS
 62
     2
100
AcDbLine
 10
882.879486
 20
183.395752
 30
0.0
 11
927.263641
 21
183.395752
 31
0.0
  0
LINE
  5
200
100
AcDbEntity
  8
枠_
  6
CONTINUOUS
 62
     2
100
AcDbLine
 10
882.879486
 20
180.675911
 30
0.0
 11
927.263641
 21
180.675911
 31
0.0
  0
LINE
  5
201
100
AcDbEntity
  8
枠_
  6
CONTINUOUS
 62
     2
100
AcDbLine
 10
878.847656
 20
151.644043
 30
0.0
 11
931.295471
 21
151.644043
 31
0.0
  0
LINE
  5
202
100
AcDbEntity
  8
枠_
  6
CONTINUOUS
 62
     2
100
AcDbLine
 10
878.847656
 20
149.124054
 30
0.0
 11
931.295471
 21
149.124054
 31
0.0
  0
LINE
  5
203
100
AcDbEntity
  8
枠_
  6
CONTINUOUS
 62
     2
100
AcDbLine
 10
878.847656
 20
146.403908
 30
0.0
 11
931.295471
 21
146.403908
 31
0.0
  0
LINE
  5
204
100
AcDbEntity
  8
枠_
  6
CONTINUOUS
 62
     2
100
AcDbLine
 10
942.352142
 20
185.932125
 30
0.0
 11
985.256806
 21
185.932125
 31
0.0
  0
LINE
  5
205
100
AcDbEntity
  8
枠_
  6
CONTINUOUS
 62
     2
100
AcDbLine
 10
987.856903
 20
185.832123
 30
0.0
 11
964.519043
 21
153.700623
 31
0.0
  0
LINE
  5
206
100
AcDbEntity
  8
枠_
  6
CONTINUOUS
 62
     2
100
AcDbLine
 10
942.352142
 20
183.312134
 30
0.0
 11
980.3125
 21
183.312134
 31
0.0
  0
LINE
  5
207
100
AcDbEntity
  8
枠_
  6
CONTINUOUS
 62
     2
100
AcDbLine
 10
951.299286
 20
151.659969
 30
0.0
 11
938.320313
 21
151.659969
 31
0.0
  0
LINE
  5
208
100
AcDbEntity
  8
枠_
  6
CONTINUOUS
 62
     2
100
AcDbLine
 10
951.299286
 20
149.039978
 30
0.0
 11
938.320313
 21
149.039978
 31
0.0
  0
LINE
  5
209
100
AcDbEntity
  8
枠_
  6
CONTINUOUS
 62
     2
100
AcDbLine
 10
951.299286
 20
146.419987
 30
0.0
 11
938.320313
 21
146.419987
 31
0.0
  0
LINE
  5
20A
100
AcDbEntity
  8
枠_
  6
CONTINUOUS
 62
     2
100
AcDbLine
 10
971.431885
 20
159.737152
 30
0.0
 11
983.371582
 21
145.999998
 31
0.0
  0
LINE
  5
20B
100
AcDbEntity
  8
枠_
  6
CONTINUOUS
 62
     2
100
AcDbLine
 10
972.953491
 20
161.530508
 30
0.0
 11
986.451721
 21
145.999998
 31
0.0
  0
LINE
  5
20C
100
AcDbEntity
  8
枠_
  6
CONTINUOUS
 62
     2
100
AcDbLine
 10
974.473114
 20
163.322949
 30
0.0
 11
989.529419
 21
145.999998
 31
0.0
  0
LINE
  5
20D
100
AcDbEntity
  8
枠_
  6
CONTINUOUS
 62
     2
100
AcDbLine
 10
975.992737
 20
165.115847
 30
0.0
 11
992.609253
 21
145.999998
 31
0.0
  0
LINE
  5
20E
100
AcDbEntity
  8
枠_
  6
CONTINUOUS
 62
     2
100
AcDbLine
 10
942.352142
 20
180.592293
 30
0.0
 11
974.367981
 21
180.592293
 31
0.0
  0
LINE
  5
20F
100
AcDbEntity
  8
枠_
  6
CONTINUOUS
 62
     2
100
AcDbLine
 10
1010.895538
 20
186.032127
 30
0.0
 11
1059.311371
 21
186.032127
 31
0.0
  0
LINE
  5
210
100
AcDbEntity
  8
枠_
  6
CONTINUOUS
 62
     2
100
AcDbLine
 10
1010.895538
 20
183.512138
 30
0.0
 11
1059.311371
 21
183.512138
 31
0.0
  0
LINE
  5
211
100
AcDbEntity
  8
枠_
  6
CONTINUOUS
 62
     2
100
AcDbLine
 10
1031.677399
 20
151.479916
 30
0.0
 11
1031.677399
 21
181.212219
 31
0.0
  0
LINE
  5
212
100
AcDbEntity
  8
枠_
  6
CONTINUOUS
 62
     2
100
AcDbLine
 10
1034.195862
 20
151.479916
 30
0.0
 11
1034.195862
 21
181.212219
 31
0.0
  0
LINE
  5
213
100
AcDbEntity
  8
枠_
  6
CONTINUOUS
 62
     2
100
AcDbLine
 10
1036.714172
 20
151.479916
 30
0.0
 11
1036.714172
 21
181.212219
 31
0.0
  0
LINE
  5
214
100
AcDbEntity
  8
枠_
  6
CONTINUOUS
 62
     2
100
AcDbLine
 10
1039.03244
 20
151.479916
 30
0.0
 11
1039.03244
 21
181.212219
 31
0.0
  0
LINE
  5
215
100
AcDbEntity
  8
枠_
  6
CONTINUOUS
 62
     2
100
AcDbLine
 10
1008.879547
 20
149.479918
 30
0.0
 11
1061.327362
 21
149.479918
 31
0.0
  0
LINE
  5
216
100
AcDbEntity
  8
枠_
  6
CONTINUOUS
 62
     2
100
AcDbLine
 10
1008.879547
 20
146.459927
 30
0.0
 11
1061.327362
 21
146.459927
 31
0.0
  0
LINE
  5
217
100
AcDbEntity
  8
枠_
  6
CONTINUOUS
 62
     2
100
AcDbLine
 10
1073.127594
 20
186.351961
 30
0.0
 11
1076.87088
 21
181.561502
 31
0.0
  0
LINE
  5
218
100
AcDbEntity
  8
枠_
  6
CONTINUOUS
 62
     2
100
AcDbLine
 10
1076.324768
 20
186.351961
 30
0.0
 11
1080.068054
 21
181.561502
 31
0.0
  0
LINE
  5
219
100
AcDbEntity
  8
枠_
  6
CONTINUOUS
 62
     2
100
AcDbLine
 10
1086.31134
 20
186.351961
 30
0.0
 11
1086.31134
 21
181.985563
 31
0.0
  0
LINE
  5
21A
100
AcDbEntity
  8
枠_
  6
CONTINUOUS
 62
     2
100
AcDbLine
 10
1089.029846
 20
186.351961
 30
0.0
 11
1089.029846
 21
181.985563
 31
0.0
  0
LINE
  5
21B
100
AcDbEntity
  8
枠_
  6
CONTINUOUS
 62
     2
100
AcDbLine
 10
1096.390991
 20
186.351961
 30
0.0
 11
1096.390991
 21
181.985563
 31
0.0
  0
LINE
  5
21C
100
AcDbEntity
  8
枠_
  6
CONTINUOUS
 62
     2
100
AcDbLine
 10
1099.309387
 20
186.351961
 30
0.0
 11
1099.309387
 21
181.985563
 31
0.0
  0
LINE
  5
21D
100
AcDbEntity
  8
枠_
  6
CONTINUOUS
 62
     2
100
AcDbLine
 10
1108.995667
 20
186.351961
 30
0.0
 11
1105.25238
 21
181.561502
 31
0.0
  0
LINE
  5
21E
100
AcDbEntity
  8
枠_
  6
CONTINUOUS
 62
     2
100
AcDbLine
 10
1112.392883
 20
186.351961
 30
0.0
 11
1108.649597
 21
181.561502
 31
0.0
  0
LINE
  5
21F
100
AcDbEntity
  8
枠_
  6
CONTINUOUS
 62
     2
100
AcDbLine
 10
1066.336212
 20
179.985565
 30
0.0
 11
1118.784027
 21
179.985565
 31
0.0
  0
LINE
  5
220
100
AcDbEntity
  8
枠_
  6
CONTINUOUS
 62
     2
100
AcDbLine
 10
1079.431763
 20
172.188286
 30
0.0
 11
1077.277832
 21
178.106178
 31
0.0
  0
LINE
  5
221
100
AcDbEntity
  8
枠_
  6
CONTINUOUS
 62
     2
100
AcDbLine
 10
1082.512207
 20
172.188286
 30
0.0
 11
1080.358276
 21
178.106178
 31
0.0
  0
LINE
  5
222
100
AcDbEntity
  8
枠_
  6
CONTINUOUS
 62
     2
100
AcDbLine
 10
1085.392609
 20
172.188515
 30
0.0
 11
1083.241119
 21
178.105949
 31
0.0
  0
LINE
  5
223
100
AcDbEntity
  8
枠_
  6
CONTINUOUS
 62
     2
100
AcDbLine
 10
1099.919434
 20
172.188067
 30
0.0
 11
1102.075653
 21
178.106398
 31
0.0
  0
LINE
  5
224
100
AcDbEntity
  8
枠_
  6
CONTINUOUS
 62
     2
100
AcDbLine
 10
1103.002014
 20
172.188067
 30
0.0
 11
1105.158234
 21
178.106398
 31
0.0
  0
LINE
  5
225
100
AcDbEntity
  8
枠_
  6
CONTINUOUS
 62
     2
100
AcDbLine
 10
1105.882416
 20
172.188067
 30
0.0
 11
1108.038635
 21
178.106398
 31
0.0
  0
LINE
  5
226
100
AcDbEntity
  8
枠_
  6
CONTINUOUS
 62
     2
100
AcDbLine
 10
1066.336212
 20
170.308899
 30
0.0
 11
1118.784027
 21
170.308899
 31
0.0
  0
LINE
  5
227
100
AcDbEntity
  8
枠_
  6
CONTINUOUS
 62
     2
100
AcDbLine
 10
1066.336212
 20
163.353638
 30
0.0
 11
1087.838745
 21
163.353638
 31
0.0
  0
LINE
  5
228
100
AcDbEntity
  8
枠_
  6
CONTINUOUS
 62
     2
100
AcDbLine
 10
1066.336212
 20
156.398377
 30
0.0
 11
1087.838745
 21
156.398377
 31
0.0
  0
LINE
  5
229
100
AcDbEntity
  8
枠_
  6
CONTINUOUS
 62
     2
100
AcDbLine
 10
1097.475586
 20
156.398377
 30
0.0
 11
1118.784027
 21
156.398377
 31
0.0
  0
LINE
  5
22A
100
AcDbEntity
  8
枠_
  6
CONTINUOUS
 62
     2
100
AcDbLine
 10
1069.50882
 20
145.999998
 30
0.0
 11
1079.533234
 21
155.057539
 31
0.0
  0
LINE
  5
22B
100
AcDbEntity
  8
枠_
  6
CONTINUOUS
 62
     2
100
AcDbLine
 10
1072.867737
 20
145.999998
 30
0.0
 11
1082.892456
 21
155.057558
 31
0.0
  0
LINE
  5
22C
100
AcDbEntity
  8
枠_
  6
CONTINUOUS
 62
     2
100
AcDbLine
 10
1076.028748
 20
145.999998
 30
0.0
 11
1086.053467
 21
155.057558
 31
0.0
  0
LINE
  5
22D
100
AcDbEntity
  8
枠_
  6
CONTINUOUS
 62
     2
100
AcDbLine
 10
1089.838715
 20
145.999998
 30
0.0
 11
1089.838715
 21
168.308901
 31
0.0
  0
LINE
  5
22E
100
AcDbEntity
  8
枠_
  6
CONTINUOUS
 62
     2
100
AcDbLine
 10
1092.757111
 20
145.999998
 30
0.0
 11
1092.757111
 21
168.308901
 31
0.0
  0
LINE
  5
22F
100
AcDbEntity
  8
枠_
  6
CONTINUOUS
 62
     2
100
AcDbLine
 10
1095.475617
 20
145.999998
 30
0.0
 11
1095.475617
 21
168.308901
 31
0.0
  0
LINE
  5
230
100
AcDbEntity
  8
枠_
  6
CONTINUOUS
 62
     2
100
AcDbLine
 10
1109.171753
 20
145.999998
 30
0.0
 11
1099.147339
 21
155.057539
 31
0.0
  0
LINE
  5
231
100
AcDbEntity
  8
枠_
  6
CONTINUOUS
 62
     2
100
AcDbLine
 10
1112.530823
 20
145.999998
 30
0.0
 11
1102.506104
 21
155.057558
 31
0.0
  0
LINE
  5
232
100
AcDbEntity
  8
枠_
  6
CONTINUOUS
 62
     2
100
AcDbLine
 10
1115.891876
 20
145.999998
 30
0.0
 11
1105.867157
 21
155.057558
 31
0.0
  0
LINE
  5
233
100
AcDbEntity
  8
枠_
  6
CONTINUOUS
 62
     2
100
AcDbLine
 10
1134.997864
 20
186.351961
 30
0.0
 11
1134.997864
 21
182.79199
 31
0.0
  0
LINE
  5
234
100
AcDbEntity
  8
枠_
  6
CONTINUOUS
 62
     2
100
AcDbLine
 10
1137.516174
 20
186.351961
 30
0.0
 11
1137.516174
 21
182.79199
 31
0.0
  0
LINE
  5
235
100
AcDbEntity
  8
枠_
  6
CONTINUOUS
 62
     2
100
AcDbLine
 10
1140.034637
 20
186.351961
 30
0.0
 11
1140.034637
 21
182.79199
 31
0.0
  0
LINE
  5
236
100
AcDbEntity
  8
枠_
  6
CONTINUOUS
 62
     2
100
AcDbLine
 10
1124.799957
 20
180.791992
 30
0.0
 11
1142.975159
 21
180.791992
 31
0.0
  0
LINE
  5
237
100
AcDbEntity
  8
枠_
  6
CONTINUOUS
 62
     2
100
AcDbLine
 10
1124.944153
 20
145.98905
 30
0.0
 11
1128.392029
 21
178.802942
 31
0.0
  0
LINE
  5
238
100
AcDbEntity
  8
枠_
  6
CONTINUOUS
 62
     2
100
AcDbLine
 10
1127.276764
 20
145.98905
 30
0.0
 11
1130.724792
 21
178.802942
 31
0.0
  0
LINE
  5
239
100
AcDbEntity
  8
枠_
  6
CONTINUOUS
 62
     2
100
AcDbLine
 10
1134.997864
 20
145.999998
 30
0.0
 11
1134.997864
 21
178.791994
 31
0.0
  0
LINE
  5
23A
100
AcDbEntity
  8
枠_
  6
CONTINUOUS
 62
     2
100
AcDbLine
 10
1137.516174
 20
145.999998
 30
0.0
 11
1137.516174
 21
178.791994
 31
0.0
  0
LINE
  5
23B
100
AcDbEntity
  8
枠_
  6
CONTINUOUS
 62
     2
100
AcDbLine
 10
1140.034637
 20
145.999998
 30
0.0
 11
1140.034637
 21
178.791994
 31
0.0
  0
LINE
  5
23C
100
AcDbEntity
  8
枠_
  6
CONTINUOUS
 62
     2
100
AcDbLine
 10
1141.209259
 20
176.154245
 30
0.0
 11
1143.800354
 21
172.583841
 31
0.0
  0
LINE
  5
23D
100
AcDbEntity
  8
枠_
  6
CONTINUOUS
 62
     2
100
AcDbLine
 10
1141.209259
 20
172.264246
 30
0.0
 11
1143.800354
 21
168.693842
 31
0.0
  0
LINE
  5
23E
100
AcDbEntity
  8
枠_
  6
CONTINUOUS
 62
     2
100
AcDbLine
 10
1147.469177
 20
177.188601
 30
0.0
 11
1149.768829
 21
186.411375
 31
0.0
  0
LINE
  5
23F
100
AcDbEntity
  8
枠_
  6
CONTINUOUS
 62
     2
100
AcDbLine
 10
1149.867401
 20
177.188686
 30
0.0
 11
1152.165222
 21
186.411289
 31
0.0
  0
LINE
  5
240
100
AcDbEntity
  8
枠_
  6
CONTINUOUS
 62
     2
100
AcDbLine
 10
1151.963806
 20
177.188601
 30
0.0
 11
1154.263458
 21
186.411375
 31
0.0
  0
LINE
  5
241
100
AcDbEntity
  8
枠_
  6
CONTINUOUS
 62
     2
100
AcDbLine
 10
1160.702362
 20
182.79199
 30
0.0
 11
1160.702362
 21
186.351961
 31
0.0
  0
LINE
  5
242
100
AcDbEntity
  8
枠_
  6
CONTINUOUS
 62
     2
100
AcDbLine
 10
1163.420715
 20
182.79199
 30
0.0
 11
1163.420715
 21
186.351961
 31
0.0
  0
LINE
  5
243
100
AcDbEntity
  8
枠_
  6
CONTINUOUS
 62
     2
100
AcDbLine
 10
1165.939179
 20
182.79199
 30
0.0
 11
1165.939179
 21
186.351961
 31
0.0
  0
LINE
  5
244
100
AcDbEntity
  8
枠_
  6
CONTINUOUS
 62
     2
100
AcDbLine
 10
1154.862213
 20
180.791992
 30
0.0
 11
1177.247772
 21
180.791992
 31
0.0
  0
LINE
  5
245
100
AcDbEntity
  8
枠_
  6
CONTINUOUS
 62
     2
100
AcDbLine
 10
1160.702362
 20
178.791994
 30
0.0
 11
1160.702362
 21
172.712034
 31
0.0
  0
LINE
  5
246
100
AcDbEntity
  8
枠_
  6
CONTINUOUS
 62
     2
100
AcDbLine
 10
1163.420715
 20
178.791994
 30
0.0
 11
1163.420715
 21
172.712034
 31
0.0
  0
LINE
  5
247
100
AcDbEntity
  8
枠_
  6
CONTINUOUS
 62
     2
100
AcDbLine
 10
1165.939179
 20
178.791994
 30
0.0
 11
1165.939179
 21
172.712034
 31
0.0
  0
LINE
  5
248
100
AcDbEntity
  8
枠_
  6
CONTINUOUS
 62
     2
100
AcDbLine
 10
1147.984009
 20
170.712036
 30
0.0
 11
1178.256683
 21
170.712036
 31
0.0
  0
LINE
  5
249
100
AcDbEntity
  8
枠_
  6
CONTINUOUS
 62
     2
100
AcDbLine
 10
1152.447968
 20
168.744387
 30
0.0
 11
1148.300781
 21
145.967649
 31
0.0
  0
LINE
  5
24A
100
AcDbEntity
  8
枠_
  6
CONTINUOUS
 62
     2
100
AcDbLine
 10
1154.807282
 20
168.744387
 30
0.0
 11
1150.660248
 21
145.967649
 31
0.0
  0
LINE
  5
24B
100
AcDbEntity
  8
枠_
  6
CONTINUOUS
 62
     2
100
AcDbLine
 10
1156.889191
 20
168.744415
 30
0.0
 11
1152.740021
 21
145.967621
 31
0.0
  0
LINE
  5
24C
100
AcDbEntity
  8
枠_
  6
CONTINUOUS
 62
     2
100
AcDbLine
 10
1160.702362
 20
168.712038
 30
0.0
 11
1160.702362
 21
145.999998
 31
0.0
  0
LINE
  5
24D
100
AcDbEntity
  8
枠_
  6
CONTINUOUS
 62
     2
100
AcDbLine
 10
1163.220673
 20
168.712038
 30
0.0
 11
1163.220673
 21
145.999998
 31
0.0
  0
LINE
  5
24E
100
AcDbEntity
  8
枠_
  6
CONTINUOUS
 62
     3
100
AcDbLine
 10
1165.939179
 20
168.712038
 30
0.0
 11
1165.939179
 21
145.999998
 31
0.0
  0
LINE
  5
24F
100
AcDbEntity
  8
枠_
  6
CONTINUOUS
 62
     2
100
AcDbLine
 10
1169.349518
 20
168.744415
 30
0.0
 11
1173.498688
 21
145.967621
 31
0.0
  0
LINE
  5
250
100
AcDbEntity
  8
枠_
  6
CONTINUOUS
 62
     2
100
AcDbLine
 10
1171.510925
 20
168.744415
 30
0.0
 11
1175.660095
 21
145.967621
 31
0.0
  0
LINE
  5
251
100
AcDbEntity
  8
枠_
  6
CONTINUOUS
 62
     2
100
AcDbLine
 10
1174.070282
 20
168.744415
 30
0.0
 11
1178.219452
 21
145.967621
 31
0.0
  0
LINE
  5
252
100
AcDbEntity
  8
枠_
  6
CONTINUOUS
 62
     2
100
AcDbLine
 10
1184.272614
 20
182.400154
 30
0.0
 11
1212.824097
 21
182.400154
 31
0.0
  0
LINE
  5
253
100
AcDbEntity
  8
枠_
  6
CONTINUOUS
 62
     2
100
AcDbLine
 10
1184.272614
 20
179.880165
 30
0.0
 11
1213.741302
 21
179.880165
 31
0.0
  0
LINE
  5
254
100
AcDbEntity
  8
枠_
  6
CONTINUOUS
 62
     2
100
AcDbLine
 10
1228.116608
 20
145.879387
 30
0.0
 11
1213.34198
 21
186.472572
 31
0.0
  0
LINE
  5
255
100
AcDbEntity
  8
枠_
  6
CONTINUOUS
 62
     2
100
AcDbLine
 10
1230.796967
 20
145.879396
 30
0.0
 11
1216.022949
 21
186.472563
 31
0.0
  0
LINE
  5
256
100
AcDbEntity
  8
枠_
  6
CONTINUOUS
 62
     2
100
AcDbLine
 10
1233.477326
 20
145.879396
 30
0.0
 11
1218.703308
 21
186.472563
 31
0.0
  0
LINE
  5
257
100
AcDbEntity
  8
枠_
  6
CONTINUOUS
 62
     2
100
AcDbLine
 10
1236.157684
 20
145.879358
 30
0.0
 11
1221.381378
 21
186.472591
 31
0.0
  0
LINE
  5
258
100
AcDbEntity
  8
枠_
  6
CONTINUOUS
 62
     2
100
AcDbLine
 10
1228.543091
 20
184.400152
 30
0.0
 11
1228.543091
 21
186.351961
 31
0.0
  0
LINE
  5
259
100
AcDbEntity
  8
枠_
  6
CONTINUOUS
 62
     2
100
AcDbLine
 10
1231.261597
 20
184.400152
 30
0.0
 11
1231.261597
 21
186.351961
 31
0.0
  0
LINE
  5
25A
100
AcDbEntity
  8
枠_
  6
CONTINUOUS
 62
     2
100
AcDbLine
 10
1233.97995
 20
184.400152
 30
0.0
 11
1233.97995
 21
186.351961
 31
0.0
  0
LINE
  5
25B
100
AcDbEntity
  8
枠_
  6
CONTINUOUS
 62
     2
100
AcDbLine
 10
1224.863739
 20
182.400154
 30
0.0
 11
1236.720429
 21
182.400154
 31
0.0
  0
LINE
  5
25C
100
AcDbEntity
  8
枠_
  6
CONTINUOUS
 62
     2
100
AcDbLine
 10
1225.781098
 20
179.880165
 30
0.0
 11
1236.720429
 21
179.880165
 31
0.0
  0
LINE
  5
25D
100
AcDbEntity
  8
枠_
  6
CONTINUOUS
 62
     2
100
AcDbLine
 10
1187.295532
 20
170.364098
 30
0.0
 11
1213.536377
 21
170.364098
 31
0.0
  0
LINE
  5
25E
100
AcDbEntity
  8
枠_
  6
CONTINUOUS
 62
     2
100
AcDbLine
 10
1187.295532
 20
167.843956
 30
0.0
 11
1213.536377
 21
167.843956
 31
0.0
  0
LINE
  5
25F
100
AcDbEntity
  8
枠_
  6
CONTINUOUS
 62
     2
100
AcDbLine
 10
1196.790924
 20
165.843958
 30
0.0
 11
1196.790924
 21
155.791153
 31
0.0
  0
LINE
  5
260
100
AcDbEntity
  8
枠_
  6
CONTINUOUS
 62
     2
100
AcDbLine
 10
1199.309235
 20
165.843958
 30
0.0
 11
1199.309235
 21
156.326431
 31
0.0
  0
LINE
  5
261
100
AcDbEntity
  8
枠_
  6
CONTINUOUS
 62
     2
100
AcDbLine
 10
1201.827545
 20
165.843958
 30
0.0
 11
1201.827545
 21
156.861719
 31
0.0
  0
LINE
  5
262
100
AcDbEntity
  8
枠_
  6
CONTINUOUS
 62
     2
100
AcDbLine
 10
1204.346008
 20
165.843958
 30
0.0
 11
1204.346008
 21
157.397026
 31
0.0
  0
LINE
  5
263
100
AcDbEntity
  8
枠_
  6
CONTINUOUS
 62
     2
100
AcDbLine
 10
1186.747284
 20
151.656317
 30
0.0
 11
1214.084473
 21
157.466997
 31
0.0
  0
LINE
  5
264
100
AcDbEntity
  8
枠_
  6
CONTINUOUS
 62
     2
100
AcDbLine
 10
1186.747284
 20
148.880028
 30
0.0
 11
1214.084473
 21
154.690851
 31
0.0
  0
LINE
  5
265
100
AcDbEntity
  8
枠_
  6
CONTINUOUS
 62
     2
100
AcDbLine
 10
1186.747284
 20
146.503729
 30
0.0
 11
1214.084473
 21
152.314409
 31
0.0
  0
LINE
  5
266
100
AcDbEntity
  8
枠_
  6
CONTINUOUS
 62
     2
100
AcDbLine
 10
1242.633057
 20
178.325943
 30
0.0
 11
1268.51532
 21
186.985401
 31
0.0
  0
LINE
  5
267
100
AcDbEntity
  8
枠_
  6
CONTINUOUS
 62
     2
100
AcDbLine
 10
1242.633057
 20
175.668625
 30
0.0
 11
1268.51532
 21
184.328236
 31
0.0
  0
LINE
  5
268
100
AcDbEntity
  8
枠_
  6
CONTINUOUS
 62
     2
100
AcDbLine
 10
1270.411987
 20
186.985392
 30
0.0
 11
1296.294403
 21
178.325304
 31
0.0
  0
LINE
  5
269
100
AcDbEntity
  8
枠_
  6
CONTINUOUS
 62
     2
100
AcDbLine
 10
1270.411987
 20
184.528231
 30
0.0
 11
1296.294403
 21
175.868143
 31
0.0
  0
LINE
  5
26A
100
AcDbEntity
  8
枠_
  6
CONTINUOUS
 62
     2
100
AcDbLine
 10
1287.62497
 20
175.596108
 30
0.0
 11
1251.304474
 21
175.596108
 31
0.0
  0
LINE
  5
26B
100
AcDbEntity
  8
枠_
  6
CONTINUOUS
 62
     2
100
AcDbLine
 10
1287.62497
 20
172.875961
 30
0.0
 11
1251.304474
 21
172.875961
 31
0.0
  0
LINE
  5
26C
100
AcDbEntity
  8
枠_
  6
CONTINUOUS
 62
     2
100
AcDbLine
 10
1242.736359
 20
165.063919
 30
0.0
 11
1296.191101
 21
165.063919
 31
0.0
  0
LINE
  5
26D
100
AcDbEntity
  8
枠_
  6
CONTINUOUS
 62
     2
100
AcDbLine
 10
1242.736359
 20
162.744087
 30
0.0
 11
1296.191101
 21
162.744087
 31
0.0
  0
LINE
  5
26E
100
AcDbEntity
  8
枠_
  6
CONTINUOUS
 62
     2
100
AcDbLine
 10
1251.013336
 20
160.931534
 30
0.0
 11
1245.911255
 21
149.99246
 31
0.0
  0
LINE
  5
26F
100
AcDbEntity
  8
枠_
  6
CONTINUOUS
 62
     2
100
AcDbLine
 10
1254.194336
 20
160.931543
 30
0.0
 11
1249.092102
 21
149.99246
 31
0.0
  0
LINE
  5
270
100
AcDbEntity
  8
枠_
  6
CONTINUOUS
 62
     2
100
AcDbLine
 10
1257.375336
 20
160.931543
 30
0.0
 11
1252.273102
 21
149.99246
 31
0.0
  0
LINE
  5
271
100
AcDbEntity
  8
枠_
  6
CONTINUOUS
 62
     2
100
AcDbLine
 10
1281.554108
 20
160.931667
 30
0.0
 11
1286.658325
 21
149.992336
 31
0.0
  0
LINE
  5
272
100
AcDbEntity
  8
枠_
  6
CONTINUOUS
 62
     2
100
AcDbLine
 10
1284.737091
 20
160.931419
 30
0.0
 11
1289.837036
 21
149.992584
 31
0.0
  0
LINE
  5
273
100
AcDbEntity
  8
枠_
  6
CONTINUOUS
 62
     2
100
AcDbLine
 10
1287.919922
 20
160.931315
 30
0.0
 11
1293.018189
 21
149.992689
 31
0.0
  0
LINE
  5
274
100
AcDbEntity
  8
枠_
  6
CONTINUOUS
 62
     2
100
AcDbLine
 10
1244.685364
 20
148.179916
 30
0.0
 11
1294.242096
 21
148.179916
 31
0.0
  0
LINE
  5
275
100
AcDbEntity
  8
枠_
  6
CONTINUOUS
 62
     2
100
AcDbLine
 10
1243.510285
 20
145.659927
 30
0.0
 11
1295.417175
 21
145.659927
 31
0.0
  0
LINE
  5
276
100
AcDbEntity
  8
枠_
  6
CONTINUOUS
 62
     2
100
AcDbLine
 10
1311.397858
 20
184.400152
 30
0.0
 11
1311.397858
 21
186.351961
 31
0.0
  0
LINE
  5
277
100
AcDbEntity
  8
枠_
  6
CONTINUOUS
 62
     2
100
AcDbLine
 10
1314.316254
 20
184.400152
 30
0.0
 11
1314.316254
 21
186.351961
 31
0.0
  0
LINE
  5
278
100
AcDbEntity
  8
枠_
  6
CONTINUOUS
 62
     2
100
AcDbLine
 10
1317.234802
 20
184.400152
 30
0.0
 11
1317.234802
 21
186.351961
 31
0.0
  0
LINE
  5
279
100
AcDbEntity
  8
枠_
  6
CONTINUOUS
 62
     2
100
AcDbLine
 10
1302.206879
 20
182.400154
 30
0.0
 11
1325.087891
 21
182.400154
 31
0.0
  0
LINE
  5
27A
100
AcDbEntity
  8
枠_
  6
CONTINUOUS
 62
     2
100
AcDbLine
 10
1302.206879
 20
179.880165
 30
0.0
 11
1323.323822
 21
179.880165
 31
0.0
  0
LINE
  5
27B
100
AcDbEntity
  8
枠_
  6
CONTINUOUS
 62
     2
100
AcDbLine
 10
1315.379181
 20
178.241676
 30
0.0
 11
1301.35376
 21
158.204722
 31
0.0
  0
LINE
  5
27C
100
AcDbEntity
  8
枠_
  6
CONTINUOUS
 62
     2
100
AcDbLine
 10
1318.656616
 20
178.2418
 30
0.0
 11
1301.353912
 21
153.528513
 31
0.0
  0
LINE
  5
27D
100
AcDbEntity
  8
枠_
  6
CONTINUOUS
 62
     2
100
AcDbLine
 10
1321.737976
 20
178.241772
 30
0.0
 11
1301.353912
 21
149.125732
 31
0.0
  0
LINE
  5
27E
100
AcDbEntity
  8
枠_
  6
CONTINUOUS
 62
     2
100
AcDbLine
 10
1316.929932
 20
167.88691
 30
0.0
 11
1325.786743
 21
161.684641
 31
0.0
  0
LINE
  5
27F
100
AcDbEntity
  8
枠_
  6
CONTINUOUS
 62
     2
100
AcDbLine
 10
1315.484467
 20
165.821995
 30
0.0
 11
1325.786591
 21
158.607992
 31
0.0
  0
LINE
  5
280
100
AcDbEntity
  8
枠_
  6
CONTINUOUS
 62
     2
100
AcDbLine
 10
1313.945007
 20
163.623127
 30
0.0
 11
1325.786591
 21
155.331501
 31
0.0
  0
LINE
  5
281
100
AcDbEntity
  8
枠_
  6
CONTINUOUS
 62
     2
100
AcDbLine
 10
1311.397858
 20
161.472229
 30
0.0
 11
1311.397858
 21
145.999998
 31
0.0
  0
LINE
  5
282
100
AcDbEntity
  8
枠_
  6
CONTINUOUS
 62
     2
100
AcDbLine
 10
1314.316254
 20
161.363157
 30
0.0
 11
1314.316254
 21
145.999998
 31
0.0
  0
LINE
  5
283
100
AcDbEntity
  8
枠_
  6
CONTINUOUS
 62
     2
100
AcDbLine
 10
1317.234802
 20
159.319567
 30
0.0
 11
1317.234802
 21
145.999998
 31
0.0
  0
LINE
  5
284
100
AcDbEntity
  8
枠_
  6
CONTINUOUS
 62
     2
100
AcDbLine
 10
1338.613739
 20
150.179915
 30
0.0
 11
1338.613739
 21
186.351961
 31
0.0
  0
LINE
  5
285
100
AcDbEntity
  8
枠_
  6
CONTINUOUS
 62
     2
100
AcDbLine
 10
1341.532135
 20
150.179915
 30
0.0
 11
1341.532135
 21
186.351961
 31
0.0
  0
LINE
  5
286
100
AcDbEntity
  8
枠_
  6
CONTINUOUS
 62
     2
100
AcDbLine
 10
1344.450684
 20
150.179915
 30
0.0
 11
1344.450684
 21
186.351961
 31
0.0
  0
LINE
  5
287
100
AcDbEntity
  8
枠_
  6
CONTINUOUS
 62
     2
100
AcDbLine
 10
1329.424896
 20
175.344032
 30
0.0
 11
1336.61377
 21
175.344032
 31
0.0
  0
LINE
  5
288
100
AcDbEntity
  8
枠_
  6
CONTINUOUS
 62
     2
100
AcDbLine
 10
1329.424896
 20
172.824196
 30
0.0
 11
1336.61377
 21
172.824196
 31
0.0
  0
LINE
  5
289
100
AcDbEntity
  8
枠_
  6
CONTINUOUS
 62
     2
100
AcDbLine
 10
1346.450653
 20
175.344032
 30
0.0
 11
1353.647766
 21
175.344032
 31
0.0
  0
LINE
  5
28A
100
AcDbEntity
  8
枠_
  6
CONTINUOUS
 62
     2
100
AcDbLine
 10
1346.450653
 20
172.624191
 30
0.0
 11
1353.647766
 21
172.624191
 31
0.0
  0
LINE
  5
28B
100
AcDbEntity
  8
枠_
  6
CONTINUOUS
 62
     2
100
AcDbLine
 10
1325.39093
 20
148.179916
 30
0.0
 11
1354.656677
 21
148.179916
 31
0.0
  0
LINE
  5
28C
100
AcDbEntity
  8
枠_
  6
CONTINUOUS
 62
     2
100
AcDbLine
 10
1325.39093
 20
145.659927
 30
0.0
 11
1354.656677
 21
145.659927
 31
0.0
  0
LINE
  5
28D
100
AcDbEntity
  8
枠_
  6
CONTINUOUS
 62
     2
100
AcDbLine
 10
1097.475586
 20
163.353638
 30
0.0
 11
1118.784027
 21
163.353638
 31
0.0
  0
TEXT
  5
28E
100
AcDbEntity
  8
枠_
  6
CONTINUOUS
 62
     2
100
AcDbText
 10
1481.5
 20
241.75
 30
0.0
 40
65.0
  1
Ｕ３３３Ｃ
 41
0.736615
  7
EXCADSTD
 72
     5
 11
1766.5
 21
241.75
 31
0.0
100
AcDbText
  0
TEXT
  5
28F
100
AcDbEntity
  8
枠_
  6
CONTINUOUS
 62
     2
100
AcDbText
 10
801.999983
 20
238.5
 30
0.0
 40
65.0
  1
小形ストール小便器（トラップ着脱式）
 41
0.433641
  7
EXCADSTD
 72
     5
 11
1406.000017
 21
238.5
 31
0.0
100
AcDbText
  0
LINE
  5
290
100
AcDbEntity
  8
枠_
  6
CONTINUOUS
 62
     7
100
AcDbLine
 10
1790.810394
 20
587.0
 30
0.0
 11
1603.21027
 21
587.0
 31
0.0
  0
LINE
  5
291
100
AcDbEntity
  8
枠_
  6
CONTINUOUS
 62
     7
100
AcDbLine
 10
1538.410522
 20
587.0
 30
0.0
 11
1280.0
 21
587.0
 31
0.0
  0
LINE
  5
292
100
AcDbEntity
  8
枠_
  6
CONTINUOUS
 62
     7
100
AcDbLine
 10
349.0
 20
587.0
 30
0.0
 11
1166.0
 21
587.0
 31
0.0
  0
TEXT
  5
293
100
AcDbEntity
  8
枠_
  6
CONTINUOUS
 62
     2
100
AcDbText
 10
1036.0
 20
591.000153
 30
0.0
 40
40.0
  1
Ｆ．Ｌ
 41
0.833
  7
EXCADSTD
 72
     5
 11
1155.0
 21
591.000153
 31
0.0
100
AcDbText
  0
TEXT
  5
294
100
AcDbEntity
  8
枠_
  6
CONTINUOUS
 62
     7
100
AcDbText
 10
1453.25
 20
130.75
 30
0.0
 40
70.0
  1
Ｕ０３３３００７
 41
0.795
  7
EXCADSTD
 72
     5
 11
1983.25
 21
130.75
 31
0.0
100
AcDbText
  0
TEXT
  5
295
100
AcDbEntity
  8
枠_
  6
CONTINUOUS
 62
     6
100
AcDbText
 10
184.026074
 20
126.950073
 30
0.0
 40
25.0
  1
１２
 41
0.72408
  7
EXCADSTD
 72
     5
 11
223.531534
 21
126.950073
 31
0.0
100
AcDbText
  0
TEXT
  5
296
100
AcDbEntity
  8
枠_
  6
CONTINUOUS
 62
     2
100
AcDbText
 10
1785.881714
 20
1918.0
 30
0.0
 40
40.0
  1
Ｗ．Ｌ
 50
90.0
 41
0.805
  7
EXCADSTD
 72
     5
 11
1785.881714
 21
2033.0
 31
0.0
100
AcDbText
  0
LINE
  5
297
100
AcDbEntity
  8
枠_
  6
CONTINUOUS
 62
     7
100
AcDbLine
 10
1790.810394
 20
587.0
 30
0.0
 11
1790.810394
 21
2039.0
 31
0.0
  0
TEXT
  5
298
100
AcDbEntity
  8
枠_
  6
CONTINUOUS
 62
     6
100
AcDbText
 10
235.826074
 20
126.950073
 30
0.0
 40
25.0
  1
１１
 41
0.72408
  7
EXCADSTD
 72
     5
 11
275.331534
 21
126.950073
 31
0.0
100
AcDbText
  0
TEXT
  5
299
100
AcDbEntity
  8
枠_
  6
CONTINUOUS
 62
     6
100
AcDbText
 10
283.826074
 20
126.950073
 30
0.0
 40
25.0
  1
３０
 41
0.72408
  7
EXCADSTD
 72
     5
 11
323.331534
 21
126.950073
 31
0.0
100
AcDbText
  0
TEXT
  5
29A
100
AcDbEntity
  8
枠_
  6
CONTINUOUS
 62
     6
100
AcDbText
 10
204.5
 20
206.0
 30
0.0
 40
50.0
  1
神谷
 41
0.8568
  7
EXCADSTD
 72
     5
 11
297.9932
 21
206.0
 31
0.0
100
AcDbText
  0
TEXT
  5
29B
100
AcDbEntity
  8
枠_
  6
CONTINUOUS
 62
     6
100
AcDbText
 10
633.5
 20
206.0
 30
0.0
 40
50.0
  1
岩田
 41
0.8568
  7
EXCADSTD
 72
     5
 11
726.9932
 21
206.0
 31
0.0
100
AcDbText
  0
LINE
  5
29C
100
AcDbEntity
  8
スト－ル
  6
CONTINUOUS
 62
     6
100
AcDbLine
 10
1790.668793
 20
1277.000153
 30
0.0
 11
1790.810089
 21
1277.141449
 31
0.0
  0
ARC
  5
29D
100
AcDbEntity
  8
スト－ル
  6
CONTINUOUS
 62
     6
100
AcDbCircle
 10
1720.810089
 20
1487.995789
 30
0.0
 40
10.000305
100
AcDbArc
 50
323.130981
 51
36.869019
  0
LINE
  5
29E
100
AcDbEntity
  8
スト－ル
  6
CONTINUOUS
 62
     6
100
AcDbLine
 10
1702.810364
 20
1493.99585
 30
0.0
 11
1728.810425
 21
1493.99585
 31
0.0
  0
ARC
  5
29F
100
AcDbEntity
  8
スト－ル
  6
CONTINUOUS
 62
     6
100
AcDbCircle
 10
1710.8107
 20
1487.995789
 30
0.0
 40
10.000305
100
AcDbArc
 50
143.130981
 51
216.869019
  0
LINE
  5
2A0
100
AcDbEntity
  8
スト－ル
  6
CONTINUOUS
 62
     6
100
AcDbLine
 10
1702.810364
 20
1481.995728
 30
0.0
 11
1728.810425
 21
1481.995728
 31
0.0
  0
POLYLINE
  5
2A1
100
AcDbEntity
  8
スト－ル
  6
CONTINUOUS
 62
     6
100
AcDb2dPolyline
 66
     1
 10
0.0
 20
0.0
 30
0.0
 70
   128
  0
VERTEX
  5
2A2
100
AcDbEntity
  8
スト－ル
  6
CONTINUOUS
 62
     6
100
AcDbVertex
100
AcDb2dVertex
 10
1730.771027
 20
1487.996094
 30
0.0
  0
VERTEX
  5
2A3
100
AcDbEntity
  8
スト－ル
  6
CONTINUOUS
 62
     6
100
AcDbVertex
100
AcDb2dVertex
 10
1730.758514
 20
1488.455231
 30
0.0
  0
VERTEX
  5
2A4
100
AcDbEntity
  8
スト－ル
  6
CONTINUOUS
 62
     6
100
AcDbVertex
100
AcDb2dVertex
 10
1730.721283
 20
1488.911163
 30
0.0
  0
VERTEX
  5
2A5
100
AcDbEntity
  8
スト－ル
  6
CONTINUOUS
 62
     6
100
AcDbVertex
100
AcDb2dVertex
 10
1730.65979
 20
1489.359467
 30
0.0
  0
VERTEX
  5
2A6
100
AcDbEntity
  8
スト－ル
  6
CONTINUOUS
 62
     6
100
AcDbVertex
100
AcDb2dVertex
 10
1730.574036
 20
1489.797699
 30
0.0
  0
VERTEX
  5
2A7
100
AcDbEntity
  8
スト－ル
  6
CONTINUOUS
 62
     6
100
AcDbVertex
100
AcDb2dVertex
 10
1730.464935
 20
1490.222504
 30
0.0
  0
VERTEX
  5
2A8
100
AcDbEntity
  8
スト－ル
  6
CONTINUOUS
 62
     6
100
AcDbVertex
100
AcDb2dVertex
 10
1730.333252
 20
1490.629913
 30
0.0
  0
VERTEX
  5
2A9
100
AcDbEntity
  8
スト－ル
  6
CONTINUOUS
 62
     6
100
AcDbVertex
100
AcDb2dVertex
 10
1730.180054
 20
1491.017487
 30
0.0
  0
VERTEX
  5
2AA
100
AcDbEntity
  8
スト－ル
  6
CONTINUOUS
 62
     6
100
AcDbVertex
100
AcDb2dVertex
 10
1730.006561
 20
1491.382324
 30
0.0
  0
VERTEX
  5
2AB
100
AcDbEntity
  8
スト－ル
  6
CONTINUOUS
 62
     6
100
AcDbVertex
100
AcDb2dVertex
 10
1729.813538
 20
1491.720917
 30
0.0
  0
VERTEX
  5
2AC
100
AcDbEntity
  8
スト－ル
  6
CONTINUOUS
 62
     6
100
AcDbVertex
100
AcDb2dVertex
 10
1729.603272
 20
1492.031433
 30
0.0
  0
VERTEX
  5
2AD
100
AcDbEntity
  8
スト－ル
  6
CONTINUOUS
 62
     6
100
AcDbVertex
100
AcDb2dVertex
 10
1729.377136
 20
1492.311127
 30
0.0
  0
VERTEX
  5
2AE
100
AcDbEntity
  8
スト－ル
  6
CONTINUOUS
 62
     6
100
AcDbVertex
100
AcDb2dVertex
 10
1729.136505
 20
1492.558014
 30
0.0
  0
VERTEX
  5
2AF
100
AcDbEntity
  8
スト－ル
  6
CONTINUOUS
 62
     6
100
AcDbVertex
100
AcDb2dVertex
 10
1728.883514
 20
1492.770264
 30
0.0
  0
VERTEX
  5
2B0
100
AcDbEntity
  8
スト－ル
  6
CONTINUOUS
 62
     6
100
AcDbVertex
100
AcDb2dVertex
 10
1728.620148
 20
1492.946198
 30
0.0
  0
VERTEX
  5
2B1
100
AcDbEntity
  8
スト－ル
  6
CONTINUOUS
 62
     6
100
AcDbVertex
100
AcDb2dVertex
 10
1728.347931
 20
1493.084137
 30
0.0
  0
VERTEX
  5
2B2
100
AcDbEntity
  8
スト－ル
  6
CONTINUOUS
 62
     6
100
AcDbVertex
100
AcDb2dVertex
 10
1728.069458
 20
1493.183624
 30
0.0
  0
VERTEX
  5
2B3
100
AcDbEntity
  8
スト－ル
  6
CONTINUOUS
 62
     6
100
AcDbVertex
100
AcDb2dVertex
 10
1727.786865
 20
1493.243591
 30
0.0
  0
VERTEX
  5
2B4
100
AcDbEntity
  8
スト－ル
  6
CONTINUOUS
 62
     6
100
AcDbVertex
100
AcDb2dVertex
 10
1727.501526
 20
1493.263733
 30
0.0
  0
VERTEX
  5
2B5
100
AcDbEntity
  8
スト－ル
  6
CONTINUOUS
 62
     6
100
AcDbVertex
100
AcDb2dVertex
 10
1727.216492
 20
1493.243744
 30
0.0
  0
VERTEX
  5
2B6
100
AcDbEntity
  8
スト－ル
  6
CONTINUOUS
 62
     6
100
AcDbVertex
100
AcDb2dVertex
 10
1726.933594
 20
1493.183777
 30
0.0
  0
VERTEX
  5
2B7
100
AcDbEntity
  8
スト－ル
  6
CONTINUOUS
 62
     6
100
AcDbVertex
100
AcDb2dVertex
 10
1726.655426
 20
1493.084137
 30
0.0
  0
VERTEX
  5
2B8
100
AcDbEntity
  8
スト－ル
  6
CONTINUOUS
 62
     6
100
AcDbVertex
100
AcDb2dVertex
 10
1726.383362
 20
1492.945892
 30
0.0
  0
VERTEX
  5
2B9
100
AcDbEntity
  8
スト－ル
  6
CONTINUOUS
 62
     6
100
AcDbVertex
100
AcDb2dVertex
 10
1726.119843
 20
1492.769959
 30
0.0
  0
VERTEX
  5
2BA
100
AcDbEntity
  8
スト－ル
  6
CONTINUOUS
 62
     6
100
AcDbVertex
100
AcDb2dVertex
 10
1725.867004
 20
1492.558014
 30
0.0
  0
VERTEX
  5
2BB
100
AcDbEntity
  8
スト－ル
  6
CONTINUOUS
 62
     6
100
AcDbVertex
100
AcDb2dVertex
 10
1725.626526
 20
1492.311127
 30
0.0
  0
VERTEX
  5
2BC
100
AcDbEntity
  8
スト－ル
  6
CONTINUOUS
 62
     6
100
AcDbVertex
100
AcDb2dVertex
 10
1725.400086
 20
1492.031433
 30
0.0
  0
VERTEX
  5
2BD
100
AcDbEntity
  8
スト－ル
  6
CONTINUOUS
 62
     6
100
AcDbVertex
100
AcDb2dVertex
 10
1725.189819
 20
1491.720917
 30
0.0
  0
VERTEX
  5
2BE
100
AcDbEntity
  8
スト－ル
  6
CONTINUOUS
 62
     6
100
AcDbVertex
100
AcDb2dVertex
 10
1724.997101
 20
1491.382172
 30
0.0
  0
VERTEX
  5
2BF
100
AcDbEntity
  8
スト－ル
  6
CONTINUOUS
 62
     6
100
AcDbVertex
100
AcDb2dVertex
 10
1724.823456
 20
1491.017639
 30
0.0
  0
VERTEX
  5
2C0
100
AcDbEntity
  8
スト－ル
  6
CONTINUOUS
 62
     6
100
AcDbVertex
100
AcDb2dVertex
 10
1724.670258
 20
1490.629913
 30
0.0
  0
VERTEX
  5
2C1
100
AcDbEntity
  8
スト－ル
  6
CONTINUOUS
 62
     6
100
AcDbVertex
100
AcDb2dVertex
 10
1724.538574
 20
1490.222351
 30
0.0
  0
VERTEX
  5
2C2
100
AcDbEntity
  8
スト－ル
  6
CONTINUOUS
 62
     6
100
AcDbVertex
100
AcDb2dVertex
 10
1724.429321
 20
1489.797852
 30
0.0
  0
VERTEX
  5
2C3
100
AcDbEntity
  8
スト－ル
  6
CONTINUOUS
 62
     6
100
AcDbVertex
100
AcDb2dVertex
 10
1724.343872
 20
1489.359467
 30
0.0
  0
VERTEX
  5
2C4
100
AcDbEntity
  8
スト－ル
  6
CONTINUOUS
 62
     6
100
AcDbVertex
100
AcDb2dVertex
 10
1724.282227
 20
1488.910858
 30
0.0
  0
VERTEX
  5
2C5
100
AcDbEntity
  8
スト－ル
  6
CONTINUOUS
 62
     6
100
AcDbVertex
100
AcDb2dVertex
 10
1724.245148
 20
1488.455231
 30
0.0
  0
VERTEX
  5
2C6
100
AcDbEntity
  8
スト－ル
  6
CONTINUOUS
 62
     6
100
AcDbVertex
100
AcDb2dVertex
 10
1724.232483
 20
1487.996094
 30
0.0
  0
VERTEX
  5
2C7
100
AcDbEntity
  8
スト－ル
  6
CONTINUOUS
 62
     6
100
AcDbVertex
100
AcDb2dVertex
 10
1724.244995
 20
1487.537109
 30
0.0
  0
VERTEX
  5
2C8
100
AcDbEntity
  8
スト－ル
  6
CONTINUOUS
 62
     6
100
AcDbVertex
100
AcDb2dVertex
 10
1724.282379
 20
1487.081635
 30
0.0
  0
VERTEX
  5
2C9
100
AcDbEntity
  8
スト－ル
  6
CONTINUOUS
 62
     6
100
AcDbVertex
100
AcDb2dVertex
 10
1724.343872
 20
1486.632416
 30
0.0
  0
VERTEX
  5
2CA
100
AcDbEntity
  8
スト－ル
  6
CONTINUOUS
 62
     6
100
AcDbVertex
100
AcDb2dVertex
 10
1724.429627
 20
1486.194183
 30
0.0
  0
VERTEX
  5
2CB
100
AcDbEntity
  8
スト－ル
  6
CONTINUOUS
 62
     6
100
AcDbVertex
100
AcDb2dVertex
 10
1724.538879
 20
1485.769379
 30
0.0
  0
VERTEX
  5
2CC
100
AcDbEntity
  8
スト－ル
  6
CONTINUOUS
 62
     6
100
AcDbVertex
100
AcDb2dVertex
 10
1724.670258
 20
1485.361816
 30
0.0
  0
VERTEX
  5
2CD
100
AcDbEntity
  8
スト－ル
  6
CONTINUOUS
 62
     6
100
AcDbVertex
100
AcDb2dVertex
 10
1724.823456
 20
1484.974243
 30
0.0
  0
VERTEX
  5
2CE
100
AcDbEntity
  8
スト－ル
  6
CONTINUOUS
 62
     6
100
AcDbVertex
100
AcDb2dVertex
 10
1724.997101
 20
1484.609406
 30
0.0
  0
VERTEX
  5
2CF
100
AcDbEntity
  8
スト－ル
  6
CONTINUOUS
 62
     6
100
AcDbVertex
100
AcDb2dVertex
 10
1725.189819
 20
1484.270966
 30
0.0
  0
VERTEX
  5
2D0
100
AcDbEntity
  8
スト－ル
  6
CONTINUOUS
 62
     6
100
AcDbVertex
100
AcDb2dVertex
 10
1725.400086
 20
1483.960449
 30
0.0
  0
VERTEX
  5
2D1
100
AcDbEntity
  8
スト－ル
  6
CONTINUOUS
 62
     6
100
AcDbVertex
100
AcDb2dVertex
 10
1725.626373
 20
1483.680756
 30
0.0
  0
VERTEX
  5
2D2
100
AcDbEntity
  8
スト－ル
  6
CONTINUOUS
 62
     6
100
AcDbVertex
100
AcDb2dVertex
 10
1725.867004
 20
1483.433868
 30
0.0
  0
VERTEX
  5
2D3
100
AcDbEntity
  8
スト－ル
  6
CONTINUOUS
 62
     6
100
AcDbVertex
100
AcDb2dVertex
 10
1726.119995
 20
1483.221619
 30
0.0
  0
VERTEX
  5
2D4
100
AcDbEntity
  8
スト－ル
  6
CONTINUOUS
 62
     6
100
AcDbVertex
100
AcDb2dVertex
 10
1726.383514
 20
1483.045685
 30
0.0
  0
VERTEX
  5
2D5
100
AcDbEntity
  8
スト－ル
  6
CONTINUOUS
 62
     6
100
AcDbVertex
100
AcDb2dVertex
 10
1726.655426
 20
1482.907593
 30
0.0
  0
VERTEX
  5
2D6
100
AcDbEntity
  8
スト－ル
  6
CONTINUOUS
 62
     6
100
AcDbVertex
100
AcDb2dVertex
 10
1726.933899
 20
1482.808106
 30
0.0
  0
VERTEX
  5
2D7
100
AcDbEntity
  8
スト－ル
  6
CONTINUOUS
 62
     6
100
AcDbVertex
100
AcDb2dVertex
 10
1727.216644
 20
1482.748138
 30
0.0
  0
VERTEX
  5
2D8
100
AcDbEntity
  8
スト－ル
  6
CONTINUOUS
 62
     6
100
AcDbVertex
100
AcDb2dVertex
 10
1727.501526
 20
1482.727844
 30
0.0
  0
VERTEX
  5
2D9
100
AcDbEntity
  8
スト－ル
  6
CONTINUOUS
 62
     6
100
AcDbVertex
100
AcDb2dVertex
 10
1727.786408
 20
1482.747833
 30
0.0
  0
VERTEX
  5
2DA
100
AcDbEntity
  8
スト－ル
  6
CONTINUOUS
 62
     6
100
AcDbVertex
100
AcDb2dVertex
 10
1728.069
 20
1482.8078
 30
0.0
  0
VERTEX
  5
2DB
100
AcDbEntity
  8
スト－ル
  6
CONTINUOUS
 62
     6
100
AcDbVertex
100
AcDb2dVertex
 10
1728.347931
 20
1482.907593
 30
0.0
  0
VERTEX
  5
2DC
100
AcDbEntity
  8
スト－ル
  6
CONTINUOUS
 62
     6
100
AcDbVertex
100
AcDb2dVertex
 10
1728.619995
 20
1483.045837
 30
0.0
  0
VERTEX
  5
2DD
100
AcDbEntity
  8
スト－ル
  6
CONTINUOUS
 62
     6
100
AcDbVertex
100
AcDb2dVertex
 10
1728.883667
 20
1483.221771
 30
0.0
  0
SEQEND
  5
2DE
100
AcDbEntity
  8
スト－ル
  6
CONTINUOUS
 62
     6
  0
POLYLINE
  5
2DF
100
AcDbEntity
  8
スト－ル
  6
CONTINUOUS
 62
     6
100
AcDb2dPolyline
 66
     1
 10
0.0
 20
0.0
 30
0.0
 70
   128
  0
VERTEX
  5
2E0
100
AcDbEntity
  8
スト－ル
  6
CONTINUOUS
 62
     6
100
AcDbVertex
100
AcDb2dVertex
 10
1728.883667
 20
1483.221771
 30
0.0
  0
VERTEX
  5
2E1
100
AcDbEntity
  8
スト－ル
  6
CONTINUOUS
 62
     6
100
AcDbVertex
100
AcDb2dVertex
 10
1729.136505
 20
1483.433868
 30
0.0
  0
VERTEX
  5
2E2
100
AcDbEntity
  8
スト－ル
  6
CONTINUOUS
 62
     6
100
AcDbVertex
100
AcDb2dVertex
 10
1729.377136
 20
1483.680756
 30
0.0
  0
VERTEX
  5
2E3
100
AcDbEntity
  8
スト－ル
  6
CONTINUOUS
 62
     6
100
AcDbVertex
100
AcDb2dVertex
 10
1729.603424
 20
1483.960449
 30
0.0
  0
VERTEX
  5
2E4
100
AcDbEntity
  8
スト－ル
  6
CONTINUOUS
 62
     6
100
AcDbVertex
100
AcDb2dVertex
 10
1729.813538
 20
1484.270966
 30
0.0
  0
VERTEX
  5
2E5
100
AcDbEntity
  8
スト－ル
  6
CONTINUOUS
 62
     6
100
AcDbVertex
100
AcDb2dVertex
 10
1730.006256
 20
1484.609711
 30
0.0
  0
VERTEX
  5
2E6
100
AcDbEntity
  8
スト－ル
  6
CONTINUOUS
 62
     6
100
AcDbVertex
100
AcDb2dVertex
 10
1730.180054
 20
1484.974243
 30
0.0
  0
VERTEX
  5
2E7
100
AcDbEntity
  8
スト－ル
  6
CONTINUOUS
 62
     6
100
AcDbVertex
100
AcDb2dVertex
 10
1730.333252
 20
1485.361816
 30
0.0
  0
VERTEX
  5
2E8
100
AcDbEntity
  8
スト－ル
  6
CONTINUOUS
 62
     6
100
AcDbVertex
100
AcDb2dVertex
 10
1730.464935
 20
1485.769379
 30
0.0
  0
VERTEX
  5
2E9
100
AcDbEntity
  8
スト－ル
  6
CONTINUOUS
 62
     6
100
AcDbVertex
100
AcDb2dVertex
 10
1730.574341
 20
1486.193878
 30
0.0
  0
VERTEX
  5
2EA
100
AcDbEntity
  8
スト－ル
  6
CONTINUOUS
 62
     6
100
AcDbVertex
100
AcDb2dVertex
 10
1730.65979
 20
1486.632416
 30
0.0
  0
SEQEND
  5
2EB
100
AcDbEntity
  8
スト－ル
  6
CONTINUOUS
 62
     6
  0
POLYLINE
  5
2EC
100
AcDbEntity
  8
スト－ル
  6
CONTINUOUS
 62
     6
100
AcDb2dPolyline
 66
     1
 10
0.0
 20
0.0
 30
0.0
 70
   128
  0
VERTEX
  5
2ED
100
AcDbEntity
  8
スト－ル
  6
CONTINUOUS
 62
     6
100
AcDbVertex
100
AcDb2dVertex
 10
1730.65979
 20
1486.632416
 30
0.0
  0
VERTEX
  5
2EE
100
AcDbEntity
  8
スト－ル
  6
CONTINUOUS
 62
     6
100
AcDbVertex
100
AcDb2dVertex
 10
1730.721435
 20
1487.081024
 30
0.0
  0
VERTEX
  5
2EF
100
AcDbEntity
  8
スト－ル
  6
CONTINUOUS
 62
     6
100
AcDbVertex
100
AcDb2dVertex
 10
1730.758667
 20
1487.536652
 30
0.0
  0
VERTEX
  5
2F0
100
AcDbEntity
  8
スト－ル
  6
CONTINUOUS
 62
     6
100
AcDbVertex
100
AcDb2dVertex
 10
1730.771179
 20
1487.995483
 30
0.0
  0
SEQEND
  5
2F1
100
AcDbEntity
  8
スト－ル
  6
CONTINUOUS
 62
     6
  0
POLYLINE
  5
2F2
100
AcDbEntity
  8
スト－ル
  6
CONTINUOUS
 62
     6
100
AcDb2dPolyline
 66
     1
 10
0.0
 20
0.0
 30
0.0
 70
   128
  0
VERTEX
  5
2F3
100
AcDbEntity
  8
スト－ル
  6
CONTINUOUS
 62
     6
100
AcDbVertex
100
AcDb2dVertex
 10
1722.348633
 20
1487.996094
 30
0.0
  0
VERTEX
  5
2F4
100
AcDbEntity
  8
スト－ル
  6
CONTINUOUS
 62
     6
100
AcDbVertex
100
AcDb2dVertex
 10
1722.323761
 20
1488.455231
 30
0.0
  0
VERTEX
  5
2F5
100
AcDbEntity
  8
スト－ル
  6
CONTINUOUS
 62
     6
100
AcDbVertex
100
AcDb2dVertex
 10
1722.249298
 20
1488.911163
 30
0.0
  0
VERTEX
  5
2F6
100
AcDbEntity
  8
スト－ル
  6
CONTINUOUS
 62
     6
100
AcDbVertex
100
AcDb2dVertex
 10
1722.12616
 20
1489.359467
 30
0.0
  0
VERTEX
  5
2F7
100
AcDbEntity
  8
スト－ル
  6
CONTINUOUS
 62
     6
100
AcDbVertex
100
AcDb2dVertex
 10
1721.954651
 20
1489.797699
 30
0.0
  0
VERTEX
  5
2F8
100
AcDbEntity
  8
スト－ル
  6
CONTINUOUS
 62
     6
100
AcDbVertex
100
AcDb2dVertex
 10
1721.73645
 20
1490.222504
 30
0.0
  0
VERTEX
  5
2F9
100
AcDbEntity
  8
スト－ル
  6
CONTINUOUS
 62
     6
100
AcDbVertex
100
AcDb2dVertex
 10
1721.472931
 20
1490.629913
 30
0.0
  0
VERTEX
  5
2FA
100
AcDbEntity
  8
スト－ル
  6
CONTINUOUS
 62
     6
100
AcDbVertex
100
AcDb2dVertex
 10
1721.166382
 20
1491.017487
 30
0.0
  0
VERTEX
  5
2FB
100
AcDbEntity
  8
スト－ル
  6
CONTINUOUS
 62
     6
100
AcDbVertex
100
AcDb2dVertex
 10
1720.819244
 20
1491.382324
 30
0.0
  0
VERTEX
  5
2FC
100
AcDbEntity
  8
スト－ル
  6
CONTINUOUS
 62
     6
100
AcDbVertex
100
AcDb2dVertex
 10
1720.433655
 20
1491.720917
 30
0.0
  0
VERTEX
  5
2FD
100
AcDbEntity
  8
スト－ル
  6
CONTINUOUS
 62
     6
100
AcDbVertex
100
AcDb2dVertex
 10
1720.01297
 20
1492.031433
 30
0.0
  0
VERTEX
  5
2FE
100
AcDbEntity
  8
スト－ル
  6
CONTINUOUS
 62
     6
100
AcDbVertex
100
AcDb2dVertex
 10
1719.560394
 20
1492.311127
 30
0.0
  0
VERTEX
  5
2FF
100
AcDbEntity
  8
スト－ル
  6
CONTINUOUS
 62
     6
100
AcDbVertex
100
AcDb2dVertex
 10
1719.079895
 20
1492.558014
 30
0.0
  0
VERTEX
  5
300
100
AcDbEntity
  8
スト－ル
  6
CONTINUOUS
 62
     6
100
AcDbVertex
100
AcDb2dVertex
 10
1718.574066
 20
1492.770264
 30
0.0
  0
VERTEX
  5
301
100
AcDbEntity
  8
スト－ル
  6
CONTINUOUS
 62
     6
100
AcDbVertex
100
AcDb2dVertex
 10
1718.04718
 20
1492.946198
 30
0.0
  0
VERTEX
  5
302
100
AcDbEntity
  8
スト－ル
  6
CONTINUOUS
 62
     6
100
AcDbVertex
100
AcDb2dVertex
 10
1717.502594
 20
1493.084137
 30
0.0
  0
VERTEX
  5
303
100
AcDbEntity
  8
スト－ル
  6
CONTINUOUS
 62
     6
100
AcDbVertex
100
AcDb2dVertex
 10
1716.945648
 20
1493.183624
 30
0.0
  0
VERTEX
  5
304
100
AcDbEntity
  8
スト－ル
  6
CONTINUOUS
 62
     6
100
AcDbVertex
100
AcDb2dVertex
 10
1716.380005
 20
1493.243591
 30
0.0
  0
VERTEX
  5
305
100
AcDbEntity
  8
スト－ル
  6
CONTINUOUS
 62
     6
100
AcDbVertex
100
AcDb2dVertex
 10
1715.810547
 20
1493.263733
 30
0.0
  0
VERTEX
  5
306
100
AcDbEntity
  8
スト－ル
  6
CONTINUOUS
 62
     6
100
AcDbVertex
100
AcDb2dVertex
 10
1715.240631
 20
1493.243744
 30
0.0
  0
VERTEX
  5
307
100
AcDbEntity
  8
スト－ル
  6
CONTINUOUS
 62
     6
100
AcDbVertex
100
AcDb2dVertex
 10
1714.67514
 20
1493.183777
 30
0.0
  0
VERTEX
  5
308
100
AcDbEntity
  8
スト－ル
  6
CONTINUOUS
 62
     6
100
AcDbVertex
100
AcDb2dVertex
 10
1714.1185
 20
1493.084137
 30
0.0
  0
VERTEX
  5
309
100
AcDbEntity
  8
スト－ル
  6
CONTINUOUS
 62
     6
100
AcDbVertex
100
AcDb2dVertex
 10
1713.574524
 20
1492.945892
 30
0.0
  0
VERTEX
  5
30A
100
AcDbEntity
  8
スト－ル
  6
CONTINUOUS
 62
     6
100
AcDbVertex
100
AcDb2dVertex
 10
1713.047791
 20
1492.769959
 30
0.0
  0
VERTEX
  5
30B
100
AcDbEntity
  8
スト－ル
  6
CONTINUOUS
 62
     6
100
AcDbVertex
100
AcDb2dVertex
 10
1712.541199
 20
1492.558014
 30
0.0
  0
VERTEX
  5
30C
100
AcDbEntity
  8
スト－ル
  6
CONTINUOUS
 62
     6
100
AcDbVertex
100
AcDb2dVertex
 10
1712.060089
 20
1492.311127
 30
0.0
  0
VERTEX
  5
30D
100
AcDbEntity
  8
スト－ル
  6
CONTINUOUS
 62
     6
100
AcDbVertex
100
AcDb2dVertex
 10
1711.607513
 20
1492.031433
 30
0.0
  0
VERTEX
  5
30E
100
AcDbEntity
  8
スト－ル
  6
CONTINUOUS
 62
     6
100
AcDbVertex
100
AcDb2dVertex
 10
1711.187439
 20
1491.720917
 30
0.0
  0
VERTEX
  5
30F
100
AcDbEntity
  8
スト－ル
  6
CONTINUOUS
 62
     6
100
AcDbVertex
100
AcDb2dVertex
 10
1710.802154
 20
1491.382172
 30
0.0
  0
VERTEX
  5
310
100
AcDbEntity
  8
スト－ル
  6
CONTINUOUS
 62
     6
100
AcDbVertex
100
AcDb2dVertex
 10
1710.45517
 20
1491.017639
 30
0.0
  0
VERTEX
  5
311
100
AcDbEntity
  8
スト－ル
  6
CONTINUOUS
 62
     6
100
AcDbVertex
100
AcDb2dVertex
 10
1710.148163
 20
1490.629913
 30
0.0
  0
VERTEX
  5
312
100
AcDbEntity
  8
スト－ル
  6
CONTINUOUS
 62
     6
100
AcDbVertex
100
AcDb2dVertex
 10
1709.884796
 20
1490.222351
 30
0.0
  0
VERTEX
  5
313
100
AcDbEntity
  8
スト－ル
  6
CONTINUOUS
 62
     6
100
AcDbVertex
100
AcDb2dVertex
 10
1709.666596
 20
1489.797852
 30
0.0
  0
VERTEX
  5
314
100
AcDbEntity
  8
スト－ル
  6
CONTINUOUS
 62
     6
100
AcDbVertex
100
AcDb2dVertex
 10
1709.495087
 20
1489.359467
 30
0.0
  0
VERTEX
  5
315
100
AcDbEntity
  8
スト－ル
  6
CONTINUOUS
 62
     6
100
AcDbVertex
100
AcDb2dVertex
 10
1709.371643
 20
1488.910858
 30
0.0
  0
VERTEX
  5
316
100
AcDbEntity
  8
スト－ル
  6
CONTINUOUS
 62
     6
100
AcDbVertex
100
AcDb2dVertex
 10
1709.29718
 20
1488.455231
 30
0.0
  0
VERTEX
  5
317
100
AcDbEntity
  8
スト－ル
  6
CONTINUOUS
 62
     6
100
AcDbVertex
100
AcDb2dVertex
 10
1709.272308
 20
1487.996094
 30
0.0
  0
VERTEX
  5
318
100
AcDbEntity
  8
スト－ル
  6
CONTINUOUS
 62
     6
100
AcDbVertex
100
AcDb2dVertex
 10
1709.29718
 20
1487.537109
 30
0.0
  0
VERTEX
  5
319
100
AcDbEntity
  8
スト－ル
  6
CONTINUOUS
 62
     6
100
AcDbVertex
100
AcDb2dVertex
 10
1709.371643
 20
1487.081635
 30
0.0
  0
VERTEX
  5
31A
100
AcDbEntity
  8
スト－ル
  6
CONTINUOUS
 62
     6
100
AcDbVertex
100
AcDb2dVertex
 10
1709.495087
 20
1486.632416
 30
0.0
  0
VERTEX
  5
31B
100
AcDbEntity
  8
スト－ル
  6
CONTINUOUS
 62
     6
100
AcDbVertex
100
AcDb2dVertex
 10
1709.666596
 20
1486.194183
 30
0.0
  0
VERTEX
  5
31C
100
AcDbEntity
  8
スト－ル
  6
CONTINUOUS
 62
     6
100
AcDbVertex
100
AcDb2dVertex
 10
1709.884796
 20
1485.769379
 30
0.0
  0
VERTEX
  5
31D
100
AcDbEntity
  8
スト－ル
  6
CONTINUOUS
 62
     6
100
AcDbVertex
100
AcDb2dVertex
 10
1710.148163
 20
1485.361816
 30
0.0
  0
VERTEX
  5
31E
100
AcDbEntity
  8
スト－ル
  6
CONTINUOUS
 62
     6
100
AcDbVertex
100
AcDb2dVertex
 10
1710.454712
 20
1484.974243
 30
0.0
  0
VERTEX
  5
31F
100
AcDbEntity
  8
スト－ル
  6
CONTINUOUS
 62
     6
100
AcDbVertex
100
AcDb2dVertex
 10
1710.801849
 20
1484.609406
 30
0.0
  0
VERTEX
  5
320
100
AcDbEntity
  8
スト－ル
  6
CONTINUOUS
 62
     6
100
AcDbVertex
100
AcDb2dVertex
 10
1711.187439
 20
1484.270966
 30
0.0
  0
VERTEX
  5
321
100
AcDbEntity
  8
スト－ル
  6
CONTINUOUS
 62
     6
100
AcDbVertex
100
AcDb2dVertex
 10
1711.608124
 20
1483.960449
 30
0.0
  0
VERTEX
  5
322
100
AcDbEntity
  8
スト－ル
  6
CONTINUOUS
 62
     6
100
AcDbVertex
100
AcDb2dVertex
 10
1712.0607
 20
1483.680756
 30
0.0
  0
VERTEX
  5
323
100
AcDbEntity
  8
スト－ル
  6
CONTINUOUS
 62
     6
100
AcDbVertex
100
AcDb2dVertex
 10
1712.541199
 20
1483.433868
 30
0.0
  0
VERTEX
  5
324
100
AcDbEntity
  8
スト－ル
  6
CONTINUOUS
 62
     6
100
AcDbVertex
100
AcDb2dVertex
 10
1713.047028
 20
1483.221619
 30
0.0
  0
VERTEX
  5
325
100
AcDbEntity
  8
スト－ル
  6
CONTINUOUS
 62
     6
100
AcDbVertex
100
AcDb2dVertex
 10
1713.573914
 20
1483.045685
 30
0.0
  0
VERTEX
  5
326
100
AcDbEntity
  8
スト－ル
  6
CONTINUOUS
 62
     6
100
AcDbVertex
100
AcDb2dVertex
 10
1714.1185
 20
1482.907593
 30
0.0
  0
VERTEX
  5
327
100
AcDbEntity
  8
スト－ル
  6
CONTINUOUS
 62
     6
100
AcDbVertex
100
AcDb2dVertex
 10
1714.675446
 20
1482.808106
 30
0.0
  0
VERTEX
  5
328
100
AcDbEntity
  8
スト－ル
  6
CONTINUOUS
 62
     6
100
AcDbVertex
100
AcDb2dVertex
 10
1715.241089
 20
1482.748138
 30
0.0
  0
VERTEX
  5
329
100
AcDbEntity
  8
スト－ル
  6
CONTINUOUS
 62
     6
100
AcDbVertex
100
AcDb2dVertex
 10
1715.810547
 20
1482.727844
 30
0.0
  0
VERTEX
  5
32A
100
AcDbEntity
  8
スト－ル
  6
CONTINUOUS
 62
     6
100
AcDbVertex
100
AcDb2dVertex
 10
1716.380463
 20
1482.747833
 30
0.0
  0
VERTEX
  5
32B
100
AcDbEntity
  8
スト－ル
  6
CONTINUOUS
 62
     6
100
AcDbVertex
100
AcDb2dVertex
 10
1716.945953
 20
1482.8078
 30
0.0
  0
VERTEX
  5
32C
100
AcDbEntity
  8
スト－ル
  6
CONTINUOUS
 62
     6
100
AcDbVertex
100
AcDb2dVertex
 10
1717.502594
 20
1482.907593
 30
0.0
  0
VERTEX
  5
32D
100
AcDbEntity
  8
スト－ル
  6
CONTINUOUS
 62
     6
100
AcDbVertex
100
AcDb2dVertex
 10
1718.04657
 20
1483.045837
 30
0.0
  0
VERTEX
  5
32E
100
AcDbEntity
  8
スト－ル
  6
CONTINUOUS
 62
     6
100
AcDbVertex
100
AcDb2dVertex
 10
1718.573303
 20
1483.221771
 30
0.0
  0
SEQEND
  5
32F
100
AcDbEntity
  8
スト－ル
  6
CONTINUOUS
 62
     6
  0
POLYLINE
  5
330
100
AcDbEntity
  8
スト－ル
  6
CONTINUOUS
 62
     6
100
AcDb2dPolyline
 66
     1
 10
0.0
 20
0.0
 30
0.0
 70
   128
  0
VERTEX
  5
331
100
AcDbEntity
  8
スト－ル
  6
CONTINUOUS
 62
     6
100
AcDbVertex
100
AcDb2dVertex
 10
1718.573303
 20
1483.221771
 30
0.0
  0
VERTEX
  5
332
100
AcDbEntity
  8
スト－ル
  6
CONTINUOUS
 62
     6
100
AcDbVertex
100
AcDb2dVertex
 10
1719.079895
 20
1483.433868
 30
0.0
  0
VERTEX
  5
333
100
AcDbEntity
  8
スト－ル
  6
CONTINUOUS
 62
     6
100
AcDbVertex
100
AcDb2dVertex
 10
1719.561005
 20
1483.680756
 30
0.0
  0
VERTEX
  5
334
100
AcDbEntity
  8
スト－ル
  6
CONTINUOUS
 62
     6
100
AcDbVertex
100
AcDb2dVertex
 10
1720.01358
 20
1483.960449
 30
0.0
  0
VERTEX
  5
335
100
AcDbEntity
  8
スト－ル
  6
CONTINUOUS
 62
     6
100
AcDbVertex
100
AcDb2dVertex
 10
1720.433655
 20
1484.270966
 30
0.0
  0
VERTEX
  5
336
100
AcDbEntity
  8
スト－ル
  6
CONTINUOUS
 62
     6
100
AcDbVertex
100
AcDb2dVertex
 10
1720.818939
 20
1484.609711
 30
0.0
  0
VERTEX
  5
337
100
AcDbEntity
  8
スト－ル
  6
CONTINUOUS
 62
     6
100
AcDbVertex
100
AcDb2dVertex
 10
1721.165924
 20
1484.974243
 30
0.0
  0
VERTEX
  5
338
100
AcDbEntity
  8
スト－ル
  6
CONTINUOUS
 62
     6
100
AcDbVertex
100
AcDb2dVertex
 10
1721.472931
 20
1485.361816
 30
0.0
  0
VERTEX
  5
339
100
AcDbEntity
  8
スト－ル
  6
CONTINUOUS
 62
     6
100
AcDbVertex
100
AcDb2dVertex
 10
1721.736298
 20
1485.769379
 30
0.0
  0
VERTEX
  5
33A
100
AcDbEntity
  8
スト－ル
  6
CONTINUOUS
 62
     6
100
AcDbVertex
100
AcDb2dVertex
 10
1721.954498
 20
1486.193878
 30
0.0
  0
VERTEX
  5
33B
100
AcDbEntity
  8
スト－ル
  6
CONTINUOUS
 62
     6
100
AcDbVertex
100
AcDb2dVertex
 10
1722.12616
 20
1486.632416
 30
0.0
  0
SEQEND
  5
33C
100
AcDbEntity
  8
スト－ル
  6
CONTINUOUS
 62
     6
  0
POLYLINE
  5
33D
100
AcDbEntity
  8
スト－ル
  6
CONTINUOUS
 62
     6
100
AcDb2dPolyline
 66
     1
 10
0.0
 20
0.0
 30
0.0
 70
   128
  0
VERTEX
  5
33E
100
AcDbEntity
  8
スト－ル
  6
CONTINUOUS
 62
     6
100
AcDbVertex
100
AcDb2dVertex
 10
1722.12616
 20
1486.632416
 30
0.0
  0
VERTEX
  5
33F
100
AcDbEntity
  8
スト－ル
  6
CONTINUOUS
 62
     6
100
AcDbVertex
100
AcDb2dVertex
 10
1722.249603
 20
1487.081024
 30
0.0
  0
VERTEX
  5
340
100
AcDbEntity
  8
スト－ル
  6
CONTINUOUS
 62
     6
100
AcDbVertex
100
AcDb2dVertex
 10
1722.324066
 20
1487.536652
 30
0.0
  0
VERTEX
  5
341
100
AcDbEntity
  8
スト－ル
  6
CONTINUOUS
 62
     6
100
AcDbVertex
100
AcDb2dVertex
 10
1722.349243
 20
1487.995483
 30
0.0
  0
SEQEND
  5
342
100
AcDbEntity
  8
スト－ル
  6
CONTINUOUS
 62
     6
  0
POLYLINE
  5
343
100
AcDbEntity
  8
スト－ル
  6
CONTINUOUS
 62
     6
100
AcDb2dPolyline
 66
     1
 10
0.0
 20
0.0
 30
0.0
 70
   128
  0
VERTEX
  5
344
100
AcDbEntity
  8
スト－ル
  6
CONTINUOUS
 62
     6
100
AcDbVertex
100
AcDb2dVertex
 10
1707.388763
 20
1487.996094
 30
0.0
  0
VERTEX
  5
345
100
AcDbEntity
  8
スト－ル
  6
CONTINUOUS
 62
     6
100
AcDbVertex
100
AcDb2dVertex
 10
1707.376251
 20
1488.455231
 30
0.0
  0
VERTEX
  5
346
100
AcDbEntity
  8
スト－ル
  6
CONTINUOUS
 62
     6
100
AcDbVertex
100
AcDb2dVertex
 10
1707.338867
 20
1488.911163
 30
0.0
  0
VERTEX
  5
347
100
AcDbEntity
  8
スト－ル
  6
CONTINUOUS
 62
     6
100
AcDbVertex
100
AcDb2dVertex
 10
1707.276459
 20
1489.359467
 30
0.0
  0
VERTEX
  5
348
100
AcDbEntity
  8
スト－ル
  6
CONTINUOUS
 62
     6
100
AcDbVertex
100
AcDb2dVertex
 10
1707.190094
 20
1489.797699
 30
0.0
  0
VERTEX
  5
349
100
AcDbEntity
  8
スト－ル
  6
CONTINUOUS
 62
     6
100
AcDbVertex
100
AcDb2dVertex
 10
1707.080231
 20
1490.222504
 30
0.0
  0
VERTEX
  5
34A
100
AcDbEntity
  8
スト－ル
  6
CONTINUOUS
 62
     6
100
AcDbVertex
100
AcDb2dVertex
 10
1706.947937
 20
1490.629913
 30
0.0
  0
VERTEX
  5
34B
100
AcDbEntity
  8
スト－ル
  6
CONTINUOUS
 62
     6
100
AcDbVertex
100
AcDb2dVertex
 10
1706.793671
 20
1491.017487
 30
0.0
  0
VERTEX
  5
34C
100
AcDbEntity
  8
スト－ル
  6
CONTINUOUS
 62
     6
100
AcDbVertex
100
AcDb2dVertex
 10
1706.618958
 20
1491.382324
 30
0.0
  0
VERTEX
  5
34D
100
AcDbEntity
  8
スト－ル
  6
CONTINUOUS
 62
     6
100
AcDbVertex
100
AcDb2dVertex
 10
1706.425324
 20
1491.720917
 30
0.0
  0
VERTEX
  5
34E
100
AcDbEntity
  8
スト－ル
  6
CONTINUOUS
 62
     6
100
AcDbVertex
100
AcDb2dVertex
 10
1706.213837
 20
1492.031433
 30
0.0
  0
VERTEX
  5
34F
100
AcDbEntity
  8
スト－ル
  6
CONTINUOUS
 62
     6
100
AcDbVertex
100
AcDb2dVertex
 10
1705.986175
 20
1492.311279
 30
0.0
  0
VERTEX
  5
350
100
AcDbEntity
  8
スト－ル
  6
CONTINUOUS
 62
     6
100
AcDbVertex
100
AcDb2dVertex
 10
1705.744324
 20
1492.558167
 30
0.0
  0
VERTEX
  5
351
100
AcDbEntity
  8
スト－ル
  6
CONTINUOUS
 62
     6
100
AcDbVertex
100
AcDb2dVertex
 10
1705.489807
 20
1492.770264
 30
0.0
  0
VERTEX
  5
352
100
AcDbEntity
  8
スト－ル
  6
CONTINUOUS
 62
     6
100
AcDbVertex
100
AcDb2dVertex
 10
1705.224915
 20
1492.946198
 30
0.0
  0
VERTEX
  5
353
100
AcDbEntity
  8
スト－ル
  6
CONTINUOUS
 62
     6
100
AcDbVertex
100
AcDb2dVertex
 10
1704.950867
 20
1493.084137
 30
0.0
  0
VERTEX
  5
354
100
AcDbEntity
  8
スト－ル
  6
CONTINUOUS
 62
     6
100
AcDbVertex
100
AcDb2dVertex
 10
1704.670715
 20
1493.183472
 30
0.0
  0
VERTEX
  5
355
100
AcDbEntity
  8
スト－ル
  6
CONTINUOUS
 62
     6
100
AcDbVertex
100
AcDb2dVertex
 10
1704.386444
 20
1493.243439
 30
0.0
  0
VERTEX
  5
356
100
AcDbEntity
  8
スト－ル
  6
CONTINUOUS
 62
     6
100
AcDbVertex
100
AcDb2dVertex
 10
1704.099426
 20
1493.263733
 30
0.0
  0
VERTEX
  5
357
100
AcDbEntity
  8
スト－ル
  6
CONTINUOUS
 62
     6
100
AcDbVertex
100
AcDb2dVertex
 10
1703.812714
 20
1493.243744
 30
0.0
  0
VERTEX
  5
358
100
AcDbEntity
  8
スト－ル
  6
CONTINUOUS
 62
     6
100
AcDbVertex
100
AcDb2dVertex
 10
1703.528137
 20
1493.183777
 30
0.0
  0
VERTEX
  5
359
100
AcDbEntity
  8
スト－ル
  6
CONTINUOUS
 62
     6
100
AcDbVertex
100
AcDb2dVertex
 10
1703.248291
 20
1493.084137
 30
0.0
  0
VERTEX
  5
35A
100
AcDbEntity
  8
スト－ル
  6
CONTINUOUS
 62
     6
100
AcDbVertex
100
AcDb2dVertex
 10
1702.974701
 20
1492.945892
 30
0.0
  0
VERTEX
  5
35B
100
AcDbEntity
  8
スト－ル
  6
CONTINUOUS
 62
     6
100
AcDbVertex
100
AcDb2dVertex
 10
1702.709503
 20
1492.769959
 30
0.0
  0
VERTEX
  5
35C
100
AcDbEntity
  8
スト－ル
  6
CONTINUOUS
 62
     6
100
AcDbVertex
100
AcDb2dVertex
 10
1702.454987
 20
1492.558167
 30
0.0
  0
VERTEX
  5
35D
100
AcDbEntity
  8
スト－ル
  6
CONTINUOUS
 62
     6
100
AcDbVertex
100
AcDb2dVertex
 10
1702.212982
 20
1492.311279
 30
0.0
  0
VERTEX
  5
35E
100
AcDbEntity
  8
スト－ル
  6
CONTINUOUS
 62
     6
100
AcDbVertex
100
AcDb2dVertex
 10
1701.985321
 20
1492.031433
 30
0.0
  0
VERTEX
  5
35F
100
AcDbEntity
  8
スト－ル
  6
CONTINUOUS
 62
     6
100
AcDbVertex
100
AcDb2dVertex
 10
1701.773834
 20
1491.720917
 30
0.0
  0
VERTEX
  5
360
100
AcDbEntity
  8
スト－ル
  6
CONTINUOUS
 62
     6
100
AcDbVertex
100
AcDb2dVertex
 10
1701.580048
 20
1491.382019
 30
0.0
  0
VERTEX
  5
361
100
AcDbEntity
  8
スト－ル
  6
CONTINUOUS
 62
     6
100
AcDbVertex
100
AcDb2dVertex
 10
1701.405335
 20
1491.017487
 30
0.0
  0
VERTEX
  5
362
100
AcDbEntity
  8
スト－ル
  6
CONTINUOUS
 62
     6
100
AcDbVertex
100
AcDb2dVertex
 10
1701.251221
 20
1490.629913
 30
0.0
  0
VERTEX
  5
363
100
AcDbEntity
  8
スト－ル
  6
CONTINUOUS
 62
     6
100
AcDbVertex
100
AcDb2dVertex
 10
1701.118774
 20
1490.222351
 30
0.0
  0
VERTEX
  5
364
100
AcDbEntity
  8
スト－ル
  6
CONTINUOUS
 62
     6
100
AcDbVertex
100
AcDb2dVertex
 10
1701.009216
 20
1489.797852
 30
0.0
  0
VERTEX
  5
365
100
AcDbEntity
  8
スト－ル
  6
CONTINUOUS
 62
     6
100
AcDbVertex
100
AcDb2dVertex
 10
1700.922699
 20
1489.359467
 30
0.0
  0
VERTEX
  5
366
100
AcDbEntity
  8
スト－ル
  6
CONTINUOUS
 62
     6
100
AcDbVertex
100
AcDb2dVertex
 10
1700.860748
 20
1488.910858
 30
0.0
  0
VERTEX
  5
367
100
AcDbEntity
  8
スト－ル
  6
CONTINUOUS
 62
     6
100
AcDbVertex
100
AcDb2dVertex
 10
1700.823364
 20
1488.455231
 30
0.0
  0
VERTEX
  5
368
100
AcDbEntity
  8
スト－ル
  6
CONTINUOUS
 62
     6
100
AcDbVertex
100
AcDb2dVertex
 10
1700.810547
 20
1487.996094
 30
0.0
  0
VERTEX
  5
369
100
AcDbEntity
  8
スト－ル
  6
CONTINUOUS
 62
     6
100
AcDbVertex
100
AcDb2dVertex
 10
1700.823059
 20
1487.537109
 30
0.0
  0
VERTEX
  5
36A
100
AcDbEntity
  8
スト－ル
  6
CONTINUOUS
 62
     6
100
AcDbVertex
100
AcDb2dVertex
 10
1700.860596
 20
1487.081635
 30
0.0
  0
VERTEX
  5
36B
100
AcDbEntity
  8
スト－ル
  6
CONTINUOUS
 62
     6
100
AcDbVertex
100
AcDb2dVertex
 10
1700.922699
 20
1486.632416
 30
0.0
  0
VERTEX
  5
36C
100
AcDbEntity
  8
スト－ル
  6
CONTINUOUS
 62
     6
100
AcDbVertex
100
AcDb2dVertex
 10
1701.009064
 20
1486.194183
 30
0.0
  0
VERTEX
  5
36D
100
AcDbEntity
  8
スト－ル
  6
CONTINUOUS
 62
     6
100
AcDbVertex
100
AcDb2dVertex
 10
1701.11908
 20
1485.769379
 30
0.0
  0
VERTEX
  5
36E
100
AcDbEntity
  8
スト－ル
  6
CONTINUOUS
 62
     6
100
AcDbVertex
100
AcDb2dVertex
 10
1701.251221
 20
1485.361816
 30
0.0
  0
VERTEX
  5
36F
100
AcDbEntity
  8
スト－ル
  6
CONTINUOUS
 62
     6
100
AcDbVertex
100
AcDb2dVertex
 10
1701.405487
 20
1484.974243
 30
0.0
  0
VERTEX
  5
370
100
AcDbEntity
  8
スト－ル
  6
CONTINUOUS
 62
     6
100
AcDbVertex
100
AcDb2dVertex
 10
1701.580353
 20
1484.609406
 30
0.0
  0
VERTEX
  5
371
100
AcDbEntity
  8
スト－ル
  6
CONTINUOUS
 62
     6
100
AcDbVertex
100
AcDb2dVertex
 10
1701.773834
 20
1484.270966
 30
0.0
  0
VERTEX
  5
372
100
AcDbEntity
  8
スト－ル
  6
CONTINUOUS
 62
     6
100
AcDbVertex
100
AcDb2dVertex
 10
1701.985474
 20
1483.960449
 30
0.0
  0
VERTEX
  5
373
100
AcDbEntity
  8
スト－ル
  6
CONTINUOUS
 62
     6
100
AcDbVertex
100
AcDb2dVertex
 10
1702.213135
 20
1483.680603
 30
0.0
  0
VERTEX
  5
374
100
AcDbEntity
  8
スト－ル
  6
CONTINUOUS
 62
     6
100
AcDbVertex
100
AcDb2dVertex
 10
1702.454987
 20
1483.433716
 30
0.0
  0
VERTEX
  5
375
100
AcDbEntity
  8
スト－ル
  6
CONTINUOUS
 62
     6
100
AcDbVertex
100
AcDb2dVertex
 10
1702.709503
 20
1483.221619
 30
0.0
  0
VERTEX
  5
376
100
AcDbEntity
  8
スト－ル
  6
CONTINUOUS
 62
     6
100
AcDbVertex
100
AcDb2dVertex
 10
1702.974548
 20
1483.045685
 30
0.0
  0
VERTEX
  5
377
100
AcDbEntity
  8
スト－ル
  6
CONTINUOUS
 62
     6
100
AcDbVertex
100
AcDb2dVertex
 10
1703.248291
 20
1482.907593
 30
0.0
  0
VERTEX
  5
378
100
AcDbEntity
  8
スト－ル
  6
CONTINUOUS
 62
     6
100
AcDbVertex
100
AcDb2dVertex
 10
1703.528442
 20
1482.808258
 30
0.0
  0
VERTEX
  5
379
100
AcDbEntity
  8
スト－ル
  6
CONTINUOUS
 62
     6
100
AcDbVertex
100
AcDb2dVertex
 10
1703.812866
 20
1482.748291
 30
0.0
  0
VERTEX
  5
37A
100
AcDbEntity
  8
スト－ル
  6
CONTINUOUS
 62
     6
100
AcDbVertex
100
AcDb2dVertex
 10
1704.099426
 20
1482.727844
 30
0.0
  0
VERTEX
  5
37B
100
AcDbEntity
  8
スト－ル
  6
CONTINUOUS
 62
     6
100
AcDbVertex
100
AcDb2dVertex
 10
1704.385986
 20
1482.747833
 30
0.0
  0
VERTEX
  5
37C
100
AcDbEntity
  8
スト－ル
  6
CONTINUOUS
 62
     6
100
AcDbVertex
100
AcDb2dVertex
 10
1704.67041
 20
1482.8078
 30
0.0
  0
VERTEX
  5
37D
100
AcDbEntity
  8
スト－ル
  6
CONTINUOUS
 62
     6
100
AcDbVertex
100
AcDb2dVertex
 10
1704.950867
 20
1482.907593
 30
0.0
  0
VERTEX
  5
37E
100
AcDbEntity
  8
スト－ル
  6
CONTINUOUS
 62
     6
100
AcDbVertex
100
AcDb2dVertex
 10
1705.224609
 20
1483.045837
 30
0.0
  0
VERTEX
  5
37F
100
AcDbEntity
  8
スト－ル
  6
CONTINUOUS
 62
     6
100
AcDbVertex
100
AcDb2dVertex
 10
1705.489807
 20
1483.221771
 30
0.0
  0
SEQEND
  5
380
100
AcDbEntity
  8
スト－ル
  6
CONTINUOUS
 62
     6
  0
POLYLINE
  5
381
100
AcDbEntity
  8
スト－ル
  6
CONTINUOUS
 62
     6
100
AcDb2dPolyline
 66
     1
 10
0.0
 20
0.0
 30
0.0
 70
   128
  0
VERTEX
  5
382
100
AcDbEntity
  8
スト－ル
  6
CONTINUOUS
 62
     6
100
AcDbVertex
100
AcDb2dVertex
 10
1705.489807
 20
1483.221771
 30
0.0
  0
VERTEX
  5
383
100
AcDbEntity
  8
スト－ル
  6
CONTINUOUS
 62
     6
100
AcDbVertex
100
AcDb2dVertex
 10
1705.744324
 20
1483.433716
 30
0.0
  0
VERTEX
  5
384
100
AcDbEntity
  8
スト－ル
  6
CONTINUOUS
 62
     6
100
AcDbVertex
100
AcDb2dVertex
 10
1705.986328
 20
1483.680603
 30
0.0
  0
VERTEX
  5
385
100
AcDbEntity
  8
スト－ル
  6
CONTINUOUS
 62
     6
100
AcDbVertex
100
AcDb2dVertex
 10
1706.214142
 20
1483.960449
 30
0.0
  0
VERTEX
  5
386
100
AcDbEntity
  8
スト－ル
  6
CONTINUOUS
 62
     6
100
AcDbVertex
100
AcDb2dVertex
 10
1706.425324
 20
1484.270966
 30
0.0
  0
VERTEX
  5
387
100
AcDbEntity
  8
スト－ル
  6
CONTINUOUS
 62
     6
100
AcDbVertex
100
AcDb2dVertex
 10
1706.61911
 20
1484.609863
 30
0.0
  0
VERTEX
  5
388
100
AcDbEntity
  8
スト－ル
  6
CONTINUOUS
 62
     6
100
AcDbVertex
100
AcDb2dVertex
 10
1706.793976
 20
1484.974396
 30
0.0
  0
VERTEX
  5
389
100
AcDbEntity
  8
スト－ル
  6
CONTINUOUS
 62
     6
100
AcDbVertex
100
AcDb2dVertex
 10
1706.947937
 20
1485.361816
 30
0.0
  0
VERTEX
  5
38A
100
AcDbEntity
  8
スト－ル
  6
CONTINUOUS
 62
     6
100
AcDbVertex
100
AcDb2dVertex
 10
1707.080383
 20
1485.769379
 30
0.0
  0
VERTEX
  5
38B
100
AcDbEntity
  8
スト－ル
  6
CONTINUOUS
 62
     6
100
AcDbVertex
100
AcDb2dVertex
 10
1707.190094
 20
1486.193878
 30
0.0
  0
VERTEX
  5
38C
100
AcDbEntity
  8
スト－ル
  6
CONTINUOUS
 62
     6
100
AcDbVertex
100
AcDb2dVertex
 10
1707.276459
 20
1486.632416
 30
0.0
  0
SEQEND
  5
38D
100
AcDbEntity
  8
スト－ル
  6
CONTINUOUS
 62
     6
  0
POLYLINE
  5
38E
100
AcDbEntity
  8
スト－ル
  6
CONTINUOUS
 62
     6
100
AcDb2dPolyline
 66
     1
 10
0.0
 20
0.0
 30
0.0
 70
   128
  0
VERTEX
  5
38F
100
AcDbEntity
  8
スト－ル
  6
CONTINUOUS
 62
     6
100
AcDbVertex
100
AcDb2dVertex
 10
1707.276459
 20
1486.632416
 30
0.0
  0
VERTEX
  5
390
100
AcDbEntity
  8
スト－ル
  6
CONTINUOUS
 62
     6
100
AcDbVertex
100
AcDb2dVertex
 10
1707.338562
 20
1487.081024
 30
0.0
  0
VERTEX
  5
391
100
AcDbEntity
  8
スト－ル
  6
CONTINUOUS
 62
     6
100
AcDbVertex
100
AcDb2dVertex
 10
1707.375946
 20
1487.536652
 30
0.0
  0
VERTEX
  5
392
100
AcDbEntity
  8
スト－ル
  6
CONTINUOUS
 62
     6
100
AcDbVertex
100
AcDb2dVertex
 10
1707.388306
 20
1487.995483
 30
0.0
  0
SEQEND
  5
393
100
AcDbEntity
  8
スト－ル
  6
CONTINUOUS
 62
     6
  0
LINE
  5
394
100
AcDbEntity
  8
スト－ル
  6
CONTINUOUS
 62
     6
100
AcDbLine
 10
1728.310394
 20
1481.995728
 30
0.0
 11
1728.310394
 21
1478.495819
 31
0.0
  0
LINE
  5
395
100
AcDbEntity
  8
スト－ル
  6
CONTINUOUS
 62
     6
100
AcDbLine
 10
1703.310394
 20
1481.995728
 30
0.0
 11
1703.310394
 21
1478.495819
 31
0.0
  0
LINE
  5
396
100
AcDbEntity
  8
スト－ル
  6
CONTINUOUS
 62
     6
100
AcDbLine
 10
1730.810394
 20
1471.99588
 30
0.0
 11
1730.810394
 21
1476.99588
 31
0.0
  0
LINE
  5
397
100
AcDbEntity
  8
スト－ル
  6
CONTINUOUS
 62
     6
100
AcDbLine
 10
1729.310455
 20
1478.495819
 30
0.0
 11
1730.810394
 21
1476.99588
 31
0.0
  0
LINE
  5
398
100
AcDbEntity
  8
スト－ル
  6
CONTINUOUS
 62
     6
100
AcDbLine
 10
1702.310333
 20
1478.495819
 30
0.0
 11
1729.310455
 21
1478.495819
 31
0.0
  0
LINE
  5
399
100
AcDbEntity
  8
スト－ル
  6
CONTINUOUS
 62
     6
100
AcDbLine
 10
1700.810394
 20
1476.99588
 30
0.0
 11
1702.310333
 21
1478.495819
 31
0.0
  0
LINE
  5
39A
100
AcDbEntity
  8
スト－ル
  6
CONTINUOUS
 62
     6
100
AcDbLine
 10
1700.810394
 20
1471.99588
 30
0.0
 11
1700.810394
 21
1476.99588
 31
0.0
  0
LINE
  5
39B
100
AcDbEntity
  8
スト－ル
  6
CONTINUOUS
 62
     6
100
AcDbLine
 10
1724.232178
 20
1476.99588
 30
0.0
 11
1724.232178
 21
1471.99588
 31
0.0
  0
LINE
  5
39C
100
AcDbEntity
  8
スト－ル
  6
CONTINUOUS
 62
     6
100
AcDbLine
 10
1722.348633
 20
1476.99588
 30
0.0
 11
1722.348633
 21
1471.99588
 31
0.0
  0
LINE
  5
39D
100
AcDbEntity
  8
スト－ル
  6
CONTINUOUS
 62
     6
100
AcDbLine
 10
1709.272156
 20
1476.99588
 30
0.0
 11
1709.272156
 21
1471.99588
 31
0.0
  0
LINE
  5
39E
100
AcDbEntity
  8
スト－ル
  6
CONTINUOUS
 62
     6
100
AcDbLine
 10
1707.388458
 20
1476.99588
 30
0.0
 11
1707.388458
 21
1471.99588
 31
0.0
  0
ARC
  5
39F
100
AcDbEntity
  8
スト－ル
  6
CONTINUOUS
 62
     6
100
AcDbCircle
 10
1727.501526
 20
1474.18277
 30
0.0
 40
4.31303
100
AcDbArc
 50
40.710342
 51
139.289673
  0
LINE
  5
3A0
100
AcDbEntity
  8
スト－ル
  6
CONTINUOUS
 62
     6
100
AcDbLine
 10
1722.348633
 20
1476.99588
 30
0.0
 11
1724.232178
 21
1476.99588
 31
0.0
  0
ARC
  5
3A1
100
AcDbEntity
  8
スト－ル
  6
CONTINUOUS
 62
     6
100
AcDbCircle
 10
1715.810394
 20
1463.495819
 30
0.0
 40
15.00001
100
AcDbArc
 50
64.158539
 51
115.841476
  0
LINE
  5
3A2
100
AcDbEntity
  8
スト－ル
  6
CONTINUOUS
 62
     6
100
AcDbLine
 10
1707.388458
 20
1476.99588
 30
0.0
 11
1709.272156
 21
1476.99588
 31
0.0
  0
ARC
  5
3A3
100
AcDbEntity
  8
スト－ル
  6
CONTINUOUS
 62
     6
100
AcDbCircle
 10
1704.099426
 20
1474.139893
 30
0.0
 40
4.355961
100
AcDbArc
 50
40.968979
 51
139.031006
  0
LINE
  5
3A4
100
AcDbEntity
  8
スト－ル
  6
CONTINUOUS
 62
     6
100
AcDbLine
 10
1735.810394
 20
1471.99588
 30
0.0
 11
1735.810394
 21
1466.99588
 31
0.0
  0
LINE
  5
3A5
100
AcDbEntity
  8
スト－ル
  6
CONTINUOUS
 62
     6
100
AcDbLine
 10
1695.810394
 20
1471.99588
 30
0.0
 11
1735.810394
 21
1471.99588
 31
0.0
  0
LINE
  5
3A6
100
AcDbEntity
  8
スト－ル
  6
CONTINUOUS
 62
     6
100
AcDbLine
 10
1695.810394
 20
1471.99588
 30
0.0
 11
1695.810394
 21
1466.99588
 31
0.0
  0
LINE
  5
3A7
100
AcDbEntity
  8
スト－ル
  6
CONTINUOUS
 62
     6
100
AcDbLine
 10
1506.086426
 20
1541.682617
 30
0.0
 11
1611.086426
 21
1541.682617
 31
0.0
  0
TEXT
  5
3A8
100
AcDbEntity
  8
スト－ル
  6
CONTINUOUS
 62
     2
100
AcDbText
 10
1502.172852
 20
1545.182678
 30
0.0
 40
40.0
  1
ＮＵ２
 41
0.833
  7
EXCADSTD
 72
     5
 11
1621.172851
 21
1545.182678
 31
0.0
100
AcDbText
  0
LINE
  5
3A9
100
AcDbEntity
  8
スト－ル
  6
CONTINUOUS
 62
     3
100
AcDbLine
 10
1330.110016
 20
867.000153
 30
0.0
 11
1406.0
 21
867.000153
 31
0.0
  0
POLYLINE
  5
3AA
100
AcDbEntity
  8
スト－ル
  6
CONTINUOUS
 62
     3
100
AcDb2dPolyline
 66
     1
 10
0.0
 20
0.0
 30
0.0
 70
   128
  0
VERTEX
  5
3AB
100
AcDbEntity
  8
スト－ル
  6
CONTINUOUS
 62
     3
100
AcDbVertex
100
AcDb2dVertex
 10
1359.168701
 20
833.19278
 30
0.0
  0
VERTEX
  5
3AC
100
AcDbEntity
  8
スト－ル
  6
CONTINUOUS
 62
     3
100
AcDbVertex
100
AcDb2dVertex
 10
1350.110016
 20
867.000153
 30
0.0
  0
VERTEX
  5
3AD
100
AcDbEntity
  8
スト－ル
  6
CONTINUOUS
 62
     3
100
AcDbVertex
100
AcDb2dVertex
 10
1341.051331
 20
833.19278
 30
0.0
  0
SEQEND
  5
3AE
100
AcDbEntity
  8
スト－ル
  6
CONTINUOUS
 62
     3
  0
POLYLINE
  5
3AF
100
AcDbEntity
  8
スト－ル
  6
CONTINUOUS
 62
     3
100
AcDb2dPolyline
 66
     1
 10
0.0
 20
0.0
 30
0.0
 70
   128
  0
VERTEX
  5
3B0
100
AcDbEntity
  8
スト－ル
  6
CONTINUOUS
 62
     3
100
AcDbVertex
100
AcDb2dVertex
 10
1341.051331
 20
620.807526
 30
0.0
  0
VERTEX
  5
3B1
100
AcDbEntity
  8
スト－ル
  6
CONTINUOUS
 62
     3
100
AcDbVertex
100
AcDb2dVertex
 10
1350.110016
 20
587.000153
 30
0.0
  0
VERTEX
  5
3B2
100
AcDbEntity
  8
スト－ル
  6
CONTINUOUS
 62
     3
100
AcDbVertex
100
AcDb2dVertex
 10
1359.168701
 20
620.807526
 30
0.0
  0
SEQEND
  5
3B3
100
AcDbEntity
  8
スト－ル
  6
CONTINUOUS
 62
     3
  0
LINE
  5
3B4
100
AcDbEntity
  8
スト－ル
  6
CONTINUOUS
 62
     3
100
AcDbLine
 10
1350.110016
 20
867.000153
 30
0.0
 11
1350.110016
 21
587.000153
 31
0.0
  0
TEXT
  5
3B5
100
AcDbEntity
  8
スト－ル
  6
CONTINUOUS
 62
     2
100
AcDbText
 10
1346.60965
 20
666.500122
 30
0.0
 40
40.0
  1
２８０
 50
90.0
 41
0.833
  7
EXCADSTD
 72
     5
 11
1346.60965
 21
785.500122
 31
0.0
100
AcDbText
  0
ARC
  5
3B6
100
AcDbEntity
  8
スト－ル
  6
CONTINUOUS
 62
     7
100
AcDbCircle
 10
1785.246307
 20
-7033.020508
 30
0.0
 40
8500.0
100
AcDbArc
 50
89.962463
 51
91.216614
  0
LINE
  5
3B7
100
AcDbEntity
  8
スト－ル
  6
CONTINUOUS
 62
     7
100
AcDbLine
 10
1590.094451
 20
1450.772705
 30
0.0
 11
1573.531951
 21
930.452393
 31
0.0
  0
ARC
  5
3B8
100
AcDbEntity
  8
スト－ル
  6
CONTINUOUS
 62
     7
100
AcDbCircle
 10
6405.303191
 20
1091.42038
 30
0.0
 40
4989.703125
100
AcDbArc
 50
184.667603
 51
185.385986
  0
ARC
  5
3B9
100
AcDbEntity
  8
スト－ル
  6
CONTINUOUS
 62
     7
100
AcDbCircle
 10
6405.303191
 20
1091.42038
 30
0.0
 40
5000.0
100
AcDbArc
 50
182.692627
 51
185.790039
  0
ARC
  5
3BA
100
AcDbEntity
  8
スト－ル
  6
CONTINUOUS
 62
     7
100
AcDbCircle
 10
1447.586028
 20
624.0
 30
0.0
 40
10.0
100
AcDbArc
 50
185.386108
 51
270.0
  0
LINE
  5
3BB
100
AcDbEntity
  8
スト－ル
  6
CONTINUOUS
 62
     7
100
AcDbLine
 10
1447.586028
 20
614.0
 30
0.0
 11
1463.223357
 21
614.0
 31
0.0
  0
ARC
  5
3BC
100
AcDbEntity
  8
スト－ル
  6
CONTINUOUS
 62
     7
100
AcDbCircle
 10
1406.628875
 20
-803.37793
 30
0.0
 40
1500.0
100
AcDbArc
 50
87.39922
 51
88.635315
  0
ARC
  5
3BD
100
AcDbEntity
  8
スト－ル
  6
CONTINUOUS
 62
     7
100
AcDbCircle
 10
1442.114959
 20
686.199829
 30
0.0
 40
10.0
100
AcDbArc
 50
88.636017
 51
184.667786
  0
ARC
  5
3BE
100
AcDbEntity
  8
スト－ル
  6
CONTINUOUS
 62
     7
100
AcDbCircle
 10
1513.562225
 20
932.361328
 30
0.0
 40
60.0
100
AcDbArc
 50
273.239319
 51
358.176758
  0
LINE
  5
3BF
100
AcDbEntity
  8
スト－ル
  6
CONTINUOUS
 62
     7
100
AcDbLine
 10
1516.952605
 20
872.457214
 30
0.0
 11
1420.248016
 21
866.984009
 31
0.0
  0
ARC
  5
3C0
100
AcDbEntity
  8
スト－ル
  6
CONTINUOUS
 62
     7
100
AcDbCircle
 10
1420.813079
 20
857.0
 30
0.0
 40
10.0
100
AcDbArc
 50
93.239319
 51
182.692627
  0
ARC
  5
3C1
100
AcDbEntity
  8
スト－ル
  6
CONTINUOUS
 62
     7
100
AcDbCircle
 10
1605.083465
 20
1450.273682
 30
0.0
 40
15.0
100
AcDbArc
 50
91.148987
 51
177.079102
  0
ARC
  5
3C2
100
AcDbEntity
  8
スト－ル
  6
CONTINUOUS
 62
     6
100
AcDbCircle
 10
1666.40219
 20
617.000122
 30
0.0
 40
5.0
100
AcDbArc
 50
269.998596
 51
357.000244
  0
LINE
  5
3C3
100
AcDbEntity
  8
スト－ル
  6
CONTINUOUS
 62
     6
100
AcDbLine
 10
1607.812957
 20
602.000122
 30
0.0
 11
1733.813201
 21
602.000122
 31
0.0
  0
LINE
  5
3C4
100
AcDbEntity
  8
スト－ル
  6
CONTINUOUS
 62
     6
100
AcDbLine
 10
1603.335784
 20
616.719727
 30
0.0
 11
1598.825652
 21
697.000122
 31
0.0
  0
LINE
  5
3C5
100
AcDbEntity
  8
スト－ル
  6
CONTINUOUS
 62
     6
100
AcDbLine
 10
1552.812957
 20
697.000122
 30
0.0
 11
1545.812957
 21
594.0
 31
0.0
  0
LINE
  5
3C6
100
AcDbEntity
  8
スト－ル
  6
CONTINUOUS
 62
     6
100
AcDbLine
 10
1588.812957
 20
697.000122
 30
0.0
 11
1595.812957
 21
594.0
 31
0.0
  0
LINE
  5
3C7
100
AcDbEntity
  8
スト－ル
  6
CONTINUOUS
 62
     6
100
AcDbLine
 10
1533.812957
 20
602.000122
 30
0.0
 11
1464.417449
 21
602.000122
 31
0.0
  0
LINE
  5
3C8
100
AcDbEntity
  8
スト－ル
  6
CONTINUOUS
 62
     6
100
AcDbLine
 10
1533.812957
 20
611.000122
 30
0.0
 11
1464.417449
 21
611.000122
 31
0.0
  0
LINE
  5
3C9
100
AcDbEntity
  8
スト－ル
  6
CONTINUOUS
 62
     7
100
AcDbLine
 10
1538.812957
 20
594.0
 30
0.0
 11
1602.812957
 21
594.0
 31
0.0
  0
LINE
  5
3CA
100
AcDbEntity
  8
スト－ル
  6
CONTINUOUS
 62
     6
100
AcDbLine
 10
1538.698211
 20
626.616333
 30
0.0
 11
1537.752654
 21
610.388672
 31
0.0
  0
ARC
  5
3CB
100
AcDbEntity
  8
スト－ル
  6
CONTINUOUS
 62
     6
100
AcDbCircle
 10
1533.812957
 20
598.000122
 30
0.0
 40
13.0
100
AcDbArc
 50
72.358917
 51
90.0
  0
LINE
  5
3CC
100
AcDbEntity
  8
スト－ル
  6
CONTINUOUS
 62
     6
100
AcDbLine
 10
1537.812957
 20
594.0
 30
0.0
 11
1537.812957
 21
598.000122
 31
0.0
  0
ARC
  5
3CD
100
AcDbEntity
  8
スト－ル
  6
CONTINUOUS
 62
     6
100
AcDbCircle
 10
1533.812957
 20
598.000122
 30
0.0
 40
4.0
100
AcDbArc
 50
0.0
 51
90.0
  0
ARC
  5
3CE
100
AcDbEntity
  8
スト－ル
  6
CONTINUOUS
 62
     6
100
AcDbCircle
 10
1608.32785
 20
617.000122
 30
0.0
 40
5.0
100
AcDbArc
 50
183.215454
 51
270.0
  0
LINE
  5
3CF
100
AcDbEntity
  8
スト－ル
  6
CONTINUOUS
 62
     6
100
AcDbLine
 10
1608.32785
 20
612.000427
 30
0.0
 11
1666.40219
 21
612.0
 31
0.0
  0
LINE
  5
3D0
100
AcDbEntity
  8
スト－ル
  6
CONTINUOUS
 62
     6
100
AcDbLine
 10
1603.812957
 20
594.0
 30
0.0
 11
1603.812957
 21
598.000122
 31
0.0
  0
ARC
  5
3D1
100
AcDbEntity
  8
スト－ル
  6
CONTINUOUS
 62
     6
100
AcDbCircle
 10
1607.812957
 20
598.000122
 30
0.0
 40
4.0
100
AcDbArc
 50
90.0
 51
180.0
  0
LINE
  5
3D2
100
AcDbEntity
  8
スト－ル
  6
CONTINUOUS
 62
     6
100
AcDbLine
 10
1686.539031
 20
714.623169
 30
0.0
 11
1681.552825
 21
619.480835
 31
0.0
  0
LINE
  5
3D3
100
AcDbEntity
  8
スト－ル
  6
CONTINUOUS
 62
     6
100
AcDbLine
 10
1677.575408
 20
734.659668
 30
0.0
 11
1671.395354
 21
616.738403
 31
0.0
  0
ARC
  5
3D4
100
AcDbEntity
  8
スト－ル
  6
CONTINUOUS
 62
     6
100
AcDbCircle
 10
1735.813323
 20
597.508484
 30
0.0
 40
15.0
100
AcDbArc
 50
359.999512
 51
88.025391
  0
ARC
  5
3D5
100
AcDbEntity
  8
スト－ル
  6
CONTINUOUS
 62
     6
100
AcDbCircle
 10
1686.545989
 20
619.219116
 30
0.0
 40
5.0
100
AcDbArc
 50
176.999573
 51
268.025879
  0
LINE
  5
3D6
100
AcDbEntity
  8
スト－ル
  6
CONTINUOUS
 62
     6
100
AcDbLine
 10
1736.330291
 20
612.499573
 30
0.0
 11
1686.373748
 21
614.222168
 31
0.0
  0
LINE
  5
3D7
100
AcDbEntity
  8
スト－ル
  6
CONTINUOUS
 62
     6
100
AcDbLine
 10
1738.813201
 20
586.999939
 30
0.0
 11
1738.813201
 21
597.000183
 31
0.0
  0
ARC
  5
3D8
100
AcDbEntity
  8
スト－ル
  6
CONTINUOUS
 62
     6
100
AcDbCircle
 10
1733.813201
 20
597.000183
 30
0.0
 40
5.0
100
AcDbArc
 50
0.0
 51
90.0
  0
LINE
  5
3D9
100
AcDbEntity
  8
スト－ル
  6
CONTINUOUS
 62
     6
100
AcDbLine
 10
1750.813201
 20
587.000061
 30
0.0
 11
1750.813323
 21
597.256531
 31
0.0
  0
POLYLINE
  5
3DA
100
AcDbEntity
  8
スト－ル
  6
CONTINUOUS
 62
     2
100
AcDb2dPolyline
 66
     1
 10
0.0
 20
0.0
 30
0.0
 70
   128
  0
VERTEX
  5
3DB
100
AcDbEntity
  8
スト－ル
  6
CONTINUOUS
 62
     2
100
AcDbVertex
100
AcDb2dVertex
 10
1774.0
 20
587.0
 30
0.0
  0
VERTEX
  5
3DC
100
AcDbEntity
  8
スト－ル
  6
CONTINUOUS
 62
     2
100
AcDbVertex
100
AcDb2dVertex
 10
1773.826998
 20
587.515511
 30
0.0
  0
VERTEX
  5
3DD
100
AcDbEntity
  8
スト－ル
  6
CONTINUOUS
 62
     2
100
AcDbVertex
100
AcDb2dVertex
 10
1773.340828
 20
588.984765
 30
0.0
  0
VERTEX
  5
3DE
100
AcDbEntity
  8
スト－ル
  6
CONTINUOUS
 62
     2
100
AcDbVertex
100
AcDb2dVertex
 10
1772.590748
 20
591.291846
 30
0.0
  0
VERTEX
  5
3DF
100
AcDbEntity
  8
スト－ル
  6
CONTINUOUS
 62
     2
100
AcDbVertex
100
AcDb2dVertex
 10
1771.626012
 20
594.320836
 30
0.0
  0
VERTEX
  5
3E0
100
AcDbEntity
  8
スト－ル
  6
CONTINUOUS
 62
     2
100
AcDbVertex
100
AcDb2dVertex
 10
1770.495876
 20
597.955817
 30
0.0
  0
VERTEX
  5
3E1
100
AcDbEntity
  8
スト－ル
  6
CONTINUOUS
 62
     2
100
AcDbVertex
100
AcDb2dVertex
 10
1769.249597
 20
602.080872
 30
0.0
  0
VERTEX
  5
3E2
100
AcDbEntity
  8
スト－ル
  6
CONTINUOUS
 62
     2
100
AcDbVertex
100
AcDb2dVertex
 10
1767.93643
 20
606.580084
 30
0.0
  0
VERTEX
  5
3E3
100
AcDbEntity
  8
スト－ル
  6
CONTINUOUS
 62
     2
100
AcDbVertex
100
AcDb2dVertex
 10
1766.60563
 20
611.337535
 30
0.0
  0
VERTEX
  5
3E4
100
AcDbEntity
  8
スト－ル
  6
CONTINUOUS
 62
     2
100
AcDbVertex
100
AcDb2dVertex
 10
1765.306455
 20
616.237309
 30
0.0
  0
VERTEX
  5
3E5
100
AcDbEntity
  8
スト－ル
  6
CONTINUOUS
 62
     2
100
AcDbVertex
100
AcDb2dVertex
 10
1764.08816
 20
621.163487
 30
0.0
  0
VERTEX
  5
3E6
100
AcDbEntity
  8
スト－ル
  6
CONTINUOUS
 62
     2
100
AcDbVertex
100
AcDb2dVertex
 10
1763.0
 20
626.000153
 30
0.0
  0
VERTEX
  5
3E7
100
AcDbEntity
  8
スト－ル
  6
CONTINUOUS
 62
     2
100
AcDbVertex
100
AcDb2dVertex
 10
1761.71824
 20
632.675841
 30
0.0
  0
VERTEX
  5
3E8
100
AcDbEntity
  8
スト－ル
  6
CONTINUOUS
 62
     2
100
AcDbVertex
100
AcDb2dVertex
 10
1760.741936
 20
638.958131
 30
0.0
  0
VERTEX
  5
3E9
100
AcDbEntity
  8
スト－ル
  6
CONTINUOUS
 62
     2
100
AcDbVertex
100
AcDb2dVertex
 10
1760.000176
 20
644.884626
 30
0.0
  0
VERTEX
  5
3EA
100
AcDbEntity
  8
スト－ル
  6
CONTINUOUS
 62
     2
100
AcDbVertex
100
AcDb2dVertex
 10
1759.422044
 20
650.492927
 30
0.0
  0
VERTEX
  5
3EB
100
AcDbEntity
  8
スト－ル
  6
CONTINUOUS
 62
     2
100
AcDbVertex
100
AcDb2dVertex
 10
1758.936628
 20
655.820635
 30
0.0
  0
VERTEX
  5
3EC
100
AcDbEntity
  8
スト－ル
  6
CONTINUOUS
 62
     2
100
AcDbVertex
100
AcDb2dVertex
 10
1758.473014
 20
660.905353
 30
0.0
  0
VERTEX
  5
3ED
100
AcDbEntity
  8
スト－ル
  6
CONTINUOUS
 62
     2
100
AcDbVertex
100
AcDb2dVertex
 10
1757.960288
 20
665.784683
 30
0.0
  0
VERTEX
  5
3EE
100
AcDbEntity
  8
スト－ル
  6
CONTINUOUS
 62
     2
100
AcDbVertex
100
AcDb2dVertex
 10
1757.327538
 20
670.496226
 30
0.0
  0
VERTEX
  5
3EF
100
AcDbEntity
  8
スト－ル
  6
CONTINUOUS
 62
     2
100
AcDbVertex
100
AcDb2dVertex
 10
1756.503848
 20
675.077584
 30
0.0
  0
VERTEX
  5
3F0
100
AcDbEntity
  8
スト－ル
  6
CONTINUOUS
 62
     2
100
AcDbVertex
100
AcDb2dVertex
 10
1755.418307
 20
679.566359
 30
0.0
  0
VERTEX
  5
3F1
100
AcDbEntity
  8
スト－ル
  6
CONTINUOUS
 62
     2
100
AcDbVertex
100
AcDb2dVertex
 10
1754.0
 20
684.000153
 30
0.0
  0
VERTEX
  5
3F2
100
AcDbEntity
  8
スト－ル
  6
CONTINUOUS
 62
     2
100
AcDbVertex
100
AcDb2dVertex
 10
1751.691769
 20
689.498428
 30
0.0
  0
VERTEX
  5
3F3
100
AcDbEntity
  8
スト－ル
  6
CONTINUOUS
 62
     2
100
AcDbVertex
100
AcDb2dVertex
 10
1748.827985
 20
694.967616
 30
0.0
  0
VERTEX
  5
3F4
100
AcDbEntity
  8
スト－ル
  6
CONTINUOUS
 62
     2
100
AcDbVertex
100
AcDb2dVertex
 10
1745.481242
 20
700.405675
 30
0.0
  0
VERTEX
  5
3F5
100
AcDbEntity
  8
スト－ル
  6
CONTINUOUS
 62
     2
100
AcDbVertex
100
AcDb2dVertex
 10
1741.724132
 20
705.810559
 30
0.0
  0
VERTEX
  5
3F6
100
AcDbEntity
  8
スト－ル
  6
CONTINUOUS
 62
     2
100
AcDbVertex
100
AcDb2dVertex
 10
1737.62925
 20
711.180226
 30
0.0
  0
VERTEX
  5
3F7
100
AcDbEntity
  8
スト－ル
  6
CONTINUOUS
 62
     2
100
AcDbVertex
100
AcDb2dVertex
 10
1733.269188
 20
716.512633
 30
0.0
  0
VERTEX
  5
3F8
100
AcDbEntity
  8
スト－ル
  6
CONTINUOUS
 62
     2
100
AcDbVertex
100
AcDb2dVertex
 10
1728.71654
 20
721.805735
 30
0.0
  0
VERTEX
  5
3F9
100
AcDbEntity
  8
スト－ル
  6
CONTINUOUS
 62
     2
100
AcDbVertex
100
AcDb2dVertex
 10
1724.043899
 20
727.057489
 30
0.0
  0
VERTEX
  5
3FA
100
AcDbEntity
  8
スト－ル
  6
CONTINUOUS
 62
     2
100
AcDbVertex
100
AcDb2dVertex
 10
1719.323858
 20
732.265852
 30
0.0
  0
VERTEX
  5
3FB
100
AcDbEntity
  8
スト－ル
  6
CONTINUOUS
 62
     2
100
AcDbVertex
100
AcDb2dVertex
 10
1714.629011
 20
737.42878
 30
0.0
  0
VERTEX
  5
3FC
100
AcDbEntity
  8
スト－ル
  6
CONTINUOUS
 62
     2
100
AcDbVertex
100
AcDb2dVertex
 10
1710.03195
 20
742.54423
 30
0.0
  0
VERTEX
  5
3FD
100
AcDbEntity
  8
スト－ル
  6
CONTINUOUS
 62
     2
100
AcDbVertex
100
AcDb2dVertex
 10
1709.209268
 20
743.471708
 30
0.0
  0
VERTEX
  5
3FE
100
AcDbEntity
  8
スト－ル
  6
CONTINUOUS
 62
     2
100
AcDbVertex
100
AcDb2dVertex
 10
1708.390248
 20
744.395668
 30
0.0
  0
VERTEX
  5
3FF
100
AcDbEntity
  8
スト－ル
  6
CONTINUOUS
 62
     2
100
AcDbVertex
100
AcDb2dVertex
 10
1707.572881
 20
745.314238
 30
0.0
  0
VERTEX
  5
400
100
AcDbEntity
  8
スト－ル
  6
CONTINUOUS
 62
     2
100
AcDbVertex
100
AcDb2dVertex
 10
1706.755162
 20
746.225547
 30
0.0
  0
VERTEX
  5
401
100
AcDbEntity
  8
スト－ル
  6
CONTINUOUS
 62
     2
100
AcDbVertex
100
AcDb2dVertex
 10
1705.935082
 20
747.127723
 30
0.0
  0
VERTEX
  5
402
100
AcDbEntity
  8
スト－ル
  6
CONTINUOUS
 62
     2
100
AcDbVertex
100
AcDb2dVertex
 10
1705.110634
 20
748.018896
 30
0.0
  0
VERTEX
  5
403
100
AcDbEntity
  8
スト－ル
  6
CONTINUOUS
 62
     2
100
AcDbVertex
100
AcDb2dVertex
 10
1704.279811
 20
748.897195
 30
0.0
  0
VERTEX
  5
404
100
AcDbEntity
  8
スト－ル
  6
CONTINUOUS
 62
     2
100
AcDbVertex
100
AcDb2dVertex
 10
1703.440606
 20
749.760748
 30
0.0
  0
VERTEX
  5
405
100
AcDbEntity
  8
スト－ル
  6
CONTINUOUS
 62
     2
100
AcDbVertex
100
AcDb2dVertex
 10
1702.591011
 20
750.607684
 30
0.0
  0
VERTEX
  5
406
100
AcDbEntity
  8
スト－ル
  6
CONTINUOUS
 62
     2
100
AcDbVertex
100
AcDb2dVertex
 10
1701.729019
 20
751.436132
 30
0.0
  0
VERTEX
  5
407
100
AcDbEntity
  8
スト－ル
  6
CONTINUOUS
 62
     2
100
AcDbVertex
100
AcDb2dVertex
 10
1700.852622
 20
752.244221
 30
0.0
  0
VERTEX
  5
408
100
AcDbEntity
  8
スト－ル
  6
CONTINUOUS
 62
     2
100
AcDbVertex
100
AcDb2dVertex
 10
1696.9231
 20
755.459477
 30
0.0
  0
VERTEX
  5
409
100
AcDbEntity
  8
スト－ル
  6
CONTINUOUS
 62
     2
100
AcDbVertex
100
AcDb2dVertex
 10
1692.724365
 20
758.307476
 30
0.0
  0
VERTEX
  5
40A
100
AcDbEntity
  8
スト－ル
  6
CONTINUOUS
 62
     2
100
AcDbVertex
100
AcDb2dVertex
 10
1688.287804
 20
760.828142
 30
0.0
  0
VERTEX
  5
40B
100
AcDbEntity
  8
スト－ル
  6
CONTINUOUS
 62
     2
100
AcDbVertex
100
AcDb2dVertex
 10
1683.644804
 20
763.061397
 30
0.0
  0
VERTEX
  5
40C
100
AcDbEntity
  8
スト－ル
  6
CONTINUOUS
 62
     2
100
AcDbVertex
100
AcDb2dVertex
 10
1678.826752
 20
765.047163
 30
0.0
  0
VERTEX
  5
40D
100
AcDbEntity
  8
スト－ル
  6
CONTINUOUS
 62
     2
100
AcDbVertex
100
AcDb2dVertex
 10
1673.865034
 20
766.825362
 30
0.0
  0
VERTEX
  5
40E
100
AcDbEntity
  8
スト－ル
  6
CONTINUOUS
 62
     2
100
AcDbVertex
100
AcDb2dVertex
 10
1668.791037
 20
768.435918
 30
0.0
  0
VERTEX
  5
40F
100
AcDbEntity
  8
スト－ル
  6
CONTINUOUS
 62
     2
100
AcDbVertex
100
AcDb2dVertex
 10
1663.636149
 20
769.918752
 30
0.0
  0
VERTEX
  5
410
100
AcDbEntity
  8
スト－ル
  6
CONTINUOUS
 62
     2
100
AcDbVertex
100
AcDb2dVertex
 10
1658.431755
 20
771.313788
 30
0.0
  0
VERTEX
  5
411
100
AcDbEntity
  8
スト－ル
  6
CONTINUOUS
 62
     2
100
AcDbVertex
100
AcDb2dVertex
 10
1653.209243
 20
772.660947
 30
0.0
  0
VERTEX
  5
412
100
AcDbEntity
  8
スト－ル
  6
CONTINUOUS
 62
     2
100
AcDbVertex
100
AcDb2dVertex
 10
1648.0
 20
774.000153
 30
0.0
  0
VERTEX
  5
413
100
AcDbEntity
  8
スト－ル
  6
CONTINUOUS
 62
     2
100
AcDbVertex
100
AcDb2dVertex
 10
1642.252176
 20
775.515923
 30
0.0
  0
VERTEX
  5
414
100
AcDbEntity
  8
スト－ル
  6
CONTINUOUS
 62
     2
100
AcDbVertex
100
AcDb2dVertex
 10
1636.551344
 20
777.049194
 30
0.0
  0
VERTEX
  5
415
100
AcDbEntity
  8
スト－ル
  6
CONTINUOUS
 62
     2
100
AcDbVertex
100
AcDb2dVertex
 10
1630.889271
 20
778.577928
 30
0.0
  0
VERTEX
  5
416
100
AcDbEntity
  8
スト－ル
  6
CONTINUOUS
 62
     2
100
AcDbVertex
100
AcDb2dVertex
 10
1625.257723
 20
780.08009
 30
0.0
  0
VERTEX
  5
417
100
AcDbEntity
  8
スト－ル
  6
CONTINUOUS
 62
     2
100
AcDbVertex
100
AcDb2dVertex
 10
1619.648468
 20
781.533643
 30
0.0
  0
VERTEX
  5
418
100
AcDbEntity
  8
スト－ル
  6
CONTINUOUS
 62
     2
100
AcDbVertex
100
AcDb2dVertex
 10
1614.053272
 20
782.916552
 30
0.0
  0
VERTEX
  5
419
100
AcDbEntity
  8
スト－ル
  6
CONTINUOUS
 62
     2
100
AcDbVertex
100
AcDb2dVertex
 10
1608.4639
 20
784.206779
 30
0.0
  0
VERTEX
  5
41A
100
AcDbEntity
  8
スト－ル
  6
CONTINUOUS
 62
     2
100
AcDbVertex
100
AcDb2dVertex
 10
1602.872121
 20
785.382289
 30
0.0
  0
VERTEX
  5
41B
100
AcDbEntity
  8
スト－ル
  6
CONTINUOUS
 62
     2
100
AcDbVertex
100
AcDb2dVertex
 10
1597.2697
 20
786.421045
 30
0.0
  0
VERTEX
  5
41C
100
AcDbEntity
  8
スト－ル
  6
CONTINUOUS
 62
     2
100
AcDbVertex
100
AcDb2dVertex
 10
1591.648404
 20
787.301012
 30
0.0
  0
VERTEX
  5
41D
100
AcDbEntity
  8
スト－ル
  6
CONTINUOUS
 62
     2
100
AcDbVertex
100
AcDb2dVertex
 10
1586.0
 20
788.000153
 30
0.0
  0
VERTEX
  5
41E
100
AcDbEntity
  8
スト－ル
  6
CONTINUOUS
 62
     2
100
AcDbVertex
100
AcDb2dVertex
 10
1579.855252
 20
788.529745
 30
0.0
  0
VERTEX
  5
41F
100
AcDbEntity
  8
スト－ル
  6
CONTINUOUS
 62
     2
100
AcDbVertex
100
AcDb2dVertex
 10
1573.677657
 20
788.809497
 30
0.0
  0
VERTEX
  5
420
100
AcDbEntity
  8
スト－ル
  6
CONTINUOUS
 62
     2
100
AcDbVertex
100
AcDb2dVertex
 10
1567.475692
 20
788.826777
 30
0.0
  0
VERTEX
  5
421
100
AcDbEntity
  8
スト－ル
  6
CONTINUOUS
 62
     2
100
AcDbVertex
100
AcDb2dVertex
 10
1561.257834
 20
788.568952
 30
0.0
  0
VERTEX
  5
422
100
AcDbEntity
  8
スト－ル
  6
CONTINUOUS
 62
     2
100
AcDbVertex
100
AcDb2dVertex
 10
1555.032563
 20
788.023391
 30
0.0
  0
VERTEX
  5
423
100
AcDbEntity
  8
スト－ル
  6
CONTINUOUS
 62
     2
100
AcDbVertex
100
AcDb2dVertex
 10
1548.808356
 20
787.17746
 30
0.0
  0
VERTEX
  5
424
100
AcDbEntity
  8
スト－ル
  6
CONTINUOUS
 62
     2
100
AcDbVertex
100
AcDb2dVertex
 10
1542.59369
 20
786.018529
 30
0.0
  0
VERTEX
  5
425
100
AcDbEntity
  8
スト－ル
  6
CONTINUOUS
 62
     2
100
AcDbVertex
100
AcDb2dVertex
 10
1536.397044
 20
784.533965
 30
0.0
  0
VERTEX
  5
426
100
AcDbEntity
  8
スト－ル
  6
CONTINUOUS
 62
     2
100
AcDbVertex
100
AcDb2dVertex
 10
1530.226895
 20
782.711136
 30
0.0
  0
VERTEX
  5
427
100
AcDbEntity
  8
スト－ル
  6
CONTINUOUS
 62
     2
100
AcDbVertex
100
AcDb2dVertex
 10
1524.091721
 20
780.537409
 30
0.0
  0
VERTEX
  5
428
100
AcDbEntity
  8
スト－ル
  6
CONTINUOUS
 62
     2
100
AcDbVertex
100
AcDb2dVertex
 10
1518.0
 20
778.000153
 30
0.0
  0
VERTEX
  5
429
100
AcDbEntity
  8
スト－ル
  6
CONTINUOUS
 62
     2
100
AcDbVertex
100
AcDb2dVertex
 10
1515.127338
 20
776.662319
 30
0.0
  0
VERTEX
  5
42A
100
AcDbEntity
  8
スト－ル
  6
CONTINUOUS
 62
     2
100
AcDbVertex
100
AcDb2dVertex
 10
1512.29378
 20
775.231767
 30
0.0
  0
VERTEX
  5
42B
100
AcDbEntity
  8
スト－ル
  6
CONTINUOUS
 62
     2
100
AcDbVertex
100
AcDb2dVertex
 10
1509.526706
 20
773.700719
 30
0.0
  0
VERTEX
  5
42C
100
AcDbEntity
  8
スト－ル
  6
CONTINUOUS
 62
     2
100
AcDbVertex
100
AcDb2dVertex
 10
1506.853493
 20
772.061396
 30
0.0
  0
VERTEX
  5
42D
100
AcDbEntity
  8
スト－ル
  6
CONTINUOUS
 62
     2
100
AcDbVertex
100
AcDb2dVertex
 10
1504.30152
 20
770.306021
 30
0.0
  0
VERTEX
  5
42E
100
AcDbEntity
  8
スト－ル
  6
CONTINUOUS
 62
     2
100
AcDbVertex
100
AcDb2dVertex
 10
1501.898165
 20
768.426816
 30
0.0
  0
VERTEX
  5
42F
100
AcDbEntity
  8
スト－ル
  6
CONTINUOUS
 62
     2
100
AcDbVertex
100
AcDb2dVertex
 10
1499.670807
 20
766.416004
 30
0.0
  0
VERTEX
  5
430
100
AcDbEntity
  8
スト－ル
  6
CONTINUOUS
 62
     2
100
AcDbVertex
100
AcDb2dVertex
 10
1497.646824
 20
764.265807
 30
0.0
  0
VERTEX
  5
431
100
AcDbEntity
  8
スト－ル
  6
CONTINUOUS
 62
     2
100
AcDbVertex
100
AcDb2dVertex
 10
1495.853594
 20
761.968447
 30
0.0
  0
VERTEX
  5
432
100
AcDbEntity
  8
スト－ル
  6
CONTINUOUS
 62
     2
100
AcDbVertex
100
AcDb2dVertex
 10
1494.318495
 20
759.516147
 30
0.0
  0
VERTEX
  5
433
100
AcDbEntity
  8
スト－ル
  6
CONTINUOUS
 62
     2
100
AcDbVertex
100
AcDb2dVertex
 10
1493.068906
 20
756.901128
 30
0.0
  0
VERTEX
  5
434
100
AcDbEntity
  8
スト－ル
  6
CONTINUOUS
 62
     2
100
AcDbVertex
100
AcDb2dVertex
 10
1492.777609
 20
756.150387
 30
0.0
  0
VERTEX
  5
435
100
AcDbEntity
  8
スト－ル
  6
CONTINUOUS
 62
     2
100
AcDbVertex
100
AcDb2dVertex
 10
1492.507657
 20
755.388028
 30
0.0
  0
VERTEX
  5
436
100
AcDbEntity
  8
スト－ル
  6
CONTINUOUS
 62
     2
100
AcDbVertex
100
AcDb2dVertex
 10
1492.256592
 20
754.615407
 30
0.0
  0
VERTEX
  5
437
100
AcDbEntity
  8
スト－ル
  6
CONTINUOUS
 62
     2
100
AcDbVertex
100
AcDb2dVertex
 10
1492.021952
 20
753.833879
 30
0.0
  0
VERTEX
  5
438
100
AcDbEntity
  8
スト－ル
  6
CONTINUOUS
 62
     2
100
AcDbVertex
100
AcDb2dVertex
 10
1491.801276
 20
753.044801
 30
0.0
  0
VERTEX
  5
439
100
AcDbEntity
  8
スト－ル
  6
CONTINUOUS
 62
     2
100
AcDbVertex
100
AcDb2dVertex
 10
1491.592104
 20
752.249526
 30
0.0
  0
VERTEX
  5
43A
100
AcDbEntity
  8
スト－ル
  6
CONTINUOUS
 62
     2
100
AcDbVertex
100
AcDb2dVertex
 10
1491.391976
 20
751.449411
 30
0.0
  0
VERTEX
  5
43B
100
AcDbEntity
  8
スト－ル
  6
CONTINUOUS
 62
     2
100
AcDbVertex
100
AcDb2dVertex
 10
1491.19843
 20
750.645811
 30
0.0
  0
VERTEX
  5
43C
100
AcDbEntity
  8
スト－ル
  6
CONTINUOUS
 62
     2
100
AcDbVertex
100
AcDb2dVertex
 10
1491.009007
 20
749.840081
 30
0.0
  0
VERTEX
  5
43D
100
AcDbEntity
  8
スト－ル
  6
CONTINUOUS
 62
     2
100
AcDbVertex
100
AcDb2dVertex
 10
1490.821246
 20
749.033576
 30
0.0
  0
VERTEX
  5
43E
100
AcDbEntity
  8
スト－ル
  6
CONTINUOUS
 62
     2
100
AcDbVertex
100
AcDb2dVertex
 10
1490.632685
 20
748.227652
 30
0.0
  0
VERTEX
  5
43F
100
AcDbEntity
  8
スト－ル
  6
CONTINUOUS
 62
     2
100
AcDbVertex
100
AcDb2dVertex
 10
1490.042677
 20
745.794912
 30
0.0
  0
VERTEX
  5
440
100
AcDbEntity
  8
スト－ル
  6
CONTINUOUS
 62
     2
100
AcDbVertex
100
AcDb2dVertex
 10
1489.425003
 20
743.377943
 30
0.0
  0
VERTEX
  5
441
100
AcDbEntity
  8
スト－ル
  6
CONTINUOUS
 62
     2
100
AcDbVertex
100
AcDb2dVertex
 10
1488.781961
 20
740.974715
 30
0.0
  0
VERTEX
  5
442
100
AcDbEntity
  8
スト－ル
  6
CONTINUOUS
 62
     2
100
AcDbVertex
100
AcDb2dVertex
 10
1488.115847
 20
738.5832
 30
0.0
  0
VERTEX
  5
443
100
AcDbEntity
  8
スト－ル
  6
CONTINUOUS
 62
     2
100
AcDbVertex
100
AcDb2dVertex
 10
1487.428958
 20
736.201369
 30
0.0
  0
VERTEX
  5
444
100
AcDbEntity
  8
スト－ル
  6
CONTINUOUS
 62
     2
100
AcDbVertex
100
AcDb2dVertex
 10
1486.723593
 20
733.827194
 30
0.0
  0
VERTEX
  5
445
100
AcDbEntity
  8
スト－ル
  6
CONTINUOUS
 62
     2
100
AcDbVertex
100
AcDb2dVertex
 10
1486.002046
 20
731.458646
 30
0.0
  0
VERTEX
  5
446
100
AcDbEntity
  8
スト－ル
  6
CONTINUOUS
 62
     2
100
AcDbVertex
100
AcDb2dVertex
 10
1485.266617
 20
729.093696
 30
0.0
  0
VERTEX
  5
447
100
AcDbEntity
  8
スト－ル
  6
CONTINUOUS
 62
     2
100
AcDbVertex
100
AcDb2dVertex
 10
1484.519601
 20
726.730317
 30
0.0
  0
VERTEX
  5
448
100
AcDbEntity
  8
スト－ル
  6
CONTINUOUS
 62
     2
100
AcDbVertex
100
AcDb2dVertex
 10
1483.763297
 20
724.366478
 30
0.0
  0
VERTEX
  5
449
100
AcDbEntity
  8
スト－ル
  6
CONTINUOUS
 62
     2
100
AcDbVertex
100
AcDb2dVertex
 10
1483.0
 20
722.000153
 30
0.0
  0
VERTEX
  5
44A
100
AcDbEntity
  8
スト－ル
  6
CONTINUOUS
 62
     2
100
AcDbVertex
100
AcDb2dVertex
 10
1482.215178
 20
719.575266
 30
0.0
  0
VERTEX
  5
44B
100
AcDbEntity
  8
スト－ル
  6
CONTINUOUS
 62
     2
100
AcDbVertex
100
AcDb2dVertex
 10
1481.432697
 20
717.145495
 30
0.0
  0
VERTEX
  5
44C
100
AcDbEntity
  8
スト－ル
  6
CONTINUOUS
 62
     2
100
AcDbVertex
100
AcDb2dVertex
 10
1480.659813
 20
714.710677
 30
0.0
  0
VERTEX
  5
44D
100
AcDbEntity
  8
スト－ル
  6
CONTINUOUS
 62
     2
100
AcDbVertex
100
AcDb2dVertex
 10
1479.903779
 20
712.270655
 30
0.0
  0
VERTEX
  5
44E
100
AcDbEntity
  8
スト－ル
  6
CONTINUOUS
 62
     2
100
AcDbVertex
100
AcDb2dVertex
 10
1479.17185
 20
709.825266
 30
0.0
  0
VERTEX
  5
44F
100
AcDbEntity
  8
スト－ル
  6
CONTINUOUS
 62
     2
100
AcDbVertex
100
AcDb2dVertex
 10
1478.471279
 20
707.374352
 30
0.0
  0
VERTEX
  5
450
100
AcDbEntity
  8
スト－ル
  6
CONTINUOUS
 62
     2
100
AcDbVertex
100
AcDb2dVertex
 10
1477.809321
 20
704.917752
 30
0.0
  0
VERTEX
  5
451
100
AcDbEntity
  8
スト－ル
  6
CONTINUOUS
 62
     2
100
AcDbVertex
100
AcDb2dVertex
 10
1477.193231
 20
702.455306
 30
0.0
  0
VERTEX
  5
452
100
AcDbEntity
  8
スト－ル
  6
CONTINUOUS
 62
     2
100
AcDbVertex
100
AcDb2dVertex
 10
1476.630262
 20
699.986853
 30
0.0
  0
VERTEX
  5
453
100
AcDbEntity
  8
スト－ル
  6
CONTINUOUS
 62
     2
100
AcDbVertex
100
AcDb2dVertex
 10
1476.127669
 20
697.512234
 30
0.0
  0
VERTEX
  5
454
100
AcDbEntity
  8
スト－ル
  6
CONTINUOUS
 62
     2
100
AcDbVertex
100
AcDb2dVertex
 10
1475.692707
 20
695.031289
 30
0.0
  0
VERTEX
  5
455
100
AcDbEntity
  8
スト－ル
  6
CONTINUOUS
 62
     2
100
AcDbVertex
100
AcDb2dVertex
 10
1475.149723
 20
691.094905
 30
0.0
  0
VERTEX
  5
456
100
AcDbEntity
  8
スト－ル
  6
CONTINUOUS
 62
     2
100
AcDbVertex
100
AcDb2dVertex
 10
1474.757554
 20
687.143033
 30
0.0
  0
VERTEX
  5
457
100
AcDbEntity
  8
スト－ル
  6
CONTINUOUS
 62
     2
100
AcDbVertex
100
AcDb2dVertex
 10
1474.479747
 20
683.176405
 30
0.0
  0
VERTEX
  5
458
100
AcDbEntity
  8
スト－ル
  6
CONTINUOUS
 62
     2
100
AcDbVertex
100
AcDb2dVertex
 10
1474.279849
 20
679.195755
 30
0.0
  0
VERTEX
  5
459
100
AcDbEntity
  8
スト－ル
  6
CONTINUOUS
 62
     2
100
AcDbVertex
100
AcDb2dVertex
 10
1474.121408
 20
675.201816
 30
0.0
  0
VERTEX
  5
45A
100
AcDbEntity
  8
スト－ル
  6
CONTINUOUS
 62
     2
100
AcDbVertex
100
AcDb2dVertex
 10
1473.96797
 20
671.19532
 30
0.0
  0
VERTEX
  5
45B
100
AcDbEntity
  8
スト－ル
  6
CONTINUOUS
 62
     2
100
AcDbVertex
100
AcDb2dVertex
 10
1473.783084
 20
667.177001
 30
0.0
  0
VERTEX
  5
45C
100
AcDbEntity
  8
スト－ル
  6
CONTINUOUS
 62
     2
100
AcDbVertex
100
AcDb2dVertex
 10
1473.530297
 20
663.147592
 30
0.0
  0
VERTEX
  5
45D
100
AcDbEntity
  8
スト－ル
  6
CONTINUOUS
 62
     2
100
AcDbVertex
100
AcDb2dVertex
 10
1473.173155
 20
659.107825
 30
0.0
  0
VERTEX
  5
45E
100
AcDbEntity
  8
スト－ル
  6
CONTINUOUS
 62
     2
100
AcDbVertex
100
AcDb2dVertex
 10
1472.675207
 20
655.058434
 30
0.0
  0
VERTEX
  5
45F
100
AcDbEntity
  8
スト－ル
  6
CONTINUOUS
 62
     2
100
AcDbVertex
100
AcDb2dVertex
 10
1472.0
 20
651.000153
 30
0.0
  0
VERTEX
  5
460
100
AcDbEntity
  8
スト－ル
  6
CONTINUOUS
 62
     2
100
AcDbVertex
100
AcDb2dVertex
 10
1471.264527
 20
647.522206
 30
0.0
  0
VERTEX
  5
461
100
AcDbEntity
  8
スト－ル
  6
CONTINUOUS
 62
     2
100
AcDbVertex
100
AcDb2dVertex
 10
1470.413123
 20
644.045495
 30
0.0
  0
VERTEX
  5
462
100
AcDbEntity
  8
スト－ル
  6
CONTINUOUS
 62
     2
100
AcDbVertex
100
AcDb2dVertex
 10
1469.486332
 20
640.577226
 30
0.0
  0
VERTEX
  5
463
100
AcDbEntity
  8
スト－ル
  6
CONTINUOUS
 62
     2
100
AcDbVertex
100
AcDb2dVertex
 10
1468.524699
 20
637.124609
 30
0.0
  0
VERTEX
  5
464
100
AcDbEntity
  8
スト－ル
  6
CONTINUOUS
 62
     2
100
AcDbVertex
100
AcDb2dVertex
 10
1467.568766
 20
633.694851
 30
0.0
  0
VERTEX
  5
465
100
AcDbEntity
  8
スト－ル
  6
CONTINUOUS
 62
     2
100
AcDbVertex
100
AcDb2dVertex
 10
1466.659078
 20
630.29516
 30
0.0
  0
VERTEX
  5
466
100
AcDbEntity
  8
スト－ル
  6
CONTINUOUS
 62
     2
100
AcDbVertex
100
AcDb2dVertex
 10
1465.836179
 20
626.932745
 30
0.0
  0
VERTEX
  5
467
100
AcDbEntity
  8
スト－ル
  6
CONTINUOUS
 62
     2
100
AcDbVertex
100
AcDb2dVertex
 10
1465.140614
 20
623.614813
 30
0.0
  0
VERTEX
  5
468
100
AcDbEntity
  8
スト－ル
  6
CONTINUOUS
 62
     2
100
AcDbVertex
100
AcDb2dVertex
 10
1464.612926
 20
620.348573
 30
0.0
  0
VERTEX
  5
469
100
AcDbEntity
  8
スト－ル
  6
CONTINUOUS
 62
     2
100
AcDbVertex
100
AcDb2dVertex
 10
1464.293659
 20
617.141232
 30
0.0
  0
VERTEX
  5
46A
100
AcDbEntity
  8
スト－ル
  6
CONTINUOUS
 62
     2
100
AcDbVertex
100
AcDb2dVertex
 10
1464.223357
 20
614.0
 30
0.0
  0
VERTEX
  5
46B
100
AcDbEntity
  8
スト－ル
  6
CONTINUOUS
 62
     2
100
AcDbVertex
100
AcDb2dVertex
 10
1464.258073
 20
613.016634
 30
0.0
  0
VERTEX
  5
46C
100
AcDbEntity
  8
スト－ル
  6
CONTINUOUS
 62
     2
100
AcDbVertex
100
AcDb2dVertex
 10
1464.313814
 20
612.033431
 30
0.0
  0
VERTEX
  5
46D
100
AcDbEntity
  8
スト－ル
  6
CONTINUOUS
 62
     2
100
AcDbVertex
100
AcDb2dVertex
 10
1464.382433
 20
611.043169
 30
0.0
  0
VERTEX
  5
46E
100
AcDbEntity
  8
スト－ル
  6
CONTINUOUS
 62
     2
100
AcDbVertex
100
AcDb2dVertex
 10
1464.455784
 20
610.038624
 30
0.0
  0
VERTEX
  5
46F
100
AcDbEntity
  8
スト－ル
  6
CONTINUOUS
 62
     2
100
AcDbVertex
100
AcDb2dVertex
 10
1464.525721
 20
609.012573
 30
0.0
  0
VERTEX
  5
470
100
AcDbEntity
  8
スト－ル
  6
CONTINUOUS
 62
     2
100
AcDbVertex
100
AcDb2dVertex
 10
1464.584097
 20
607.957792
 30
0.0
  0
VERTEX
  5
471
100
AcDbEntity
  8
スト－ル
  6
CONTINUOUS
 62
     2
100
AcDbVertex
100
AcDb2dVertex
 10
1464.622767
 20
606.867058
 30
0.0
  0
VERTEX
  5
472
100
AcDbEntity
  8
スト－ル
  6
CONTINUOUS
 62
     2
100
AcDbVertex
100
AcDb2dVertex
 10
1464.633583
 20
605.733147
 30
0.0
  0
VERTEX
  5
473
100
AcDbEntity
  8
スト－ル
  6
CONTINUOUS
 62
     2
100
AcDbVertex
100
AcDb2dVertex
 10
1464.608399
 20
604.548837
 30
0.0
  0
VERTEX
  5
474
100
AcDbEntity
  8
スト－ル
  6
CONTINUOUS
 62
     2
100
AcDbVertex
100
AcDb2dVertex
 10
1464.53907
 20
603.306903
 30
0.0
  0
VERTEX
  5
475
100
AcDbEntity
  8
スト－ル
  6
CONTINUOUS
 62
     2
100
AcDbVertex
100
AcDb2dVertex
 10
1464.417449
 20
602.000122
 30
0.0
  0
VERTEX
  5
476
100
AcDbEntity
  8
スト－ル
  6
CONTINUOUS
 62
     2
100
AcDbVertex
100
AcDb2dVertex
 10
1464.178432
 20
600.22944
 30
0.0
  0
VERTEX
  5
477
100
AcDbEntity
  8
スト－ル
  6
CONTINUOUS
 62
     2
100
AcDbVertex
100
AcDb2dVertex
 10
1463.861345
 20
598.390289
 30
0.0
  0
VERTEX
  5
478
100
AcDbEntity
  8
スト－ル
  6
CONTINUOUS
 62
     2
100
AcDbVertex
100
AcDb2dVertex
 10
1463.487436
 20
596.532628
 30
0.0
  0
VERTEX
  5
479
100
AcDbEntity
  8
スト－ル
  6
CONTINUOUS
 62
     2
100
AcDbVertex
100
AcDb2dVertex
 10
1463.077949
 20
594.706414
 30
0.0
  0
VERTEX
  5
47A
100
AcDbEntity
  8
スト－ル
  6
CONTINUOUS
 62
     2
100
AcDbVertex
100
AcDb2dVertex
 10
1462.65413
 20
592.961608
 30
0.0
  0
VERTEX
  5
47B
100
AcDbEntity
  8
スト－ル
  6
CONTINUOUS
 62
     2
100
AcDbVertex
100
AcDb2dVertex
 10
1462.237224
 20
591.348167
 30
0.0
  0
VERTEX
  5
47C
100
AcDbEntity
  8
スト－ル
  6
CONTINUOUS
 62
     2
100
AcDbVertex
100
AcDb2dVertex
 10
1461.848479
 20
589.91605
 30
0.0
  0
VERTEX
  5
47D
100
AcDbEntity
  8
スト－ル
  6
CONTINUOUS
 62
     2
100
AcDbVertex
100
AcDb2dVertex
 10
1461.509138
 20
588.715216
 30
0.0
  0
VERTEX
  5
47E
100
AcDbEntity
  8
スト－ル
  6
CONTINUOUS
 62
     2
100
AcDbVertex
100
AcDb2dVertex
 10
1461.240447
 20
587.795624
 30
0.0
  0
VERTEX
  5
47F
100
AcDbEntity
  8
スト－ル
  6
CONTINUOUS
 62
     2
100
AcDbVertex
100
AcDb2dVertex
 10
1461.063653
 20
587.207232
 30
0.0
  0
VERTEX
  5
480
100
AcDbEntity
  8
スト－ル
  6
CONTINUOUS
 62
     2
100
AcDbVertex
100
AcDb2dVertex
 10
1461.0
 20
587.0
 30
0.0
  0
SEQEND
  5
481
100
AcDbEntity
  8
スト－ル
  6
CONTINUOUS
 62
     2
  0
LINE
  5
482
100
AcDbEntity
  8
スト－ル
  6
CONTINUOUS
 62
     2
100
AcDbLine
 10
1533.812957
 20
609.000122
 30
0.0
 11
1464.417449
 21
609.000122
 31
0.0
  0
LINE
  5
483
100
AcDbEntity
  8
スト－ル
  6
CONTINUOUS
 62
     2
100
AcDbLine
 10
1533.812957
 20
604.000122
 30
0.0
 11
1464.417449
 21
604.000122
 31
0.0
  0
LINE
  5
484
100
AcDbEntity
  8
スト－ル
  6
CONTINUOUS
 62
     2
100
AcDbLine
 10
1533.812957
 20
606.500122
 30
0.0
 11
1464.417449
 21
606.500122
 31
0.0
  0
ARC
  5
485
100
AcDbEntity
  8
スト－ル
  6
CONTINUOUS
 62
     2
100
AcDbCircle
 10
1533.812957
 20
598.000122
 30
0.0
 40
6.232417
100
AcDbArc
 50
31.971307
 51
74.870673
  0
ARC
  5
486
100
AcDbEntity
  8
スト－ル
  6
CONTINUOUS
 62
     2
100
AcDbCircle
 10
1533.812957
 20
598.000122
 30
0.0
 40
8.691091
100
AcDbArc
 50
46.459176
 51
79.842589
  0
ARC
  5
487
100
AcDbEntity
  8
スト－ル
  6
CONTINUOUS
 62
     2
100
AcDbCircle
 10
1533.812957
 20
598.000122
 30
0.0
 40
10.916642
100
AcDbArc
 50
58.107623
 51
81.939223
  0
LINE
  5
488
100
AcDbEntity
  8
スト－ル
  6
CONTINUOUS
 62
     2
100
AcDbLine
 10
1608.327834
 20
609.750427
 30
0.0
 11
1733.200009
 21
609.749509
 31
0.0
  0
LINE
  5
489
100
AcDbEntity
  8
スト－ル
  6
CONTINUOUS
 62
     2
100
AcDbLine
 10
1603.7
 20
604.250122
 30
0.0
 11
1733.813201
 21
604.250122
 31
0.0
  0
LINE
  5
48A
100
AcDbEntity
  8
スト－ル
  6
CONTINUOUS
 62
     2
100
AcDbLine
 10
1603.7
 20
606.750122
 30
0.0
 11
1733.813201
 21
606.750122
 31
0.0
  0
LINE
  5
48B
100
AcDbEntity
  8
スト－ル
  6
CONTINUOUS
 62
     2
100
AcDbLine
 10
1679.822325
 20
734.541911
 30
0.0
 11
1673.642271
 21
616.620646
 31
0.0
  0
LINE
  5
48C
100
AcDbEntity
  8
スト－ル
  6
CONTINUOUS
 62
     2
100
AcDbLine
 10
1684.292115
 20
714.740925
 30
0.0
 11
1679.168991
 21
616.986055
 31
0.0
  0
LINE
  5
48D
100
AcDbEntity
  8
スト－ル
  6
CONTINUOUS
 62
     2
100
AcDbLine
 10
1682.568556
 20
734.397986
 30
0.0
 11
1676.116338
 21
611.283574
 31
0.0
  0
LINE
  5
48E
100
AcDbEntity
  8
スト－ル
  6
CONTINUOUS
 62
     2
100
AcDbLine
 10
1741.063201
 20
586.999939
 30
0.0
 11
1741.063201
 21
597.000183
 31
0.0
  0
LINE
  5
48F
100
AcDbEntity
  8
スト－ル
  6
CONTINUOUS
 62
     2
100
AcDbLine
 10
1748.563201
 20
587.000088
 30
0.0
 11
1748.563323
 21
597.256558
 31
0.0
  0
LINE
  5
490
100
AcDbEntity
  8
スト－ル
  6
CONTINUOUS
 62
     2
100
AcDbLine
 10
1743.563201
 20
586.999939
 30
0.0
 11
1743.563201
 21
597.000183
 31
0.0
  0
LINE
  5
491
100
AcDbEntity
  8
スト－ル
  6
CONTINUOUS
 62
     2
100
AcDbLine
 10
1746.063201
 20
587.000118
 30
0.0
 11
1746.063323
 21
597.256588
 31
0.0
  0
LINE
  5
492
100
AcDbEntity
  8
スト－ル
  6
CONTINUOUS
 62
     2
100
AcDbLine
 10
1736.244138
 20
610.001058
 30
0.0
 11
1686.287595
 21
611.723653
 31
0.0
  0
ARC
  5
493
100
AcDbEntity
  8
スト－ル
  6
CONTINUOUS
 62
     2
100
AcDbCircle
 10
1608.32785
 20
617.000122
 30
0.0
 40
7.65812
100
AcDbArc
 50
223.794338
 51
259.494638
  0
ARC
  5
494
100
AcDbEntity
  8
スト－ル
  6
CONTINUOUS
 62
     2
100
AcDbCircle
 10
1666.40219
 20
617.000122
 30
0.0
 40
7.638683
100
AcDbArc
 50
307.006907
 51
350.033535
  0
ARC
  5
495
100
AcDbEntity
  8
スト－ル
  6
CONTINUOUS
 62
     2
100
AcDbCircle
 10
1686.545989
 20
619.219116
 30
0.0
 40
8.150057
100
AcDbArc
 50
203.579512
 51
252.489834
  0
ARC
  5
496
100
AcDbEntity
  8
スト－ル
  6
CONTINUOUS
 62
     2
100
AcDbCircle
 10
1686.545989
 20
619.219116
 30
0.0
 40
10.402805
100
AcDbArc
 50
205.152988
 51
241.439242
  0
ARC
  5
497
100
AcDbEntity
  8
スト－ル
  6
CONTINUOUS
 62
     2
100
AcDbCircle
 10
1735.813323
 20
597.508484
 30
0.0
 40
12.988078
100
AcDbArc
 50
2.659032
 51
76.656343
  0
ARC
  5
498
100
AcDbEntity
  8
スト－ル
  6
CONTINUOUS
 62
     2
100
AcDbCircle
 10
1735.813323
 20
597.508484
 30
0.0
 40
10.637455
100
AcDbArc
 50
2.659032
 51
91.199091
  0
ARC
  5
499
100
AcDbEntity
  8
スト－ル
  6
CONTINUOUS
 62
     2
100
AcDbCircle
 10
1735.813323
 20
597.508484
 30
0.0
 40
8.287948
100
AcDbArc
 50
2.659032
 51
97.409851
  0
ARC
  5
49A
100
AcDbEntity
  8
スト－ル
  6
CONTINUOUS
 62
     2
100
AcDbCircle
 10
1735.813323
 20
597.508484
 30
0.0
 40
5.929084
100
AcDbArc
 50
4.856507
 51
95.085634
  0
ARC
  5
49B
100
AcDbEntity
  8
スト－ル
  6
CONTINUOUS
 62
     2
100
AcDbCircle
 10
1687.252149
 20
620.772566
 30
0.0
 40
8.150057
100
AcDbArc
 50
203.579512
 51
252.489834
  0
LINE
  5
49C
100
AcDbEntity
  8
スト－ル
  6
CONTINUOUS
 62
     6
100
AcDbLine
 10
1570.810394
 20
541.064636
 30
0.0
 11
1570.810394
 21
551.064636
 31
0.0
  0
ARC
  5
49D
100
AcDbEntity
  8
スト－ル
  6
CONTINUOUS
 62
     6
100
AcDbCircle
 10
1533.810242
 20
597.999084
 30
0.0
 40
4.0
100
AcDbArc
 50
0.0
 51
90.0
  0
LINE
  5
49E
100
AcDbEntity
  8
スト－ル
  6
CONTINUOUS
 62
     6
100
AcDbLine
 10
1537.810242
 20
593.999023
 30
0.0
 11
1537.810242
 21
597.999084
 31
0.0
  0
ARC
  5
49F
100
AcDbEntity
  8
スト－ル
  6
CONTINUOUS
 62
     6
100
AcDbCircle
 10
1607.810242
 20
597.999084
 30
0.0
 40
4.0
100
AcDbArc
 50
90.0
 51
180.0
  0
LINE
  5
4A0
100
AcDbEntity
  8
スト－ル
  6
CONTINUOUS
 62
     6
100
AcDbLine
 10
1603.810242
 20
593.999023
 30
0.0
 11
1603.810242
 21
597.999084
 31
0.0
  0
LINE
  5
4A1
100
AcDbEntity
  8
スト－ル
  6
CONTINUOUS
 62
     6
100
AcDbLine
 10
1535.710418
 20
590.0
 30
0.0
 11
1605.91037
 21
590.0
 31
0.0
  0
LINE
  5
4A2
100
AcDbEntity
  8
スト－ル
  6
CONTINUOUS
 62
     6
100
AcDbLine
 10
1544.210396
 20
557.0
 30
0.0
 11
1597.410392
 21
557.0
 31
0.0
  0
LINE
  5
4A3
100
AcDbEntity
  8
スト－ル
  6
CONTINUOUS
 62
     6
100
AcDbLine
 10
1542.910392
 20
552.706765
 30
0.0
 11
1542.910392
 21
587.0
 31
0.0
  0
LINE
  5
4A4
100
AcDbEntity
  8
スト－ル
  6
CONTINUOUS
 62
     6
100
AcDbLine
 10
1545.710518
 20
557.0
 30
0.0
 11
1545.39537
 21
588.515
 31
0.0
  0
LINE
  5
4A5
100
AcDbEntity
  8
スト－ル
  6
CONTINUOUS
 62
     6
100
AcDbLine
 10
1542.910392
 20
587.0
 30
0.0
 11
1543.200393
 21
557.999939
 31
0.0
  0
LINE
  5
4A6
100
AcDbEntity
  8
スト－ル
  6
CONTINUOUS
 62
     6
100
AcDbLine
 10
1543.200393
 20
557.999939
 30
0.0
 11
1544.210396
 21
557.0
 31
0.0
  0
ARC
  5
4A7
100
AcDbEntity
  8
スト－ル
  6
CONTINUOUS
 62
     6
100
AcDbCircle
 10
1539.812553
 20
607.526337
 30
0.0
 40
21.0
100
AcDbArc
 50
220.358521
 51
256.826721
  0
ARC
  5
4A8
100
AcDbEntity
  8
スト－ル
  6
CONTINUOUS
 62
     6
100
AcDbCircle
 10
1539.812553
 20
607.526337
 30
0.0
 40
18.0
100
AcDbArc
 50
208.273804
 51
256.826721
  0
LINE
  5
4A9
100
AcDbEntity
  8
スト－ル
  6
CONTINUOUS
 62
     6
100
AcDbLine
 10
1523.810394
 20
593.927399
 30
0.0
 11
1523.810394
 21
587.0
 31
0.0
  0
LINE
  5
4AA
100
AcDbEntity
  8
スト－ル
  6
CONTINUOUS
 62
     6
100
AcDbLine
 10
1520.810394
 20
599.0
 30
0.0
 11
1520.810394
 21
587.0
 31
0.0
  0
LINE
  5
4AB
100
AcDbEntity
  8
スト－ル
  6
CONTINUOUS
 62
     6
100
AcDbLine
 10
1523.960052
 20
599.0
 30
0.0
 11
1520.810394
 21
599.0
 31
0.0
  0
ARC
  5
4AC
100
AcDbEntity
  8
スト－ル
  6
CONTINUOUS
 62
     6
100
AcDbCircle
 10
1543.895446
 20
588.5
 30
0.0
 40
1.5
100
AcDbArc
 50
0.572937
 51
90.0
  0
LINE
  5
4AD
100
AcDbEntity
  8
スト－ル
  6
CONTINUOUS
 62
     6
100
AcDbLine
 10
1541.810394
 20
590.0
 30
0.0
 11
1543.895446
 21
590.0
 31
0.0
  0
LINE
  5
4AE
100
AcDbEntity
  8
スト－ル
  6
CONTINUOUS
 62
     6
100
AcDbLine
 10
1595.910518
 20
557.024994
 30
0.0
 11
1596.225418
 21
588.515
 31
0.0
  0
LINE
  5
4AF
100
AcDbEntity
  8
スト－ル
  6
CONTINUOUS
 62
     6
100
AcDbLine
 10
1598.710396
 20
587.0
 30
0.0
 11
1598.420395
 21
557.999939
 31
0.0
  0
LINE
  5
4B0
100
AcDbEntity
  8
スト－ル
  6
CONTINUOUS
 62
     6
100
AcDbLine
 10
1598.420395
 20
557.999939
 30
0.0
 11
1597.410392
 21
557.0
 31
0.0
  0
ARC
  5
4B1
100
AcDbEntity
  8
スト－ル
  6
CONTINUOUS
 62
     6
100
AcDbCircle
 10
1601.808235
 20
607.526337
 30
0.0
 40
21.0
100
AcDbArc
 50
283.173279
 51
319.641479
  0
ARC
  5
4B2
100
AcDbEntity
  8
スト－ル
  6
CONTINUOUS
 62
     6
100
AcDbCircle
 10
1601.808235
 20
607.526337
 30
0.0
 40
18.0
100
AcDbArc
 50
283.173279
 51
331.726196
  0
ARC
  5
4B3
100
AcDbEntity
  8
スト－ル
  6
CONTINUOUS
 62
     6
100
AcDbCircle
 10
1597.725342
 20
588.5
 30
0.0
 40
1.5
100
AcDbArc
 50
90.0
 51
179.427063
  0
LINE
  5
4B4
100
AcDbEntity
  8
スト－ル
  6
CONTINUOUS
 62
     6
100
AcDbLine
 10
1617.810394
 20
593.927399
 30
0.0
 11
1617.810394
 21
587.0
 31
0.0
  0
LINE
  5
4B5
100
AcDbEntity
  8
スト－ル
  6
CONTINUOUS
 62
     6
100
AcDbLine
 10
1620.810394
 20
599.0
 30
0.0
 11
1620.810394
 21
587.0
 31
0.0
  0
LINE
  5
4B6
100
AcDbEntity
  8
スト－ル
  6
CONTINUOUS
 62
     6
100
AcDbLine
 10
1617.810241
 20
599.0
 30
0.0
 11
1620.810394
 21
599.0
 31
0.0
  0
LINE
  5
4B7
100
AcDbEntity
  8
スト－ル
  6
CONTINUOUS
 62
     2
100
AcDbLine
 10
1523.6
 20
602.000122
 30
0.0
 11
1523.960061
 21
598.999996
 31
0.0
  0
LINE
  5
4B8
100
AcDbEntity
  8
スト－ル
  6
CONTINUOUS
 62
     2
100
AcDbLine
 10
1617.660728
 20
598.999996
 30
0.0
 11
1617.4
 21
602.000122
 31
0.0
  0
LINE
  5
4B9
100
AcDbEntity
  8
スト－ル
  6
CONTINUOUS
 62
     2
100
AcDbLine
 10
1543.2
 20
594.0
 30
0.0
 11
1543.2
 21
590.0
 31
0.0
  0
LINE
  5
4BA
100
AcDbEntity
  8
スト－ル
  6
CONTINUOUS
 62
     2
100
AcDbLine
 10
1598.420789
 20
594.0
 30
0.0
 11
1598.420789
 21
590.0
 31
0.0
  0
LINE
  5
4BB
100
AcDbEntity
  8
スト－ル
  6
CONTINUOUS
 62
     6
100
AcDbLine
 10
1536.399847
 20
590.0
 30
0.0
 11
1540.399847
 21
594.0
 31
0.0
  0
LINE
  5
4BC
100
AcDbEntity
  8
スト－ル
  6
CONTINUOUS
 62
     6
100
AcDbLine
 10
1537.400153
 20
590.0
 30
0.0
 11
1525.400031
 21
602.000122
 31
0.0
  0
LINE
  5
4BD
100
AcDbEntity
  8
スト－ル
  6
CONTINUOUS
 62
     6
100
AcDbLine
 10
1531.102704
 20
591.773924
 30
0.0
 11
1537.812957
 21
598.484178
 31
0.0
  0
LINE
  5
4BE
100
AcDbEntity
  8
スト－ル
  6
CONTINUOUS
 62
     6
100
AcDbLine
 10
1527.070387
 20
594.812675
 30
0.0
 11
1534.235458
 21
601.977746
 31
0.0
  0
LINE
  5
4BF
100
AcDbEntity
  8
スト－ル
  6
CONTINUOUS
 62
     6
100
AcDbLine
 10
1543.2
 20
591.27122
 30
0.0
 11
1540.47122
 21
594.0
 31
0.0
  0
LINE
  5
4C0
100
AcDbEntity
  8
スト－ル
  6
CONTINUOUS
 62
     6
100
AcDbLine
 10
1537.812957
 20
596.658263
 30
0.0
 11
1532.471098
 21
602.000122
 31
0.0
  0
LINE
  5
4C1
100
AcDbEntity
  8
スト－ル
  6
CONTINUOUS
 62
     6
100
AcDbLine
 10
1601.220941
 20
594.0
 30
0.0
 11
1605.220941
 21
590.0
 31
0.0
  0
LINE
  5
4C2
100
AcDbEntity
  8
スト－ル
  6
CONTINUOUS
 62
     6
100
AcDbLine
 10
1603.812957
 20
598.479052
 30
0.0
 11
1610.518085
 21
591.773924
 31
0.0
  0
LINE
  5
4C3
100
AcDbEntity
  8
スト－ル
  6
CONTINUOUS
 62
     6
100
AcDbLine
 10
1607.362955
 20
602.000122
 30
0.0
 11
1614.550402
 21
594.812675
 31
0.0
  0
LINE
  5
4C4
100
AcDbEntity
  8
スト－ル
  6
CONTINUOUS
 62
     6
100
AcDbLine
 10
1616.220758
 20
602.000122
 30
0.0
 11
1604.220636
 21
590.0
 31
0.0
  0
LINE
  5
4C5
100
AcDbEntity
  8
スト－ル
  6
CONTINUOUS
 62
     6
100
AcDbLine
 10
1598.420789
 20
591.27122
 30
0.0
 11
1601.149568
 21
594.0
 31
0.0
  0
LINE
  5
4C6
100
AcDbEntity
  8
スト－ル
  6
CONTINUOUS
 62
     6
100
AcDbLine
 10
1603.812957
 20
596.663389
 30
0.0
 11
1609.14969
 21
602.000122
 31
0.0
  0
POLYLINE
  5
4C7
100
AcDbEntity
  8
スト－ル
  6
CONTINUOUS
 62
     6
100
AcDb2dPolyline
 66
     1
 10
0.0
 20
0.0
 30
0.0
 70
   128
  0
VERTEX
  5
4C8
100
AcDbEntity
  8
スト－ル
  6
CONTINUOUS
 62
     6
100
AcDbVertex
100
AcDb2dVertex
 10
1540.410522
 20
554.200153
 30
0.0
  0
VERTEX
  5
4C9
100
AcDbEntity
  8
スト－ル
  6
CONTINUOUS
 62
     6
100
AcDbVertex
100
AcDb2dVertex
 10
1540.473839
 20
554.160338
 30
0.0
  0
VERTEX
  5
4CA
100
AcDbEntity
  8
スト－ル
  6
CONTINUOUS
 62
     6
100
AcDbVertex
100
AcDb2dVertex
 10
1540.654955
 20
554.048556
 30
0.0
  0
VERTEX
  5
4CB
100
AcDbEntity
  8
スト－ル
  6
CONTINUOUS
 62
     6
100
AcDbVertex
100
AcDb2dVertex
 10
1540.940624
 20
553.876298
 30
0.0
  0
VERTEX
  5
4CC
100
AcDbEntity
  8
スト－ル
  6
CONTINUOUS
 62
     6
100
AcDbVertex
100
AcDb2dVertex
 10
1541.317595
 20
553.655057
 30
0.0
  0
VERTEX
  5
4CD
100
AcDbEntity
  8
スト－ル
  6
CONTINUOUS
 62
     6
100
AcDbVertex
100
AcDb2dVertex
 10
1541.772621
 20
553.396324
 30
0.0
  0
VERTEX
  5
4CE
100
AcDbEntity
  8
スト－ル
  6
CONTINUOUS
 62
     6
100
AcDbVertex
100
AcDb2dVertex
 10
1542.292453
 20
553.111592
 30
0.0
  0
VERTEX
  5
4CF
100
AcDbEntity
  8
スト－ル
  6
CONTINUOUS
 62
     6
100
AcDbVertex
100
AcDb2dVertex
 10
1542.863842
 20
552.812351
 30
0.0
  0
VERTEX
  5
4D0
100
AcDbEntity
  8
スト－ル
  6
CONTINUOUS
 62
     6
100
AcDbVertex
100
AcDb2dVertex
 10
1543.47354
 20
552.510095
 30
0.0
  0
VERTEX
  5
4D1
100
AcDbEntity
  8
スト－ル
  6
CONTINUOUS
 62
     6
100
AcDbVertex
100
AcDb2dVertex
 10
1544.108298
 20
552.216316
 30
0.0
  0
VERTEX
  5
4D2
100
AcDbEntity
  8
スト－ル
  6
CONTINUOUS
 62
     6
100
AcDbVertex
100
AcDb2dVertex
 10
1544.754867
 20
551.942504
 30
0.0
  0
VERTEX
  5
4D3
100
AcDbEntity
  8
スト－ル
  6
CONTINUOUS
 62
     6
100
AcDbVertex
100
AcDb2dVertex
 10
1545.4
 20
551.700153
 30
0.0
  0
VERTEX
  5
4D4
100
AcDbEntity
  8
スト－ル
  6
CONTINUOUS
 62
     6
100
AcDbVertex
100
AcDb2dVertex
 10
1546.520307
 20
551.366771
 30
0.0
  0
VERTEX
  5
4D5
100
AcDbEntity
  8
スト－ル
  6
CONTINUOUS
 62
     6
100
AcDbVertex
100
AcDb2dVertex
 10
1547.594428
 20
551.147467
 30
0.0
  0
VERTEX
  5
4D6
100
AcDbEntity
  8
スト－ル
  6
CONTINUOUS
 62
     6
100
AcDbVertex
100
AcDb2dVertex
 10
1548.623073
 20
551.019169
 30
0.0
  0
VERTEX
  5
4D7
100
AcDbEntity
  8
スト－ル
  6
CONTINUOUS
 62
     6
100
AcDbVertex
100
AcDb2dVertex
 10
1549.606947
 20
550.958803
 30
0.0
  0
VERTEX
  5
4D8
100
AcDbEntity
  8
スト－ル
  6
CONTINUOUS
 62
     6
100
AcDbVertex
100
AcDb2dVertex
 10
1550.546761
 20
550.943295
 30
0.0
  0
VERTEX
  5
4D9
100
AcDbEntity
  8
スト－ル
  6
CONTINUOUS
 62
     6
100
AcDbVertex
100
AcDb2dVertex
 10
1551.443221
 20
550.949572
 30
0.0
  0
VERTEX
  5
4DA
100
AcDbEntity
  8
スト－ル
  6
CONTINUOUS
 62
     6
100
AcDbVertex
100
AcDb2dVertex
 10
1552.297036
 20
550.954559
 30
0.0
  0
VERTEX
  5
4DB
100
AcDbEntity
  8
スト－ル
  6
CONTINUOUS
 62
     6
100
AcDbVertex
100
AcDb2dVertex
 10
1553.108913
 20
550.935185
 30
0.0
  0
VERTEX
  5
4DC
100
AcDbEntity
  8
スト－ル
  6
CONTINUOUS
 62
     6
100
AcDbVertex
100
AcDb2dVertex
 10
1553.879561
 20
550.868375
 30
0.0
  0
VERTEX
  5
4DD
100
AcDbEntity
  8
スト－ル
  6
CONTINUOUS
 62
     6
100
AcDbVertex
100
AcDb2dVertex
 10
1554.609687
 20
550.731055
 30
0.0
  0
VERTEX
  5
4DE
100
AcDbEntity
  8
スト－ル
  6
CONTINUOUS
 62
     6
100
AcDbVertex
100
AcDb2dVertex
 10
1555.3
 20
550.500153
 30
0.0
  0
VERTEX
  5
4DF
100
AcDbEntity
  8
スト－ル
  6
CONTINUOUS
 62
     6
100
AcDbVertex
100
AcDb2dVertex
 10
1555.903053
 20
550.190561
 30
0.0
  0
VERTEX
  5
4E0
100
AcDbEntity
  8
スト－ル
  6
CONTINUOUS
 62
     6
100
AcDbVertex
100
AcDb2dVertex
 10
1556.485171
 20
549.798159
 30
0.0
  0
VERTEX
  5
4E1
100
AcDbEntity
  8
スト－ル
  6
CONTINUOUS
 62
     6
100
AcDbVertex
100
AcDb2dVertex
 10
1557.058584
 20
549.339069
 30
0.0
  0
VERTEX
  5
4E2
100
AcDbEntity
  8
スト－ル
  6
CONTINUOUS
 62
     6
100
AcDbVertex
100
AcDb2dVertex
 10
1557.63552
 20
548.829411
 30
0.0
  0
VERTEX
  5
4E3
100
AcDbEntity
  8
スト－ル
  6
CONTINUOUS
 62
     6
100
AcDbVertex
100
AcDb2dVertex
 10
1558.22821
 20
548.285308
 30
0.0
  0
VERTEX
  5
4E4
100
AcDbEntity
  8
スト－ル
  6
CONTINUOUS
 62
     6
100
AcDbVertex
100
AcDb2dVertex
 10
1558.848882
 20
547.722882
 30
0.0
  0
VERTEX
  5
4E5
100
AcDbEntity
  8
スト－ル
  6
CONTINUOUS
 62
     6
100
AcDbVertex
100
AcDb2dVertex
 10
1559.509765
 20
547.158253
 30
0.0
  0
VERTEX
  5
4E6
100
AcDbEntity
  8
スト－ル
  6
CONTINUOUS
 62
     6
100
AcDbVertex
100
AcDb2dVertex
 10
1560.223089
 20
546.607544
 30
0.0
  0
VERTEX
  5
4E7
100
AcDbEntity
  8
スト－ル
  6
CONTINUOUS
 62
     6
100
AcDbVertex
100
AcDb2dVertex
 10
1561.001084
 20
546.086877
 30
0.0
  0
VERTEX
  5
4E8
100
AcDbEntity
  8
スト－ル
  6
CONTINUOUS
 62
     6
100
AcDbVertex
100
AcDb2dVertex
 10
1561.855977
 20
545.612372
 30
0.0
  0
VERTEX
  5
4E9
100
AcDbEntity
  8
スト－ル
  6
CONTINUOUS
 62
     6
100
AcDbVertex
100
AcDb2dVertex
 10
1562.8
 20
545.200153
 30
0.0
  0
VERTEX
  5
4EA
100
AcDbEntity
  8
スト－ル
  6
CONTINUOUS
 62
     6
100
AcDbVertex
100
AcDb2dVertex
 10
1563.710126
 20
544.898352
 30
0.0
  0
VERTEX
  5
4EB
100
AcDbEntity
  8
スト－ル
  6
CONTINUOUS
 62
     6
100
AcDbVertex
100
AcDb2dVertex
 10
1564.670289
 20
544.651929
 30
0.0
  0
VERTEX
  5
4EC
100
AcDbEntity
  8
スト－ル
  6
CONTINUOUS
 62
     6
100
AcDbVertex
100
AcDb2dVertex
 10
1565.651684
 20
544.455273
 30
0.0
  0
VERTEX
  5
4ED
100
AcDbEntity
  8
スト－ル
  6
CONTINUOUS
 62
     6
100
AcDbVertex
100
AcDb2dVertex
 10
1566.625504
 20
544.302771
 30
0.0
  0
VERTEX
  5
4EE
100
AcDbEntity
  8
スト－ル
  6
CONTINUOUS
 62
     6
100
AcDbVertex
100
AcDb2dVertex
 10
1567.562942
 20
544.188812
 30
0.0
  0
VERTEX
  5
4EF
100
AcDbEntity
  8
スト－ル
  6
CONTINUOUS
 62
     6
100
AcDbVertex
100
AcDb2dVertex
 10
1568.435192
 20
544.107782
 30
0.0
  0
VERTEX
  5
4F0
100
AcDbEntity
  8
スト－ル
  6
CONTINUOUS
 62
     6
100
AcDbVertex
100
AcDb2dVertex
 10
1569.213447
 20
544.054069
 30
0.0
  0
VERTEX
  5
4F1
100
AcDbEntity
  8
スト－ル
  6
CONTINUOUS
 62
     6
100
AcDbVertex
100
AcDb2dVertex
 10
1569.868902
 20
544.022062
 30
0.0
  0
VERTEX
  5
4F2
100
AcDbEntity
  8
スト－ル
  6
CONTINUOUS
 62
     6
100
AcDbVertex
100
AcDb2dVertex
 10
1570.372749
 20
544.006149
 30
0.0
  0
VERTEX
  5
4F3
100
AcDbEntity
  8
スト－ル
  6
CONTINUOUS
 62
     6
100
AcDbVertex
100
AcDb2dVertex
 10
1570.696182
 20
544.000716
 30
0.0
  0
VERTEX
  5
4F4
100
AcDbEntity
  8
スト－ル
  6
CONTINUOUS
 62
     6
100
AcDbVertex
100
AcDb2dVertex
 10
1570.810394
 20
544.000153
 30
0.0
  0
SEQEND
  5
4F5
100
AcDbEntity
  8
スト－ル
  6
CONTINUOUS
 62
     6
  0
ARC
  5
4F6
100
AcDbEntity
  8
スト－ル
  6
CONTINUOUS
 62
     6
100
AcDbCircle
 10
1555.610458
 20
486.001616
 30
0.0
 40
20.0
100
AcDbArc
 50
40.536084
 51
139.463916
  0
ARC
  5
4F7
100
AcDbEntity
  8
スト－ル
  6
CONTINUOUS
 62
     6
100
AcDbCircle
 10
1555.610458
 20
511.998689
 30
0.0
 40
20.0
100
AcDbArc
 50
220.536084
 51
319.463916
  0
LINE
  5
4F8
100
AcDbEntity
  8
スト－ル
  6
CONTINUOUS
 62
     6
100
AcDbLine
 10
1540.410522
 20
542.100153
 30
0.0
 11
1540.410522
 21
587.0
 31
0.0
  0
LINE
  5
4F9
100
AcDbEntity
  8
スト－ル
  6
CONTINUOUS
 62
     6
100
AcDbLine
 10
1540.410522
 20
529.100153
 30
0.0
 11
1540.410522
 21
534.100153
 31
0.0
  0
LINE
  5
4FA
100
AcDbEntity
  8
スト－ル
  6
CONTINUOUS
 62
     6
100
AcDbLine
 10
1540.410522
 20
499.000153
 30
0.0
 11
1540.410522
 21
508.100153
 31
0.0
  0
LINE
  5
4FB
100
AcDbEntity
  8
スト－ル
  6
CONTINUOUS
 62
     6
100
AcDbLine
 10
1540.410522
 20
516.100153
 30
0.0
 11
1540.410522
 21
521.100153
 31
0.0
  0
LINE
  5
4FC
100
AcDbEntity
  8
スト－ル
  6
CONTINUOUS
 62
     6
100
AcDbLine
 10
1598.710396
 20
496.548496
 30
0.0
 11
1598.710396
 21
508.100153
 31
0.0
  0
LINE
  5
4FD
100
AcDbEntity
  8
スト－ル
  6
CONTINUOUS
 62
     6
100
AcDbLine
 10
1601.21027
 20
499.000153
 30
0.0
 11
1601.21027
 21
508.100153
 31
0.0
  0
LINE
  5
4FE
100
AcDbEntity
  8
スト－ル
  6
CONTINUOUS
 62
     6
100
AcDbLine
 10
1598.710396
 20
516.100153
 30
0.0
 11
1598.710396
 21
521.100153
 31
0.0
  0
LINE
  5
4FF
100
AcDbEntity
  8
スト－ル
  6
CONTINUOUS
 62
     6
100
AcDbLine
 10
1601.21027
 20
516.100153
 30
0.0
 11
1601.21027
 21
521.100153
 31
0.0
  0
LINE
  5
500
100
AcDbEntity
  8
スト－ル
  6
CONTINUOUS
 62
     6
100
AcDbLine
 10
1601.21027
 20
529.100153
 30
0.0
 11
1601.21027
 21
534.100153
 31
0.0
  0
LINE
  5
501
100
AcDbEntity
  8
スト－ル
  6
CONTINUOUS
 62
     6
100
AcDbLine
 10
1601.21027
 20
542.100153
 30
0.0
 11
1601.21027
 21
587.0
 31
0.0
  0
LINE
  5
502
100
AcDbEntity
  8
スト－ル
  6
CONTINUOUS
 62
     6
100
AcDbLine
 10
1598.710396
 20
529.100153
 30
0.0
 11
1598.710396
 21
534.100153
 31
0.0
  0
LINE
  5
503
100
AcDbEntity
  8
スト－ル
  6
CONTINUOUS
 62
     6
100
AcDbLine
 10
1598.710396
 20
542.100153
 30
0.0
 11
1598.710396
 21
587.0
 31
0.0
  0
ARC
  5
504
100
AcDbEntity
  8
スト－ル
  6
CONTINUOUS
 62
     6
100
AcDbCircle
 10
1586.010332
 20
511.998687
 30
0.0
 40
20.0
100
AcDbArc
 50
220.536075
 51
319.463925
  0
LINE
  5
505
100
AcDbEntity
  8
スト－ル
  6
CONTINUOUS
 62
     6
100
AcDbLine
 10
1315.97646
 20
502.688641
 30
0.0
 11
1501.276939
 21
502.688641
 31
0.0
  0
LINE
  5
506
100
AcDbEntity
  8
スト－ル
  6
CONTINUOUS
 62
     2
100
AcDbLine
 10
1539.629427
 20
595.987263
 30
0.0
 11
1545.304326
 21
697.000122
 31
0.0
  0
LINE
  5
507
100
AcDbEntity
  8
スト－ル
  6
CONTINUOUS
 62
     2
100
AcDbLine
 10
1548.302577
 20
697.000122
 30
0.0
 11
1541.323314
 21
594.305121
 31
0.0
  0
LINE
  5
508
100
AcDbEntity
  8
スト－ル
  6
CONTINUOUS
 62
     2
100
AcDbLine
 10
1550.808344
 20
697.000122
 30
0.0
 11
1543.81756
 21
594.135609
 31
0.0
  0
LINE
  5
509
100
AcDbEntity
  8
スト－ル
  6
CONTINUOUS
 62
     2
100
AcDbLine
 10
1590.817571
 20
697.000122
 30
0.0
 11
1597.808355
 21
594.135609
 31
0.0
  0
LINE
  5
50A
100
AcDbEntity
  8
スト－ル
  6
CONTINUOUS
 62
     2
100
AcDbLine
 10
1593.573914
 20
697.000122
 30
0.0
 11
1600.552026
 21
594.322072
 31
0.0
  0
LINE
  5
50B
100
AcDbEntity
  8
スト－ル
  6
CONTINUOUS
 62
     2
100
AcDbLine
 10
1602.136669
 20
602.407831
 30
0.0
 11
1596.822499
 21
697.000122
 31
0.0
  0
TEXT
  5
50C
100
AcDbEntity
  8
スト－ル
  6
CONTINUOUS
 62
     2
100
AcDbText
 10
1167.360718
 20
434.938855
 30
0.0
 40
40.0
  1
ＶＵ５０　　ＶＰ５０
 41
0.7182
  7
EXCADSTD
 72
     5
 11
1509.360713
 21
434.938855
 31
0.0
100
AcDbText
  0
TEXT
  5
50D
100
AcDbEntity
  8
スト－ル
  6
CONTINUOUS
 62
     2
100
AcDbText
 10
1311.915741
 20
434.938855
 30
0.0
 40
25.0
  1
ＯＲ
 41
0.8568
  7
EXCADSTD
 72
     5
 11
1358.662342
 21
434.938855
 31
0.0
100
AcDbText
  0
LINE
  5
50E
100
AcDbEntity
  8
スト－ル
  6
CONTINUOUS
 62
     6
100
AcDbLine
 10
1169.776916
 20
431.438794
 30
0.0
 11
1498.777069
 21
431.438794
 31
0.0
  0
LINE
  5
50F
100
AcDbEntity
  8
スト－ル
  6
CONTINUOUS
 62
     6
100
AcDbLine
 10
1570.810394
 20
561.064789
 30
0.0
 11
1570.810394
 21
717.000122
 31
0.0
  0
LINE
  5
510
100
AcDbEntity
  8
スト－ル
  6
CONTINUOUS
 62
     3
100
AcDbLine
 10
803.80987
 20
2601.000153
 30
0.0
 11
896.8099
 21
2601.000153
 31
0.0
  0
LINE
  5
511
100
AcDbEntity
  8
スト－ル
  6
CONTINUOUS
 62
     3
100
AcDbLine
 10
656.8099
 20
2221.000153
 30
0.0
 11
896.8099
 21
2221.000153
 31
0.0
  0
POLYLINE
  5
512
100
AcDbEntity
  8
スト－ル
  6
CONTINUOUS
 62
     3
100
AcDb2dPolyline
 66
     1
 10
0.0
 20
0.0
 30
0.0
 70
   128
  0
VERTEX
  5
513
100
AcDbEntity
  8
スト－ル
  6
CONTINUOUS
 62
     3
100
AcDbVertex
100
AcDb2dVertex
 10
885.868586
 20
2567.19278
 30
0.0
  0
VERTEX
  5
514
100
AcDbEntity
  8
スト－ル
  6
CONTINUOUS
 62
     3
100
AcDbVertex
100
AcDb2dVertex
 10
876.8099
 20
2601.000153
 30
0.0
  0
VERTEX
  5
515
100
AcDbEntity
  8
スト－ル
  6
CONTINUOUS
 62
     3
100
AcDbVertex
100
AcDb2dVertex
 10
867.751215
 20
2567.19278
 30
0.0
  0
SEQEND
  5
516
100
AcDbEntity
  8
スト－ル
  6
CONTINUOUS
 62
     3
  0
POLYLINE
  5
517
100
AcDbEntity
  8
スト－ル
  6
CONTINUOUS
 62
     3
100
AcDb2dPolyline
 66
     1
 10
0.0
 20
0.0
 30
0.0
 70
   128
  0
VERTEX
  5
518
100
AcDbEntity
  8
スト－ル
  6
CONTINUOUS
 62
     3
100
AcDbVertex
100
AcDb2dVertex
 10
867.751215
 20
2254.807526
 30
0.0
  0
VERTEX
  5
519
100
AcDbEntity
  8
スト－ル
  6
CONTINUOUS
 62
     3
100
AcDbVertex
100
AcDb2dVertex
 10
876.8099
 20
2221.000153
 30
0.0
  0
VERTEX
  5
51A
100
AcDbEntity
  8
スト－ル
  6
CONTINUOUS
 62
     3
100
AcDbVertex
100
AcDb2dVertex
 10
885.868586
 20
2254.807526
 30
0.0
  0
SEQEND
  5
51B
100
AcDbEntity
  8
スト－ル
  6
CONTINUOUS
 62
     3
  0
LINE
  5
51C
100
AcDbEntity
  8
スト－ル
  6
CONTINUOUS
 62
     3
100
AcDbLine
 10
876.8099
 20
2601.000153
 30
0.0
 11
876.8099
 21
2221.000153
 31
0.0
  0
TEXT
  5
51D
100
AcDbEntity
  8
スト－ル
  6
CONTINUOUS
 62
     2
100
AcDbText
 10
873.309839
 20
2353.000122
 30
0.0
 40
40.0
  1
３８０
 50
90.0
 41
0.833
  7
EXCADSTD
 72
     5
 11
873.309839
 21
2472.000122
 31
0.0
100
AcDbText
  0
ARC
  5
51E
100
AcDbEntity
  8
スト－ル
  6
CONTINUOUS
 62
     7
100
AcDbCircle
 10
31.813562
 20
2745.988556
 30
0.0
 40
800.0
100
AcDbArc
 50
323.904053
 51
330.727295
  0
ARC
  5
51F
100
AcDbEntity
  8
スト－ル
  6
CONTINUOUS
 62
     7
100
AcDbCircle
 10
1241.806238
 20
2745.988678
 30
0.0
 40
800.0
100
AcDbArc
 50
209.272705
 51
216.095947
  0
ARC
  5
520
100
AcDbEntity
  8
スト－ル
  6
CONTINUOUS
 62
     7
100
AcDbCircle
 10
1318.124475
 20
2904.339997
 30
0.0
 40
1000.0
100
AcDbArc
 50
216.084229
 51
221.530151
  0
ARC
  5
521
100
AcDbEntity
  8
スト－ル
  6
CONTINUOUS
 62
     7
100
AcDbCircle
 10
-44.504797
 20
2904.339875
 30
0.0
 40
1000.0
100
AcDbArc
 50
318.469849
 51
323.915771
  0
LINE
  5
522
100
AcDbEntity
  8
スト－ル
  6
EXLTYPE3
 62
     1
100
AcDbLine
 10
636.8099
 20
2206.000153
 30
0.0
 11
636.8099
 21
2631.615998
 31
0.0
  0
ARC
  5
523
100
AcDbEntity
  8
スト－ル
  6
CONTINUOUS
 62
     7
100
AcDbCircle
 10
619.622156
 20
2292.351258
 30
0.0
 40
30.0
100
AcDbArc
 50
216.095886
 51
261.010254
  0
ARC
  5
524
100
AcDbEntity
  8
スト－ル
  6
CONTINUOUS
 62
     7
100
AcDbCircle
 10
636.8099
 20
2401.000153
 30
0.0
 40
180.0
100
AcDbArc
 50
256.720459
 51
283.279663
  0
ARC
  5
525
100
AcDbEntity
  8
スト－ル
  6
CONTINUOUS
 62
     7
100
AcDbCircle
 10
606.948572
 20
2274.475892
 30
0.0
 40
50.0
100
AcDbArc
 50
221.530334
 51
256.720215
  0
ARC
  5
526
100
AcDbEntity
  8
スト－ル
  6
CONTINUOUS
 62
     7
100
AcDbCircle
 10
666.671472
 20
2274.475892
 30
0.0
 40
50.0
100
AcDbArc
 50
283.279541
 51
318.46991
  0
ARC
  5
527
100
AcDbEntity
  8
スト－ル
  6
CONTINUOUS
 62
     7
100
AcDbCircle
 10
636.8099
 20
2401.000153
 30
0.0
 40
140.0
100
AcDbArc
 50
261.010498
 51
278.989624
  0
ARC
  5
528
100
AcDbEntity
  8
スト－ル
  6
CONTINUOUS
 62
     7
100
AcDbCircle
 10
653.997888
 20
2292.351258
 30
0.0
 40
30.0
100
AcDbArc
 50
278.990234
 51
323.904053
  0
LINE
  5
529
100
AcDbEntity
  8
スト－ル
  6
CONTINUOUS
 62
     7
100
AcDbLine
 10
796.806238
 20
2601.000153
 30
0.0
 11
476.81405
 21
2601.000153
 31
0.0
  0
LINE
  5
52A
100
AcDbEntity
  8
スト－ル
  6
CONTINUOUS
 62
     7
100
AcDbLine
 10
730.997431
 20
2435.794892
 30
0.0
 11
758.904871
 21
2403.685456
 31
0.0
  0
ARC
  5
52B
100
AcDbEntity
  8
スト－ル
  6
CONTINUOUS
 62
     7
100
AcDbCircle
 10
6490.472986
 20
2727.651032
 30
0.0
 40
6000.0
100
AcDbArc
 50
181.209473
 51
183.043274
  0
ARC
  5
52C
100
AcDbEntity
  8
スト－ル
  6
CONTINUOUS
 62
     7
100
AcDbCircle
 10
6476.732752
 20
2632.155671
 30
0.0
 40
6000.0
100
AcDbArc
 50
180.297485
 51
182.237976
  0
ARC
  5
52D
100
AcDbEntity
  8
スト－ル
  6
CONTINUOUS
 62
     7
100
AcDbCircle
 10
636.810388
 20
1246.003083
 30
0.0
 40
1200.0
100
AcDbArc
 50
86.377075
 51
93.622955
  0
ARC
  5
52E
100
AcDbEntity
  8
スト－ル
  6
CONTINUOUS
 62
     7
100
AcDbCircle
 10
631.194666
 20
2403.711701
 30
0.0
 40
100.0
100
AcDbArc
 50
182.237976
 51
209.272766
  0
ARC
  5
52F
100
AcDbEntity
  8
スト－ル
  6
CONTINUOUS
 62
     7
100
AcDbCircle
 10
631.194666
 20
2403.711701
 30
0.0
 40
150.0
100
AcDbArc
 50
182.237976
 51
216.084229
  0
LINE
  5
530
100
AcDbEntity
  8
スト－ル
  6
CONTINUOUS
 62
     7
100
AcDbLine
 10
542.622369
 20
2435.794892
 30
0.0
 11
514.714929
 21
2403.685456
 31
0.0
  0
ARC
  5
531
100
AcDbEntity
  8
スト－ル
  6
CONTINUOUS
 62
     7
100
AcDbCircle
 10
507.921961
 20
2409.589386
 30
0.0
 40
9.0
100
AcDbArc
 50
183.043274
 51
319.006042
  0
ARC
  5
532
100
AcDbEntity
  8
スト－ル
  6
CONTINUOUS
 62
     7
100
AcDbCircle
 10
6476.732752
 20
2632.155671
 30
0.0
 40
5950.0
100
AcDbArc
 50
182.026123
 51
182.237976
  0
ARC
  5
533
100
AcDbEntity
  8
スト－ル
  6
CONTINUOUS
 62
     7
100
AcDbCircle
 10
562.877283
 20
2413.664826
 30
0.0
 40
30.0
100
AcDbArc
 50
93.623047
 51
132.46701
  0
ARC
  5
534
100
AcDbEntity
  8
スト－ル
  6
CONTINUOUS
 62
     7
100
AcDbCircle
 10
642.425623
 20
2403.711701
 30
0.0
 40
100.0
100
AcDbArc
 50
330.727234
 51
357.762024
  0
ARC
  5
535
100
AcDbEntity
  8
スト－ル
  6
CONTINUOUS
 62
     7
100
AcDbCircle
 10
-5203.112952
 20
2632.154816
 30
0.0
 40
5950.0
100
AcDbArc
 50
357.762024
 51
357.973877
  0
ARC
  5
536
100
AcDbEntity
  8
スト－ル
  6
CONTINUOUS
 62
     7
100
AcDbCircle
 10
710.742517
 20
2413.664826
 30
0.0
 40
30.0
100
AcDbArc
 50
47.53299
 51
86.376953
  0
ARC
  5
537
100
AcDbEntity
  8
スト－ル
  6
CONTINUOUS
 62
     7
100
AcDbCircle
 10
-5203.112952
 20
2632.154816
 30
0.0
 40
6000.0
100
AcDbArc
 50
357.762024
 51
359.702515
  0
ARC
  5
538
100
AcDbEntity
  8
スト－ル
  6
CONTINUOUS
 62
     7
100
AcDbCircle
 10
-5216.853186
 20
2727.651032
 30
0.0
 40
6000.0
100
AcDbArc
 50
356.956726
 51
358.790527
  0
ARC
  5
539
100
AcDbEntity
  8
スト－ル
  6
CONTINUOUS
 62
     7
100
AcDbCircle
 10
642.425623
 20
2403.711701
 30
0.0
 40
150.0
100
AcDbArc
 50
323.915649
 51
357.762024
  0
ARC
  5
53A
100
AcDbEntity
  8
スト－ル
  6
CONTINUOUS
 62
     7
100
AcDbCircle
 10
765.697839
 20
2409.589386
 30
0.0
 40
9.0
100
AcDbArc
 50
220.996277
 51
356.956726
  0
LINE
  5
53B
100
AcDbEntity
  8
スト－ル
  6
CONTINUOUS
 62
     3
100
AcDbLine
 10
721.810394
 20
487.0
 30
0.0
 11
721.810394
 21
580.0
 31
0.0
  0
LINE
  5
53C
100
AcDbEntity
  8
スト－ル
  6
CONTINUOUS
 62
     3
100
AcDbLine
 10
551.810394
 20
487.0
 30
0.0
 11
551.810394
 21
580.0
 31
0.0
  0
LINE
  5
53D
100
AcDbEntity
  8
スト－ル
  6
CONTINUOUS
 62
     6
100
AcDbLine
 10
650.310455
 20
1482.727997
 30
0.0
 11
650.310455
 21
1493.26358
 31
0.0
  0
ARC
  5
53E
100
AcDbEntity
  8
スト－ル
  6
CONTINUOUS
 62
     6
100
AcDbCircle
 10
641.810089
 20
1487.995789
 30
0.0
 40
10.000286
100
AcDbArc
 50
31.787048
 51
36.869019
  0
LINE
  5
53F
100
AcDbEntity
  8
スト－ル
  6
CONTINUOUS
 62
     6
100
AcDbLine
 10
623.810364
 20
1493.99585
 30
0.0
 11
649.810425
 21
1493.99585
 31
0.0
  0
ARC
  5
540
100
AcDbEntity
  8
スト－ル
  6
CONTINUOUS
 62
     6
100
AcDbCircle
 10
631.8107
 20
1487.995789
 30
0.0
 40
10.000305
100
AcDbArc
 50
143.130981
 51
148.212967
  0
LINE
  5
541
100
AcDbEntity
  8
スト－ル
  6
CONTINUOUS
 62
     6
100
AcDbLine
 10
623.310333
 20
1482.727997
 30
0.0
 11
623.310333
 21
1493.26358
 31
0.0
  0
ARC
  5
542
100
AcDbEntity
  8
スト－ル
  6
CONTINUOUS
 62
     6
100
AcDbCircle
 10
631.8107
 20
1487.995789
 30
0.0
 40
10.000286
100
AcDbArc
 50
211.787033
 51
216.869019
  0
LINE
  5
543
100
AcDbEntity
  8
スト－ル
  6
CONTINUOUS
 62
     6
100
AcDbLine
 10
623.810364
 20
1481.995728
 30
0.0
 11
649.810425
 21
1481.995728
 31
0.0
  0
ARC
  5
544
100
AcDbEntity
  8
スト－ル
  6
CONTINUOUS
 62
     6
100
AcDbCircle
 10
641.810089
 20
1487.995789
 30
0.0
 40
10.000305
100
AcDbArc
 50
323.130981
 51
328.212952
  0
POLYLINE
  5
545
100
AcDbEntity
  8
スト－ル
  6
CONTINUOUS
 62
     6
100
AcDb2dPolyline
 66
     1
 10
0.0
 20
0.0
 30
0.0
 70
   128
  0
VERTEX
  5
546
100
AcDbEntity
  8
スト－ル
  6
CONTINUOUS
 62
     6
100
AcDbVertex
100
AcDb2dVertex
 10
649.222504
 20
1487.996094
 30
0.0
  0
VERTEX
  5
547
100
AcDbEntity
  8
スト－ル
  6
CONTINUOUS
 62
     6
100
AcDbVertex
100
AcDb2dVertex
 10
649.200836
 20
1488.455231
 30
0.0
  0
VERTEX
  5
548
100
AcDbEntity
  8
スト－ル
  6
CONTINUOUS
 62
     6
100
AcDbVertex
100
AcDb2dVertex
 10
649.136444
 20
1488.911163
 30
0.0
  0
VERTEX
  5
549
100
AcDbEntity
  8
スト－ル
  6
CONTINUOUS
 62
     6
100
AcDbVertex
100
AcDb2dVertex
 10
649.02948
 20
1489.359467
 30
0.0
  0
VERTEX
  5
54A
100
AcDbEntity
  8
スト－ル
  6
CONTINUOUS
 62
     6
100
AcDbVertex
100
AcDb2dVertex
 10
648.880859
 20
1489.797699
 30
0.0
  0
VERTEX
  5
54B
100
AcDbEntity
  8
スト－ル
  6
CONTINUOUS
 62
     6
100
AcDbVertex
100
AcDb2dVertex
 10
648.691956
 20
1490.222504
 30
0.0
  0
VERTEX
  5
54C
100
AcDbEntity
  8
スト－ル
  6
CONTINUOUS
 62
     6
100
AcDbVertex
100
AcDb2dVertex
 10
648.463989
 20
1490.629913
 30
0.0
  0
VERTEX
  5
54D
100
AcDbEntity
  8
スト－ル
  6
CONTINUOUS
 62
     6
100
AcDbVertex
100
AcDb2dVertex
 10
648.198486
 20
1491.017487
 30
0.0
  0
VERTEX
  5
54E
100
AcDbEntity
  8
スト－ル
  6
CONTINUOUS
 62
     6
100
AcDbVertex
100
AcDb2dVertex
 10
647.897888
 20
1491.382324
 30
0.0
  0
VERTEX
  5
54F
100
AcDbEntity
  8
スト－ル
  6
CONTINUOUS
 62
     6
100
AcDbVertex
100
AcDb2dVertex
 10
647.564179
 20
1491.720917
 30
0.0
  0
VERTEX
  5
550
100
AcDbEntity
  8
スト－ル
  6
CONTINUOUS
 62
     6
100
AcDbVertex
100
AcDb2dVertex
 10
647.199951
 20
1492.031433
 30
0.0
  0
VERTEX
  5
551
100
AcDbEntity
  8
スト－ル
  6
CONTINUOUS
 62
     6
100
AcDbVertex
100
AcDb2dVertex
 10
646.808106
 20
1492.311127
 30
0.0
  0
VERTEX
  5
552
100
AcDbEntity
  8
スト－ル
  6
CONTINUOUS
 62
     6
100
AcDbVertex
100
AcDb2dVertex
 10
646.391541
 20
1492.558014
 30
0.0
  0
VERTEX
  5
553
100
AcDbEntity
  8
スト－ル
  6
CONTINUOUS
 62
     6
100
AcDbVertex
100
AcDb2dVertex
 10
645.953461
 20
1492.770264
 30
0.0
  0
VERTEX
  5
554
100
AcDbEntity
  8
スト－ル
  6
CONTINUOUS
 62
     6
100
AcDbVertex
100
AcDb2dVertex
 10
645.49707
 20
1492.946198
 30
0.0
  0
VERTEX
  5
555
100
AcDbEntity
  8
スト－ル
  6
CONTINUOUS
 62
     6
100
AcDbVertex
100
AcDb2dVertex
 10
645.026032
 20
1493.084137
 30
0.0
  0
VERTEX
  5
556
100
AcDbEntity
  8
スト－ル
  6
CONTINUOUS
 62
     6
100
AcDbVertex
100
AcDb2dVertex
 10
644.543854
 20
1493.183624
 30
0.0
  0
VERTEX
  5
557
100
AcDbEntity
  8
スト－ル
  6
CONTINUOUS
 62
     6
100
AcDbVertex
100
AcDb2dVertex
 10
644.054047
 20
1493.243591
 30
0.0
  0
VERTEX
  5
558
100
AcDbEntity
  8
スト－ル
  6
CONTINUOUS
 62
     6
100
AcDbVertex
100
AcDb2dVertex
 10
643.560577
 20
1493.263733
 30
0.0
  0
VERTEX
  5
559
100
AcDbEntity
  8
スト－ル
  6
CONTINUOUS
 62
     6
100
AcDbVertex
100
AcDb2dVertex
 10
643.067108
 20
1493.243744
 30
0.0
  0
VERTEX
  5
55A
100
AcDbEntity
  8
スト－ル
  6
CONTINUOUS
 62
     6
100
AcDbVertex
100
AcDb2dVertex
 10
642.577301
 20
1493.183777
 30
0.0
  0
VERTEX
  5
55B
100
AcDbEntity
  8
スト－ル
  6
CONTINUOUS
 62
     6
100
AcDbVertex
100
AcDb2dVertex
 10
642.095123
 20
1493.084137
 30
0.0
  0
VERTEX
  5
55C
100
AcDbEntity
  8
スト－ル
  6
CONTINUOUS
 62
     6
100
AcDbVertex
100
AcDb2dVertex
 10
641.624084
 20
1492.945892
 30
0.0
  0
VERTEX
  5
55D
100
AcDbEntity
  8
スト－ル
  6
CONTINUOUS
 62
     6
100
AcDbVertex
100
AcDb2dVertex
 10
641.167694
 20
1492.769959
 30
0.0
  0
VERTEX
  5
55E
100
AcDbEntity
  8
スト－ル
  6
CONTINUOUS
 62
     6
100
AcDbVertex
100
AcDb2dVertex
 10
640.729462
 20
1492.558014
 30
0.0
  0
VERTEX
  5
55F
100
AcDbEntity
  8
スト－ル
  6
CONTINUOUS
 62
     6
100
AcDbVertex
100
AcDb2dVertex
 10
640.312897
 20
1492.311127
 30
0.0
  0
VERTEX
  5
560
100
AcDbEntity
  8
スト－ル
  6
CONTINUOUS
 62
     6
100
AcDbVertex
100
AcDb2dVertex
 10
639.921051
 20
1492.031433
 30
0.0
  0
VERTEX
  5
561
100
AcDbEntity
  8
スト－ル
  6
CONTINUOUS
 62
     6
100
AcDbVertex
100
AcDb2dVertex
 10
639.556824
 20
1491.720917
 30
0.0
  0
VERTEX
  5
562
100
AcDbEntity
  8
スト－ル
  6
CONTINUOUS
 62
     6
100
AcDbVertex
100
AcDb2dVertex
 10
639.223114
 20
1491.382172
 30
0.0
  0
VERTEX
  5
563
100
AcDbEntity
  8
スト－ル
  6
CONTINUOUS
 62
     6
100
AcDbVertex
100
AcDb2dVertex
 10
638.922516
 20
1491.017639
 30
0.0
  0
VERTEX
  5
564
100
AcDbEntity
  8
スト－ル
  6
CONTINUOUS
 62
     6
100
AcDbVertex
100
AcDb2dVertex
 10
638.657166
 20
1490.629913
 30
0.0
  0
VERTEX
  5
565
100
AcDbEntity
  8
スト－ル
  6
CONTINUOUS
 62
     6
100
AcDbVertex
100
AcDb2dVertex
 10
638.429199
 20
1490.222351
 30
0.0
  0
VERTEX
  5
566
100
AcDbEntity
  8
スト－ル
  6
CONTINUOUS
 62
     6
100
AcDbVertex
100
AcDb2dVertex
 10
638.240143
 20
1489.797852
 30
0.0
  0
VERTEX
  5
567
100
AcDbEntity
  8
スト－ル
  6
CONTINUOUS
 62
     6
100
AcDbVertex
100
AcDb2dVertex
 10
638.091522
 20
1489.359467
 30
0.0
  0
VERTEX
  5
568
100
AcDbEntity
  8
スト－ル
  6
CONTINUOUS
 62
     6
100
AcDbVertex
100
AcDb2dVertex
 10
637.984711
 20
1488.910858
 30
0.0
  0
VERTEX
  5
569
100
AcDbEntity
  8
スト－ル
  6
CONTINUOUS
 62
     6
100
AcDbVertex
100
AcDb2dVertex
 10
637.920166
 20
1488.455231
 30
0.0
  0
VERTEX
  5
56A
100
AcDbEntity
  8
スト－ル
  6
CONTINUOUS
 62
     6
100
AcDbVertex
100
AcDb2dVertex
 10
637.898651
 20
1487.996094
 30
0.0
  0
VERTEX
  5
56B
100
AcDbEntity
  8
スト－ル
  6
CONTINUOUS
 62
     6
100
AcDbVertex
100
AcDb2dVertex
 10
637.920319
 20
1487.537109
 30
0.0
  0
VERTEX
  5
56C
100
AcDbEntity
  8
スト－ル
  6
CONTINUOUS
 62
     6
100
AcDbVertex
100
AcDb2dVertex
 10
637.984711
 20
1487.081635
 30
0.0
  0
VERTEX
  5
56D
100
AcDbEntity
  8
スト－ル
  6
CONTINUOUS
 62
     6
100
AcDbVertex
100
AcDb2dVertex
 10
638.091522
 20
1486.632416
 30
0.0
  0
VERTEX
  5
56E
100
AcDbEntity
  8
スト－ル
  6
CONTINUOUS
 62
     6
100
AcDbVertex
100
AcDb2dVertex
 10
638.240143
 20
1486.194183
 30
0.0
  0
VERTEX
  5
56F
100
AcDbEntity
  8
スト－ル
  6
CONTINUOUS
 62
     6
100
AcDbVertex
100
AcDb2dVertex
 10
638.429047
 20
1485.769379
 30
0.0
  0
VERTEX
  5
570
100
AcDbEntity
  8
スト－ル
  6
CONTINUOUS
 62
     6
100
AcDbVertex
100
AcDb2dVertex
 10
638.657166
 20
1485.361816
 30
0.0
  0
VERTEX
  5
571
100
AcDbEntity
  8
スト－ル
  6
CONTINUOUS
 62
     6
100
AcDbVertex
100
AcDb2dVertex
 10
638.922668
 20
1484.974243
 30
0.0
  0
VERTEX
  5
572
100
AcDbEntity
  8
スト－ル
  6
CONTINUOUS
 62
     6
100
AcDbVertex
100
AcDb2dVertex
 10
639.223267
 20
1484.609406
 30
0.0
  0
VERTEX
  5
573
100
AcDbEntity
  8
スト－ル
  6
CONTINUOUS
 62
     6
100
AcDbVertex
100
AcDb2dVertex
 10
639.556824
 20
1484.270966
 30
0.0
  0
VERTEX
  5
574
100
AcDbEntity
  8
スト－ル
  6
CONTINUOUS
 62
     6
100
AcDbVertex
100
AcDb2dVertex
 10
639.921051
 20
1483.960449
 30
0.0
  0
VERTEX
  5
575
100
AcDbEntity
  8
スト－ル
  6
CONTINUOUS
 62
     6
100
AcDbVertex
100
AcDb2dVertex
 10
640.312897
 20
1483.680756
 30
0.0
  0
VERTEX
  5
576
100
AcDbEntity
  8
スト－ル
  6
CONTINUOUS
 62
     6
100
AcDbVertex
100
AcDb2dVertex
 10
640.729462
 20
1483.433868
 30
0.0
  0
VERTEX
  5
577
100
AcDbEntity
  8
スト－ル
  6
CONTINUOUS
 62
     6
100
AcDbVertex
100
AcDb2dVertex
 10
641.167542
 20
1483.221619
 30
0.0
  0
VERTEX
  5
578
100
AcDbEntity
  8
スト－ル
  6
CONTINUOUS
 62
     6
100
AcDbVertex
100
AcDb2dVertex
 10
641.623932
 20
1483.045685
 30
0.0
  0
VERTEX
  5
579
100
AcDbEntity
  8
スト－ル
  6
CONTINUOUS
 62
     6
100
AcDbVertex
100
AcDb2dVertex
 10
642.095123
 20
1482.907593
 30
0.0
  0
VERTEX
  5
57A
100
AcDbEntity
  8
スト－ル
  6
CONTINUOUS
 62
     6
100
AcDbVertex
100
AcDb2dVertex
 10
642.577454
 20
1482.808106
 30
0.0
  0
VERTEX
  5
57B
100
AcDbEntity
  8
スト－ル
  6
CONTINUOUS
 62
     6
100
AcDbVertex
100
AcDb2dVertex
 10
643.067108
 20
1482.748138
 30
0.0
  0
VERTEX
  5
57C
100
AcDbEntity
  8
スト－ル
  6
CONTINUOUS
 62
     6
100
AcDbVertex
100
AcDb2dVertex
 10
643.560577
 20
1482.727844
 30
0.0
  0
VERTEX
  5
57D
100
AcDbEntity
  8
スト－ル
  6
CONTINUOUS
 62
     6
100
AcDbVertex
100
AcDb2dVertex
 10
644.054047
 20
1482.747833
 30
0.0
  0
VERTEX
  5
57E
100
AcDbEntity
  8
スト－ル
  6
CONTINUOUS
 62
     6
100
AcDbVertex
100
AcDb2dVertex
 10
644.543854
 20
1482.8078
 30
0.0
  0
VERTEX
  5
57F
100
AcDbEntity
  8
スト－ル
  6
CONTINUOUS
 62
     6
100
AcDbVertex
100
AcDb2dVertex
 10
645.026032
 20
1482.907593
 30
0.0
  0
VERTEX
  5
580
100
AcDbEntity
  8
スト－ル
  6
CONTINUOUS
 62
     6
100
AcDbVertex
100
AcDb2dVertex
 10
645.49707
 20
1483.045837
 30
0.0
  0
VERTEX
  5
581
100
AcDbEntity
  8
スト－ル
  6
CONTINUOUS
 62
     6
100
AcDbVertex
100
AcDb2dVertex
 10
645.953461
 20
1483.221771
 30
0.0
  0
SEQEND
  5
582
100
AcDbEntity
  8
スト－ル
  6
CONTINUOUS
 62
     6
  0
POLYLINE
  5
583
100
AcDbEntity
  8
スト－ル
  6
CONTINUOUS
 62
     6
100
AcDb2dPolyline
 66
     1
 10
0.0
 20
0.0
 30
0.0
 70
   128
  0
VERTEX
  5
584
100
AcDbEntity
  8
スト－ル
  6
CONTINUOUS
 62
     6
100
AcDbVertex
100
AcDb2dVertex
 10
645.953461
 20
1483.221771
 30
0.0
  0
VERTEX
  5
585
100
AcDbEntity
  8
スト－ル
  6
CONTINUOUS
 62
     6
100
AcDbVertex
100
AcDb2dVertex
 10
646.391541
 20
1483.433868
 30
0.0
  0
VERTEX
  5
586
100
AcDbEntity
  8
スト－ル
  6
CONTINUOUS
 62
     6
100
AcDbVertex
100
AcDb2dVertex
 10
646.808106
 20
1483.680756
 30
0.0
  0
VERTEX
  5
587
100
AcDbEntity
  8
スト－ル
  6
CONTINUOUS
 62
     6
100
AcDbVertex
100
AcDb2dVertex
 10
647.199951
 20
1483.960449
 30
0.0
  0
VERTEX
  5
588
100
AcDbEntity
  8
スト－ル
  6
CONTINUOUS
 62
     6
100
AcDbVertex
100
AcDb2dVertex
 10
647.564179
 20
1484.270966
 30
0.0
  0
VERTEX
  5
589
100
AcDbEntity
  8
スト－ル
  6
CONTINUOUS
 62
     6
100
AcDbVertex
100
AcDb2dVertex
 10
647.897888
 20
1484.609711
 30
0.0
  0
VERTEX
  5
58A
100
AcDbEntity
  8
スト－ル
  6
CONTINUOUS
 62
     6
100
AcDbVertex
100
AcDb2dVertex
 10
648.198486
 20
1484.974243
 30
0.0
  0
VERTEX
  5
58B
100
AcDbEntity
  8
スト－ル
  6
CONTINUOUS
 62
     6
100
AcDbVertex
100
AcDb2dVertex
 10
648.463989
 20
1485.361816
 30
0.0
  0
VERTEX
  5
58C
100
AcDbEntity
  8
スト－ル
  6
CONTINUOUS
 62
     6
100
AcDbVertex
100
AcDb2dVertex
 10
648.691956
 20
1485.769379
 30
0.0
  0
VERTEX
  5
58D
100
AcDbEntity
  8
スト－ル
  6
CONTINUOUS
 62
     6
100
AcDbVertex
100
AcDb2dVertex
 10
648.881012
 20
1486.193878
 30
0.0
  0
VERTEX
  5
58E
100
AcDbEntity
  8
スト－ル
  6
CONTINUOUS
 62
     6
100
AcDbVertex
100
AcDb2dVertex
 10
649.02948
 20
1486.632416
 30
0.0
  0
SEQEND
  5
58F
100
AcDbEntity
  8
スト－ル
  6
CONTINUOUS
 62
     6
  0
POLYLINE
  5
590
100
AcDbEntity
  8
スト－ル
  6
CONTINUOUS
 62
     6
100
AcDb2dPolyline
 66
     1
 10
0.0
 20
0.0
 30
0.0
 70
   128
  0
VERTEX
  5
591
100
AcDbEntity
  8
スト－ル
  6
CONTINUOUS
 62
     6
100
AcDbVertex
100
AcDb2dVertex
 10
649.02948
 20
1486.632416
 30
0.0
  0
VERTEX
  5
592
100
AcDbEntity
  8
スト－ル
  6
CONTINUOUS
 62
     6
100
AcDbVertex
100
AcDb2dVertex
 10
649.136292
 20
1487.081024
 30
0.0
  0
VERTEX
  5
593
100
AcDbEntity
  8
スト－ル
  6
CONTINUOUS
 62
     6
100
AcDbVertex
100
AcDb2dVertex
 10
649.200836
 20
1487.536652
 30
0.0
  0
VERTEX
  5
594
100
AcDbEntity
  8
スト－ル
  6
CONTINUOUS
 62
     6
100
AcDbVertex
100
AcDb2dVertex
 10
649.222351
 20
1487.995483
 30
0.0
  0
SEQEND
  5
595
100
AcDbEntity
  8
スト－ル
  6
CONTINUOUS
 62
     6
  0
POLYLINE
  5
596
100
AcDbEntity
  8
スト－ル
  6
CONTINUOUS
 62
     6
100
AcDb2dPolyline
 66
     1
 10
0.0
 20
0.0
 30
0.0
 70
   128
  0
VERTEX
  5
597
100
AcDbEntity
  8
スト－ル
  6
CONTINUOUS
 62
     6
100
AcDbVertex
100
AcDb2dVertex
 10
635.722748
 20
1487.996094
 30
0.0
  0
VERTEX
  5
598
100
AcDbEntity
  8
スト－ル
  6
CONTINUOUS
 62
     6
100
AcDbVertex
100
AcDb2dVertex
 10
635.70108
 20
1488.455231
 30
0.0
  0
VERTEX
  5
599
100
AcDbEntity
  8
スト－ル
  6
CONTINUOUS
 62
     6
100
AcDbVertex
100
AcDb2dVertex
 10
635.636688
 20
1488.911163
 30
0.0
  0
VERTEX
  5
59A
100
AcDbEntity
  8
スト－ル
  6
CONTINUOUS
 62
     6
100
AcDbVertex
100
AcDb2dVertex
 10
635.529877
 20
1489.359467
 30
0.0
  0
VERTEX
  5
59B
100
AcDbEntity
  8
スト－ル
  6
CONTINUOUS
 62
     6
100
AcDbVertex
100
AcDb2dVertex
 10
635.381256
 20
1489.797699
 30
0.0
  0
VERTEX
  5
59C
100
AcDbEntity
  8
スト－ル
  6
CONTINUOUS
 62
     6
100
AcDbVertex
100
AcDb2dVertex
 10
635.192352
 20
1490.222504
 30
0.0
  0
VERTEX
  5
59D
100
AcDbEntity
  8
スト－ル
  6
CONTINUOUS
 62
     6
100
AcDbVertex
100
AcDb2dVertex
 10
634.964233
 20
1490.629913
 30
0.0
  0
VERTEX
  5
59E
100
AcDbEntity
  8
スト－ル
  6
CONTINUOUS
 62
     6
100
AcDbVertex
100
AcDb2dVertex
 10
634.698731
 20
1491.017487
 30
0.0
  0
VERTEX
  5
59F
100
AcDbEntity
  8
スト－ル
  6
CONTINUOUS
 62
     6
100
AcDbVertex
100
AcDb2dVertex
 10
634.39798
 20
1491.382324
 30
0.0
  0
VERTEX
  5
5A0
100
AcDbEntity
  8
スト－ル
  6
CONTINUOUS
 62
     6
100
AcDbVertex
100
AcDb2dVertex
 10
634.06427
 20
1491.720917
 30
0.0
  0
VERTEX
  5
5A1
100
AcDbEntity
  8
スト－ル
  6
CONTINUOUS
 62
     6
100
AcDbVertex
100
AcDb2dVertex
 10
633.700043
 20
1492.031433
 30
0.0
  0
VERTEX
  5
5A2
100
AcDbEntity
  8
スト－ル
  6
CONTINUOUS
 62
     6
100
AcDbVertex
100
AcDb2dVertex
 10
633.308197
 20
1492.311127
 30
0.0
  0
VERTEX
  5
5A3
100
AcDbEntity
  8
スト－ル
  6
CONTINUOUS
 62
     6
100
AcDbVertex
100
AcDb2dVertex
 10
632.891632
 20
1492.558014
 30
0.0
  0
VERTEX
  5
5A4
100
AcDbEntity
  8
スト－ル
  6
CONTINUOUS
 62
     6
100
AcDbVertex
100
AcDb2dVertex
 10
632.4534
 20
1492.770264
 30
0.0
  0
VERTEX
  5
5A5
100
AcDbEntity
  8
スト－ル
  6
CONTINUOUS
 62
     6
100
AcDbVertex
100
AcDb2dVertex
 10
631.997009
 20
1492.946198
 30
0.0
  0
VERTEX
  5
5A6
100
AcDbEntity
  8
スト－ル
  6
CONTINUOUS
 62
     6
100
AcDbVertex
100
AcDb2dVertex
 10
631.52597
 20
1493.084137
 30
0.0
  0
VERTEX
  5
5A7
100
AcDbEntity
  8
スト－ル
  6
CONTINUOUS
 62
     6
100
AcDbVertex
100
AcDb2dVertex
 10
631.04364
 20
1493.183624
 30
0.0
  0
VERTEX
  5
5A8
100
AcDbEntity
  8
スト－ル
  6
CONTINUOUS
 62
     6
100
AcDbVertex
100
AcDb2dVertex
 10
630.553986
 20
1493.243591
 30
0.0
  0
VERTEX
  5
5A9
100
AcDbEntity
  8
スト－ル
  6
CONTINUOUS
 62
     6
100
AcDbVertex
100
AcDb2dVertex
 10
630.060364
 20
1493.263733
 30
0.0
  0
VERTEX
  5
5AA
100
AcDbEntity
  8
スト－ル
  6
CONTINUOUS
 62
     6
100
AcDbVertex
100
AcDb2dVertex
 10
629.566894
 20
1493.243744
 30
0.0
  0
VERTEX
  5
5AB
100
AcDbEntity
  8
スト－ル
  6
CONTINUOUS
 62
     6
100
AcDbVertex
100
AcDb2dVertex
 10
629.077087
 20
1493.183777
 30
0.0
  0
VERTEX
  5
5AC
100
AcDbEntity
  8
スト－ル
  6
CONTINUOUS
 62
     6
100
AcDbVertex
100
AcDb2dVertex
 10
628.59491
 20
1493.084137
 30
0.0
  0
VERTEX
  5
5AD
100
AcDbEntity
  8
スト－ル
  6
CONTINUOUS
 62
     6
100
AcDbVertex
100
AcDb2dVertex
 10
628.123871
 20
1492.945892
 30
0.0
  0
VERTEX
  5
5AE
100
AcDbEntity
  8
スト－ル
  6
CONTINUOUS
 62
     6
100
AcDbVertex
100
AcDb2dVertex
 10
627.667481
 20
1492.769959
 30
0.0
  0
VERTEX
  5
5AF
100
AcDbEntity
  8
スト－ル
  6
CONTINUOUS
 62
     6
100
AcDbVertex
100
AcDb2dVertex
 10
627.229095
 20
1492.558014
 30
0.0
  0
VERTEX
  5
5B0
100
AcDbEntity
  8
スト－ル
  6
CONTINUOUS
 62
     6
100
AcDbVertex
100
AcDb2dVertex
 10
626.81253
 20
1492.311127
 30
0.0
  0
VERTEX
  5
5B1
100
AcDbEntity
  8
スト－ル
  6
CONTINUOUS
 62
     6
100
AcDbVertex
100
AcDb2dVertex
 10
626.420685
 20
1492.031433
 30
0.0
  0
VERTEX
  5
5B2
100
AcDbEntity
  8
スト－ル
  6
CONTINUOUS
 62
     6
100
AcDbVertex
100
AcDb2dVertex
 10
626.056457
 20
1491.720917
 30
0.0
  0
VERTEX
  5
5B3
100
AcDbEntity
  8
スト－ル
  6
CONTINUOUS
 62
     6
100
AcDbVertex
100
AcDb2dVertex
 10
625.722748
 20
1491.382172
 30
0.0
  0
VERTEX
  5
5B4
100
AcDbEntity
  8
スト－ル
  6
CONTINUOUS
 62
     6
100
AcDbVertex
100
AcDb2dVertex
 10
625.421997
 20
1491.017639
 30
0.0
  0
VERTEX
  5
5B5
100
AcDbEntity
  8
スト－ル
  6
CONTINUOUS
 62
     6
100
AcDbVertex
100
AcDb2dVertex
 10
625.156647
 20
1490.629913
 30
0.0
  0
VERTEX
  5
5B6
100
AcDbEntity
  8
スト－ル
  6
CONTINUOUS
 62
     6
100
AcDbVertex
100
AcDb2dVertex
 10
624.92868
 20
1490.222351
 30
0.0
  0
VERTEX
  5
5B7
100
AcDbEntity
  8
スト－ル
  6
CONTINUOUS
 62
     6
100
AcDbVertex
100
AcDb2dVertex
 10
624.739624
 20
1489.797852
 30
0.0
  0
VERTEX
  5
5B8
100
AcDbEntity
  8
スト－ル
  6
CONTINUOUS
 62
     6
100
AcDbVertex
100
AcDb2dVertex
 10
624.591003
 20
1489.359467
 30
0.0
  0
VERTEX
  5
5B9
100
AcDbEntity
  8
スト－ル
  6
CONTINUOUS
 62
     6
100
AcDbVertex
100
AcDb2dVertex
 10
624.484192
 20
1488.910858
 30
0.0
  0
VERTEX
  5
5BA
100
AcDbEntity
  8
スト－ル
  6
CONTINUOUS
 62
     6
100
AcDbVertex
100
AcDb2dVertex
 10
624.419647
 20
1488.455231
 30
0.0
  0
VERTEX
  5
5BB
100
AcDbEntity
  8
スト－ル
  6
CONTINUOUS
 62
     6
100
AcDbVertex
100
AcDb2dVertex
 10
624.398132
 20
1487.996094
 30
0.0
  0
VERTEX
  5
5BC
100
AcDbEntity
  8
スト－ル
  6
CONTINUOUS
 62
     6
100
AcDbVertex
100
AcDb2dVertex
 10
624.4198
 20
1487.537109
 30
0.0
  0
VERTEX
  5
5BD
100
AcDbEntity
  8
スト－ル
  6
CONTINUOUS
 62
     6
100
AcDbVertex
100
AcDb2dVertex
 10
624.484192
 20
1487.081635
 30
0.0
  0
VERTEX
  5
5BE
100
AcDbEntity
  8
スト－ル
  6
CONTINUOUS
 62
     6
100
AcDbVertex
100
AcDb2dVertex
 10
624.591003
 20
1486.632416
 30
0.0
  0
VERTEX
  5
5BF
100
AcDbEntity
  8
スト－ル
  6
CONTINUOUS
 62
     6
100
AcDbVertex
100
AcDb2dVertex
 10
624.739624
 20
1486.194183
 30
0.0
  0
VERTEX
  5
5C0
100
AcDbEntity
  8
スト－ル
  6
CONTINUOUS
 62
     6
100
AcDbVertex
100
AcDb2dVertex
 10
624.928528
 20
1485.769379
 30
0.0
  0
VERTEX
  5
5C1
100
AcDbEntity
  8
スト－ル
  6
CONTINUOUS
 62
     6
100
AcDbVertex
100
AcDb2dVertex
 10
625.156647
 20
1485.361816
 30
0.0
  0
VERTEX
  5
5C2
100
AcDbEntity
  8
スト－ル
  6
CONTINUOUS
 62
     6
100
AcDbVertex
100
AcDb2dVertex
 10
625.42215
 20
1484.974243
 30
0.0
  0
VERTEX
  5
5C3
100
AcDbEntity
  8
スト－ル
  6
CONTINUOUS
 62
     6
100
AcDbVertex
100
AcDb2dVertex
 10
625.7229
 20
1484.609406
 30
0.0
  0
VERTEX
  5
5C4
100
AcDbEntity
  8
スト－ル
  6
CONTINUOUS
 62
     6
100
AcDbVertex
100
AcDb2dVertex
 10
626.056457
 20
1484.270966
 30
0.0
  0
VERTEX
  5
5C5
100
AcDbEntity
  8
スト－ル
  6
CONTINUOUS
 62
     6
100
AcDbVertex
100
AcDb2dVertex
 10
626.420685
 20
1483.960449
 30
0.0
  0
VERTEX
  5
5C6
100
AcDbEntity
  8
スト－ル
  6
CONTINUOUS
 62
     6
100
AcDbVertex
100
AcDb2dVertex
 10
626.81253
 20
1483.680756
 30
0.0
  0
VERTEX
  5
5C7
100
AcDbEntity
  8
スト－ル
  6
CONTINUOUS
 62
     6
100
AcDbVertex
100
AcDb2dVertex
 10
627.229095
 20
1483.433868
 30
0.0
  0
VERTEX
  5
5C8
100
AcDbEntity
  8
スト－ル
  6
CONTINUOUS
 62
     6
100
AcDbVertex
100
AcDb2dVertex
 10
627.667328
 20
1483.221619
 30
0.0
  0
VERTEX
  5
5C9
100
AcDbEntity
  8
スト－ル
  6
CONTINUOUS
 62
     6
100
AcDbVertex
100
AcDb2dVertex
 10
628.123718
 20
1483.045685
 30
0.0
  0
VERTEX
  5
5CA
100
AcDbEntity
  8
スト－ル
  6
CONTINUOUS
 62
     6
100
AcDbVertex
100
AcDb2dVertex
 10
628.59491
 20
1482.907593
 30
0.0
  0
VERTEX
  5
5CB
100
AcDbEntity
  8
スト－ル
  6
CONTINUOUS
 62
     6
100
AcDbVertex
100
AcDb2dVertex
 10
629.07724
 20
1482.808106
 30
0.0
  0
VERTEX
  5
5CC
100
AcDbEntity
  8
スト－ル
  6
CONTINUOUS
 62
     6
100
AcDbVertex
100
AcDb2dVertex
 10
629.566894
 20
1482.748138
 30
0.0
  0
VERTEX
  5
5CD
100
AcDbEntity
  8
スト－ル
  6
CONTINUOUS
 62
     6
100
AcDbVertex
100
AcDb2dVertex
 10
630.060364
 20
1482.727844
 30
0.0
  0
VERTEX
  5
5CE
100
AcDbEntity
  8
スト－ル
  6
CONTINUOUS
 62
     6
100
AcDbVertex
100
AcDb2dVertex
 10
630.553833
 20
1482.747833
 30
0.0
  0
VERTEX
  5
5CF
100
AcDbEntity
  8
スト－ル
  6
CONTINUOUS
 62
     6
100
AcDbVertex
100
AcDb2dVertex
 10
631.04364
 20
1482.8078
 30
0.0
  0
VERTEX
  5
5D0
100
AcDbEntity
  8
スト－ル
  6
CONTINUOUS
 62
     6
100
AcDbVertex
100
AcDb2dVertex
 10
631.52597
 20
1482.907593
 30
0.0
  0
VERTEX
  5
5D1
100
AcDbEntity
  8
スト－ル
  6
CONTINUOUS
 62
     6
100
AcDbVertex
100
AcDb2dVertex
 10
631.997009
 20
1483.045837
 30
0.0
  0
VERTEX
  5
5D2
100
AcDbEntity
  8
スト－ル
  6
CONTINUOUS
 62
     6
100
AcDbVertex
100
AcDb2dVertex
 10
632.4534
 20
1483.221771
 30
0.0
  0
SEQEND
  5
5D3
100
AcDbEntity
  8
スト－ル
  6
CONTINUOUS
 62
     6
  0
POLYLINE
  5
5D4
100
AcDbEntity
  8
スト－ル
  6
CONTINUOUS
 62
     6
100
AcDb2dPolyline
 66
     1
 10
0.0
 20
0.0
 30
0.0
 70
   128
  0
VERTEX
  5
5D5
100
AcDbEntity
  8
スト－ル
  6
CONTINUOUS
 62
     6
100
AcDbVertex
100
AcDb2dVertex
 10
632.4534
 20
1483.221771
 30
0.0
  0
VERTEX
  5
5D6
100
AcDbEntity
  8
スト－ル
  6
CONTINUOUS
 62
     6
100
AcDbVertex
100
AcDb2dVertex
 10
632.891632
 20
1483.433868
 30
0.0
  0
VERTEX
  5
5D7
100
AcDbEntity
  8
スト－ル
  6
CONTINUOUS
 62
     6
100
AcDbVertex
100
AcDb2dVertex
 10
633.308197
 20
1483.680756
 30
0.0
  0
VERTEX
  5
5D8
100
AcDbEntity
  8
スト－ル
  6
CONTINUOUS
 62
     6
100
AcDbVertex
100
AcDb2dVertex
 10
633.700043
 20
1483.960449
 30
0.0
  0
VERTEX
  5
5D9
100
AcDbEntity
  8
スト－ル
  6
CONTINUOUS
 62
     6
100
AcDbVertex
100
AcDb2dVertex
 10
634.06427
 20
1484.270966
 30
0.0
  0
VERTEX
  5
5DA
100
AcDbEntity
  8
スト－ル
  6
CONTINUOUS
 62
     6
100
AcDbVertex
100
AcDb2dVertex
 10
634.39798
 20
1484.609711
 30
0.0
  0
VERTEX
  5
5DB
100
AcDbEntity
  8
スト－ル
  6
CONTINUOUS
 62
     6
100
AcDbVertex
100
AcDb2dVertex
 10
634.698731
 20
1484.974243
 30
0.0
  0
VERTEX
  5
5DC
100
AcDbEntity
  8
スト－ル
  6
CONTINUOUS
 62
     6
100
AcDbVertex
100
AcDb2dVertex
 10
634.964233
 20
1485.361816
 30
0.0
  0
VERTEX
  5
5DD
100
AcDbEntity
  8
スト－ル
  6
CONTINUOUS
 62
     6
100
AcDbVertex
100
AcDb2dVertex
 10
635.1922
 20
1485.769379
 30
0.0
  0
VERTEX
  5
5DE
100
AcDbEntity
  8
スト－ル
  6
CONTINUOUS
 62
     6
100
AcDbVertex
100
AcDb2dVertex
 10
635.381256
 20
1486.193878
 30
0.0
  0
VERTEX
  5
5DF
100
AcDbEntity
  8
スト－ル
  6
CONTINUOUS
 62
     6
100
AcDbVertex
100
AcDb2dVertex
 10
635.529877
 20
1486.632416
 30
0.0
  0
SEQEND
  5
5E0
100
AcDbEntity
  8
スト－ル
  6
CONTINUOUS
 62
     6
  0
POLYLINE
  5
5E1
100
AcDbEntity
  8
スト－ル
  6
CONTINUOUS
 62
     6
100
AcDb2dPolyline
 66
     1
 10
0.0
 20
0.0
 30
0.0
 70
   128
  0
VERTEX
  5
5E2
100
AcDbEntity
  8
スト－ル
  6
CONTINUOUS
 62
     6
100
AcDbVertex
100
AcDb2dVertex
 10
635.529877
 20
1486.632416
 30
0.0
  0
VERTEX
  5
5E3
100
AcDbEntity
  8
スト－ル
  6
CONTINUOUS
 62
     6
100
AcDbVertex
100
AcDb2dVertex
 10
635.636688
 20
1487.081024
 30
0.0
  0
VERTEX
  5
5E4
100
AcDbEntity
  8
スト－ル
  6
CONTINUOUS
 62
     6
100
AcDbVertex
100
AcDb2dVertex
 10
635.701233
 20
1487.536652
 30
0.0
  0
VERTEX
  5
5E5
100
AcDbEntity
  8
スト－ル
  6
CONTINUOUS
 62
     6
100
AcDbVertex
100
AcDb2dVertex
 10
635.722748
 20
1487.995483
 30
0.0
  0
SEQEND
  5
5E6
100
AcDbEntity
  8
スト－ル
  6
CONTINUOUS
 62
     6
  0
LINE
  5
5E7
100
AcDbEntity
  8
スト－ル
  6
CONTINUOUS
 62
     6
100
AcDbLine
 10
649.310394
 20
1478.495819
 30
0.0
 11
649.310394
 21
1481.995728
 31
0.0
  0
LINE
  5
5E8
100
AcDbEntity
  8
スト－ル
  6
CONTINUOUS
 62
     6
100
AcDbLine
 10
624.310394
 20
1478.495819
 30
0.0
 11
624.310394
 21
1481.995728
 31
0.0
  0
LINE
  5
5E9
100
AcDbEntity
  8
スト－ル
  6
CONTINUOUS
 62
     6
100
AcDbLine
 10
650.310455
 20
1476.99588
 30
0.0
 11
650.310455
 21
1471.99588
 31
0.0
  0
LINE
  5
5EA
100
AcDbEntity
  8
スト－ル
  6
CONTINUOUS
 62
     6
100
AcDbLine
 10
649.222504
 20
1478.495819
 30
0.0
 11
650.310455
 21
1476.99588
 31
0.0
  0
LINE
  5
5EB
100
AcDbEntity
  8
スト－ル
  6
CONTINUOUS
 62
     6
100
AcDbLine
 10
624.39798
 20
1478.495819
 30
0.0
 11
649.222504
 21
1478.495819
 31
0.0
  0
LINE
  5
5EC
100
AcDbEntity
  8
スト－ル
  6
CONTINUOUS
 62
     6
100
AcDbLine
 10
623.310333
 20
1476.99588
 30
0.0
 11
624.39798
 21
1478.495819
 31
0.0
  0
LINE
  5
5ED
100
AcDbEntity
  8
スト－ル
  6
CONTINUOUS
 62
     6
100
AcDbLine
 10
623.310333
 20
1476.99588
 30
0.0
 11
623.310333
 21
1471.99588
 31
0.0
  0
LINE
  5
5EE
100
AcDbEntity
  8
スト－ル
  6
CONTINUOUS
 62
     6
100
AcDbLine
 10
649.222504
 20
1476.99588
 30
0.0
 11
649.222504
 21
1471.99588
 31
0.0
  0
LINE
  5
5EF
100
AcDbEntity
  8
スト－ル
  6
CONTINUOUS
 62
     6
100
AcDbLine
 10
637.898499
 20
1476.99588
 30
0.0
 11
637.898499
 21
1471.99588
 31
0.0
  0
LINE
  5
5F0
100
AcDbEntity
  8
スト－ル
  6
CONTINUOUS
 62
     6
100
AcDbLine
 10
635.722748
 20
1476.99588
 30
0.0
 11
635.722748
 21
1471.99588
 31
0.0
  0
LINE
  5
5F1
100
AcDbEntity
  8
スト－ル
  6
CONTINUOUS
 62
     6
100
AcDbLine
 10
624.39798
 20
1476.99588
 30
0.0
 11
624.39798
 21
1471.99588
 31
0.0
  0
LINE
  5
5F2
100
AcDbEntity
  8
スト－ル
  6
CONTINUOUS
 62
     6
100
AcDbLine
 10
649.222504
 20
1476.99588
 30
0.0
 11
650.310455
 21
1476.99588
 31
0.0
  0
ARC
  5
5F3
100
AcDbEntity
  8
スト－ル
  6
CONTINUOUS
 62
     6
100
AcDbCircle
 10
643.560577
 20
1467.059357
 30
0.0
 40
11.436434
100
AcDbArc
 50
60.325043
 51
119.675568
  0
LINE
  5
5F4
100
AcDbEntity
  8
スト－ル
  6
CONTINUOUS
 62
     6
100
AcDbLine
 10
635.722748
 20
1476.99588
 30
0.0
 11
637.898499
 21
1476.99588
 31
0.0
  0
ARC
  5
5F5
100
AcDbEntity
  8
スト－ル
  6
CONTINUOUS
 62
     6
100
AcDbCircle
 10
630.060364
 20
1467.057831
 30
0.0
 40
11.437979
100
AcDbArc
 50
60.326843
 51
119.673157
  0
LINE
  5
5F6
100
AcDbEntity
  8
スト－ル
  6
CONTINUOUS
 62
     6
100
AcDbLine
 10
623.310333
 20
1476.99588
 30
0.0
 11
624.39798
 21
1476.99588
 31
0.0
  0
LINE
  5
5F7
100
AcDbEntity
  8
スト－ル
  6
CONTINUOUS
 62
     6
100
AcDbLine
 10
656.810394
 20
1471.99588
 30
0.0
 11
656.810394
 21
1466.99588
 31
0.0
  0
LINE
  5
5F8
100
AcDbEntity
  8
スト－ル
  6
CONTINUOUS
 62
     6
100
AcDbLine
 10
616.810394
 20
1471.99588
 30
0.0
 11
656.810394
 21
1471.99588
 31
0.0
  0
LINE
  5
5F9
100
AcDbEntity
  8
スト－ル
  6
CONTINUOUS
 62
     6
100
AcDbLine
 10
616.810394
 20
1471.99588
 30
0.0
 11
616.810394
 21
1466.99588
 31
0.0
  0
LINE
  5
5FA
100
AcDbEntity
  8
スト－ル
  6
CONTINUOUS
 62
     3
100
AcDbLine
 10
551.810394
 20
507.0
 30
0.0
 11
721.810394
 21
507.0
 31
0.0
  0
POLYLINE
  5
5FB
100
AcDbEntity
  8
スト－ル
  6
CONTINUOUS
 62
     3
100
AcDb2dPolyline
 66
     1
 10
0.0
 20
0.0
 30
0.0
 70
   128
  0
VERTEX
  5
5FC
100
AcDbEntity
  8
スト－ル
  6
CONTINUOUS
 62
     3
100
AcDbVertex
100
AcDb2dVertex
 10
585.617767
 20
516.058685
 30
0.0
  0
VERTEX
  5
5FD
100
AcDbEntity
  8
スト－ル
  6
CONTINUOUS
 62
     3
100
AcDbVertex
100
AcDb2dVertex
 10
551.810394
 20
507.0
 30
0.0
  0
VERTEX
  5
5FE
100
AcDbEntity
  8
スト－ル
  6
CONTINUOUS
 62
     3
100
AcDbVertex
100
AcDb2dVertex
 10
585.617767
 20
497.941315
 30
0.0
  0
SEQEND
  5
5FF
100
AcDbEntity
  8
スト－ル
  6
CONTINUOUS
 62
     3
  0
POLYLINE
  5
600
100
AcDbEntity
  8
スト－ル
  6
CONTINUOUS
 62
     3
100
AcDb2dPolyline
 66
     1
 10
0.0
 20
0.0
 30
0.0
 70
   128
  0
VERTEX
  5
601
100
AcDbEntity
  8
スト－ル
  6
CONTINUOUS
 62
     3
100
AcDbVertex
100
AcDb2dVertex
 10
688.003021
 20
497.941315
 30
0.0
  0
VERTEX
  5
602
100
AcDbEntity
  8
スト－ル
  6
CONTINUOUS
 62
     3
100
AcDbVertex
100
AcDb2dVertex
 10
721.810394
 20
507.0
 30
0.0
  0
VERTEX
  5
603
100
AcDbEntity
  8
スト－ル
  6
CONTINUOUS
 62
     3
100
AcDbVertex
100
AcDb2dVertex
 10
688.003021
 20
516.058685
 30
0.0
  0
SEQEND
  5
604
100
AcDbEntity
  8
スト－ル
  6
CONTINUOUS
 62
     3
  0
TEXT
  5
605
100
AcDbEntity
  8
スト－ル
  6
CONTINUOUS
 62
     2
100
AcDbText
 10
578.810364
 20
510.500061
 30
0.0
 40
40.0
  1
１７０
 41
0.833
  7
EXCADSTD
 72
     5
 11
697.810364
 21
510.500061
 31
0.0
100
AcDbText
  0
ARC
  5
606
100
AcDbEntity
  8
スト－ル
  6
CONTINUOUS
 62
     7
100
AcDbCircle
 10
20474.945168
 20
645.828857
 30
0.0
 40
20000.0
100
AcDbArc
 50
177.68811
 51
179.197327
  0
ARC
  5
607
100
AcDbEntity
  8
スト－ル
  6
CONTINUOUS
 62
     7
100
AcDbCircle
 10
-19201.324364
 20
645.825867
 30
0.0
 40
20000.0
100
AcDbArc
 50
0.802673
 51
2.31189
  0
LINE
  5
608
100
AcDbEntity
  8
スト－ル
  6
CONTINUOUS
 62
     7
100
AcDbLine
 10
536.835793
 20
938.325806
 30
0.0
 11
545.117287
 21
1370.574951
 31
0.0
  0
LINE
  5
609
100
AcDbEntity
  8
スト－ル
  6
CONTINUOUS
 62
     7
100
AcDbLine
 10
736.784767
 20
938.325867
 30
0.0
 11
728.503517
 21
1370.574951
 31
0.0
  0
LINE
  5
60A
100
AcDbEntity
  8
スト－ル
  6
CONTINUOUS
 62
     7
100
AcDbLine
 10
486.976906
 20
938.458069
 30
0.0
 11
497.638527
 21
1450.312683
 31
0.0
  0
LINE
  5
60B
100
AcDbEntity
  8
スト－ル
  6
CONTINUOUS
 62
     7
100
AcDbLine
 10
775.982033
 20
1450.312744
 30
0.0
 11
786.643654
 21
938.458069
 31
0.0
  0
ARC
  5
60C
100
AcDbEntity
  8
スト－ル
  6
CONTINUOUS
 62
     7
100
AcDbCircle
 10
10475.579933
 20
1060.78421
 30
0.0
 40
9994.0
100
AcDbArc
 50
182.214478
 51
182.507446
  0
ARC
  5
60D
100
AcDbEntity
  8
スト－ル
  6
CONTINUOUS
 62
     7
100
AcDbCircle
 10
-9201.959129
 20
1060.779022
 30
0.0
 40
9994.0
100
AcDbArc
 50
357.492615
 51
357.785583
  0
ARC
  5
60E
100
AcDbEntity
  8
スト－ル
  6
CONTINUOUS
 62
     7
100
AcDbCircle
 10
10475.579933
 20
1060.780518
 30
0.0
 40
10000.0
100
AcDbArc
 50
180.947205
 51
182.715576
  0
ARC
  5
60F
100
AcDbEntity
  8
スト－ル
  6
CONTINUOUS
 62
     7
100
AcDbCircle
 10
-9201.959129
 20
1060.779022
 30
0.0
 40
10000.0
100
AcDbArc
 50
357.284424
 51
359.052795
  0
LINE
  5
610
100
AcDbEntity
  8
スト－ル
  6
CONTINUOUS
 62
     7
100
AcDbLine
 10
588.810402
 20
624.000305
 30
0.0
 11
588.810402
 21
682.968811
 31
0.0
  0
LINE
  5
611
100
AcDbEntity
  8
スト－ル
  6
CONTINUOUS
 62
     7
100
AcDbLine
 10
684.810402
 20
624.000305
 30
0.0
 11
684.810402
 21
682.968811
 31
0.0
  0
LINE
  5
612
100
AcDbEntity
  8
スト－ル
  6
CONTINUOUS
 62
     7
100
AcDbLine
 10
694.810402
 20
614.000366
 30
0.0
 11
772.482277
 21
614.000366
 31
0.0
  0
LINE
  5
613
100
AcDbEntity
  8
スト－ル
  6
EXLTYPE3
 62
     6
100
AcDbLine
 10
551.810402
 20
649.657715
 30
0.0
 11
551.810402
 21
594.0
 31
0.0
  0
LINE
  5
614
100
AcDbEntity
  8
スト－ル
  6
CONTINUOUS
 62
     7
100
AcDbLine
 10
578.810402
 20
614.000305
 30
0.0
 11
501.138527
 21
614.000305
 31
0.0
  0
ARC
  5
615
100
AcDbEntity
  8
スト－ル
  6
CONTINUOUS
 62
     7
100
AcDbCircle
 10
501.138527
 20
624.000305
 30
0.0
 40
10.0
100
AcDbArc
 50
182.507446
 51
270.0
  0
ARC
  5
616
100
AcDbEntity
  8
スト－ル
  6
CONTINUOUS
 62
     7
100
AcDbCircle
 10
578.810402
 20
624.000244
 30
0.0
 40
10.0
100
AcDbArc
 50
270.0
 51
0.000336
  0
ARC
  5
617
100
AcDbEntity
  8
スト－ル
  6
CONTINUOUS
 62
     2
100
AcDbCircle
 10
595.440773
 20
611.490295
 30
0.0
 40
60.0
100
AcDbArc
 50
155.362549
 51
177.602417
  0
ARC
  5
618
100
AcDbEntity
  8
スト－ル
  6
CONTINUOUS
 62
     2
100
AcDbCircle
 10
508.180275
 20
611.490234
 30
0.0
 40
60.0
100
AcDbArc
 50
2.397644
 51
24.637512
  0
ARC
  5
619
100
AcDbEntity
  8
スト－ル
  6
CONTINUOUS
 62
     2
100
AcDbCircle
 10
551.810402
 20
631.500305
 30
0.0
 40
12.0
100
AcDbArc
 50
24.636627
 51
155.362061
  0
LINE
  5
61A
100
AcDbEntity
  8
スト－ル
  6
EXLTYPE3
 62
     6
100
AcDbLine
 10
721.810402
 20
649.657715
 30
0.0
 11
721.810402
 21
594.0
 31
0.0
  0
ARC
  5
61B
100
AcDbEntity
  8
スト－ル
  6
CONTINUOUS
 62
     7
100
AcDbCircle
 10
694.810402
 20
624.000305
 30
0.0
 40
10.0
100
AcDbArc
 50
180.0
 51
270.0
  0
ARC
  5
61C
100
AcDbEntity
  8
スト－ル
  6
CONTINUOUS
 62
     2
100
AcDbCircle
 10
721.810402
 20
631.500366
 30
0.0
 40
12.0
100
AcDbArc
 50
24.637634
 51
155.362061
  0
ARC
  5
61D
100
AcDbEntity
  8
スト－ル
  6
CONTINUOUS
 62
     2
100
AcDbCircle
 10
765.440529
 20
611.490295
 30
0.0
 40
60.0
100
AcDbArc
 50
155.362427
 51
177.602356
  0
ARC
  5
61E
100
AcDbEntity
  8
スト－ル
  6
CONTINUOUS
 62
     2
100
AcDbCircle
 10
678.180031
 20
611.490295
 30
0.0
 40
60.0
100
AcDbArc
 50
2.397644
 51
24.637512
  0
ARC
  5
61F
100
AcDbEntity
  8
スト－ル
  6
CONTINUOUS
 62
     7
100
AcDbCircle
 10
772.482277
 20
624.000366
 30
0.0
 40
10.0
100
AcDbArc
 50
270.0
 51
357.492554
  0
ARC
  5
620
100
AcDbEntity
  8
スト－ル
  6
CONTINUOUS
 62
     7
100
AcDbCircle
 10
686.177101
 20
193.044678
 30
0.0
 40
500.0
100
AcDbArc
 50
79.605591
 51
88.990479
  0
ARC
  5
621
100
AcDbEntity
  8
スト－ル
  6
CONTINUOUS
 62
     7
100
AcDbCircle
 10
716.658791
 20
937.000305
 30
0.0
 40
70.0
100
AcDbArc
 50
270.0
 51
1.193268
  0
ARC
  5
622
100
AcDbEntity
  8
スト－ル
  6
CONTINUOUS
 62
     7
100
AcDbCircle
 10
587.443947
 20
193.044678
 30
0.0
 40
500.0
100
AcDbArc
 50
91.009552
 51
100.394409
  0
ARC
  5
623
100
AcDbEntity
  8
スト－ル
  6
CONTINUOUS
 62
     7
100
AcDbCircle
 10
499.036232
 20
675.003296
 30
0.0
 40
10.0
100
AcDbArc
 50
95.819305
 51
182.214539
  0
ARC
  5
624
100
AcDbEntity
  8
スト－ル
  6
CONTINUOUS
 62
     7
100
AcDbCircle
 10
578.810402
 20
682.96875
 30
0.0
 40
10.0
100
AcDbArc
 50
0.000336
 51
91.008606
  0
ARC
  5
625
100
AcDbEntity
  8
スト－ル
  6
CONTINUOUS
 62
     7
100
AcDbCircle
 10
694.810402
 20
682.968811
 30
0.0
 40
10.0
100
AcDbArc
 50
88.988586
 51
180.0
  0
LINE
  5
626
100
AcDbEntity
  8
スト－ル
  6
CONTINUOUS
 62
     7
100
AcDbLine
 10
556.961769
 20
867.000305
 30
0.0
 11
716.658791
 21
867.000305
 31
0.0
  0
ARC
  5
627
100
AcDbEntity
  8
スト－ル
  6
CONTINUOUS
 62
     7
100
AcDbCircle
 10
1476.809914
 20
912.000305
 30
0.0
 40
1000.0
100
AcDbArc
 50
179.197327
 51
180.947205
  0
ARC
  5
628
100
AcDbEntity
  8
スト－ル
  6
CONTINUOUS
 62
     7
100
AcDbCircle
 10
606.823341
 20
937.000305
 30
0.0
 40
70.0
100
AcDbArc
 50
178.915039
 51
270.0
  0
ARC
  5
629
100
AcDbEntity
  8
スト－ル
  6
CONTINUOUS
 62
     7
100
AcDbCircle
 10
556.961769
 20
937.000305
 30
0.0
 40
70.0
100
AcDbArc
 50
178.806702
 51
270.0
  0
ARC
  5
62A
100
AcDbEntity
  8
スト－ル
  6
CONTINUOUS
 62
     7
100
AcDbCircle
 10
666.797463
 20
937.000305
 30
0.0
 40
70.0
100
AcDbArc
 50
270.0
 51
1.084961
  0
ARC
  5
62B
100
AcDbEntity
  8
スト－ル
  6
CONTINUOUS
 62
     7
100
AcDbCircle
 10
774.584572
 20
675.003357
 30
0.0
 40
10.0
100
AcDbArc
 50
357.7854
 51
84.180695
  0
ARC
  5
62C
100
AcDbEntity
  8
スト－ル
  6
CONTINUOUS
 62
     7
100
AcDbCircle
 10
-203.18911
 20
912.000183
 30
0.0
 40
1000.0
100
AcDbArc
 50
359.052795
 51
0.802673
  0
LINE
  5
62D
100
AcDbEntity
  8
スト－ル
  6
CONTINUOUS
 62
     7
100
AcDbLine
 10
767.40757
 20
1467.000305
 30
0.0
 11
506.212257
 21
1467.000305
 31
0.0
  0
LINE
  5
62E
100
AcDbEntity
  8
スト－ル
  6
CONTINUOUS
 62
     7
100
AcDbLine
 10
553.687111
 20
1391.000305
 30
0.0
 11
719.933449
 21
1391.000305
 31
0.0
  0
LINE
  5
62F
100
AcDbEntity
  8
スト－ル
  6
CONTINUOUS
 62
     7
100
AcDbLine
 10
575.111427
 20
1400.000305
 30
0.0
 11
698.509132
 21
1400.000305
 31
0.0
  0
ARC
  5
630
100
AcDbEntity
  8
スト－ル
  6
CONTINUOUS
 62
     7
100
AcDbCircle
 10
575.111427
 20
1370.000305
 30
0.0
 40
30.0
100
AcDbArc
 50
90.0
 51
178.914978
  0
ARC
  5
631
100
AcDbEntity
  8
スト－ル
  6
CONTINUOUS
 62
     7
100
AcDbCircle
 10
506.212257
 20
1452.000305
 30
0.0
 40
15.0
100
AcDbArc
 50
90.0
 51
177.68811
  0
ARC
  5
632
100
AcDbEntity
  8
スト－ル
  6
CONTINUOUS
 62
     7
100
AcDbCircle
 10
512.635109
 20
1450.000305
 30
0.0
 40
15.0
100
AcDbArc
 50
90.0
 51
178.806702
  0
ARC
  5
633
100
AcDbEntity
  8
スト－ル
  6
CONTINUOUS
 62
     7
100
AcDbCircle
 10
698.509132
 20
1370.000305
 30
0.0
 40
30.0
100
AcDbArc
 50
1.085022
 51
90.0
  0
ARC
  5
634
100
AcDbEntity
  8
スト－ル
  6
CONTINUOUS
 62
     7
100
AcDbCircle
 10
760.985207
 20
1450.000305
 30
0.0
 40
15.0
100
AcDbArc
 50
1.193146
 51
90.0
  0
ARC
  5
635
100
AcDbEntity
  8
スト－ル
  6
CONTINUOUS
 62
     7
100
AcDbCircle
 10
767.40757
 20
1452.000305
 30
0.0
 40
15.0
100
AcDbArc
 50
2.31189
 51
90.0
  0
TEXT
  5
636
100
AcDbEntity
  8
スト－ル
  6
CONTINUOUS
 62
     2
100
AcDbText
 10
1315.97646
 20
506.188641
 30
0.0
 40
40.0
  1
ＮＵ９ＡＶ
 41
0.8106
  7
EXCADSTD
 72
     5
 11
1508.97646
 21
506.188641
 31
0.0
100
AcDbText
  0
LINE
  5
637
100
AcDbEntity
  8
スト－ル
  6
CONTINUOUS
 62
     3
100
AcDbLine
 10
1570.810394
 20
470.556519
 30
0.0
 11
1790.810394
 21
470.556519
 31
0.0
  0
POLYLINE
  5
638
100
AcDbEntity
  8
スト－ル
  6
CONTINUOUS
 62
     3
100
AcDb2dPolyline
 66
     1
 10
0.0
 20
0.0
 30
0.0
 70
   128
  0
VERTEX
  5
639
100
AcDbEntity
  8
スト－ル
  6
CONTINUOUS
 62
     3
100
AcDbVertex
100
AcDb2dVertex
 10
1604.617767
 20
479.615204
 30
0.0
  0
VERTEX
  5
63A
100
AcDbEntity
  8
スト－ル
  6
CONTINUOUS
 62
     3
100
AcDbVertex
100
AcDb2dVertex
 10
1570.810394
 20
470.556519
 30
0.0
  0
VERTEX
  5
63B
100
AcDbEntity
  8
スト－ル
  6
CONTINUOUS
 62
     3
100
AcDbVertex
100
AcDb2dVertex
 10
1604.617767
 20
461.497833
 30
0.0
  0
SEQEND
  5
63C
100
AcDbEntity
  8
スト－ル
  6
CONTINUOUS
 62
     3
  0
POLYLINE
  5
63D
100
AcDbEntity
  8
スト－ル
  6
CONTINUOUS
 62
     3
100
AcDb2dPolyline
 66
     1
 10
0.0
 20
0.0
 30
0.0
 70
   128
  0
VERTEX
  5
63E
100
AcDbEntity
  8
スト－ル
  6
CONTINUOUS
 62
     3
100
AcDbVertex
100
AcDb2dVertex
 10
1757.003021
 20
461.497833
 30
0.0
  0
VERTEX
  5
63F
100
AcDbEntity
  8
スト－ル
  6
CONTINUOUS
 62
     3
100
AcDbVertex
100
AcDb2dVertex
 10
1790.810394
 20
470.556519
 30
0.0
  0
VERTEX
  5
640
100
AcDbEntity
  8
スト－ル
  6
CONTINUOUS
 62
     3
100
AcDbVertex
100
AcDb2dVertex
 10
1757.003021
 20
479.615204
 30
0.0
  0
SEQEND
  5
641
100
AcDbEntity
  8
スト－ル
  6
CONTINUOUS
 62
     3
  0
LINE
  5
642
100
AcDbEntity
  8
スト－ル
  6
CONTINUOUS
 62
     3
100
AcDbLine
 10
1570.810394
 20
450.556519
 30
0.0
 11
1570.810394
 21
531.064789
 31
0.0
  0
LINE
  5
643
100
AcDbEntity
  8
スト－ル
  6
CONTINUOUS
 62
     3
100
AcDbLine
 10
1790.810394
 20
450.556519
 30
0.0
 11
1790.810394
 21
582.000153
 31
0.0
  0
TEXT
  5
644
100
AcDbEntity
  8
スト－ル
  6
CONTINUOUS
 62
     2
100
AcDbText
 10
1623.620911
 20
474.05658
 30
0.0
 40
40.0
  1
２２０
 41
0.833
  7
EXCADSTD
 72
     5
 11
1742.62091
 21
474.05658
 31
0.0
100
AcDbText
  0
POLYLINE
  5
645
100
AcDbEntity
  8
スト－ル
  6
CONTINUOUS
 62
     3
100
AcDb2dPolyline
 66
     1
 10
0.0
 20
0.0
 30
0.0
 70
   128
  0
VERTEX
  5
646
100
AcDbEntity
  8
スト－ル
  6
CONTINUOUS
 62
     3
100
AcDbVertex
100
AcDb2dVertex
 10
510.617273
 20
2150.058838
 30
0.0
  0
VERTEX
  5
647
100
AcDbEntity
  8
スト－ル
  6
CONTINUOUS
 62
     3
100
AcDbVertex
100
AcDb2dVertex
 10
476.8099
 20
2141.000153
 30
0.0
  0
VERTEX
  5
648
100
AcDbEntity
  8
スト－ル
  6
CONTINUOUS
 62
     3
100
AcDbVertex
100
AcDb2dVertex
 10
510.617273
 20
2131.941467
 30
0.0
  0
SEQEND
  5
649
100
AcDbEntity
  8
スト－ル
  6
CONTINUOUS
 62
     3
  0
POLYLINE
  5
64A
100
AcDbEntity
  8
スト－ル
  6
CONTINUOUS
 62
     3
100
AcDb2dPolyline
 66
     1
 10
0.0
 20
0.0
 30
0.0
 70
   128
  0
VERTEX
  5
64B
100
AcDbEntity
  8
スト－ル
  6
CONTINUOUS
 62
     3
100
AcDbVertex
100
AcDb2dVertex
 10
763.002527
 20
2131.941467
 30
0.0
  0
VERTEX
  5
64C
100
AcDbEntity
  8
スト－ル
  6
CONTINUOUS
 62
     3
100
AcDbVertex
100
AcDb2dVertex
 10
796.8099
 20
2141.000153
 30
0.0
  0
VERTEX
  5
64D
100
AcDbEntity
  8
スト－ル
  6
CONTINUOUS
 62
     3
100
AcDbVertex
100
AcDb2dVertex
 10
763.002527
 20
2150.058838
 30
0.0
  0
SEQEND
  5
64E
100
AcDbEntity
  8
スト－ル
  6
CONTINUOUS
 62
     3
  0
LINE
  5
64F
100
AcDbEntity
  8
スト－ル
  6
CONTINUOUS
 62
     3
100
AcDbLine
 10
476.8099
 20
2141.000153
 30
0.0
 11
796.8099
 21
2141.000153
 31
0.0
  0
TEXT
  5
650
100
AcDbEntity
  8
スト－ル
  6
CONTINUOUS
 62
     2
100
AcDbText
 10
578.80987
 20
2144.500061
 30
0.0
 40
40.0
  1
３２０
 41
0.833
  7
EXCADSTD
 72
     5
 11
697.80987
 21
2144.500061
 31
0.0
100
AcDbText
  0
LINE
  5
651
100
AcDbEntity
  8
スト－ル
  6
CONTINUOUS
 62
     3
100
AcDbLine
 10
796.8099
 20
2121.000153
 30
0.0
 11
796.8099
 21
2456.0
 31
0.0
  0
LINE
  5
652
100
AcDbEntity
  8
スト－ル
  6
CONTINUOUS
 62
     3
100
AcDbLine
 10
476.8099
 20
2121.000153
 30
0.0
 11
476.8099
 21
2456.0
 31
0.0
  0
LINE
  5
653
100
AcDbEntity
  8
スト－ル
  6
CONTINUOUS
 62
     3
100
AcDbLine
 10
774.40757
 20
1466.99588
 30
0.0
 11
896.8099
 21
1466.99588
 31
0.0
  0
LINE
  5
654
100
AcDbEntity
  8
スト－ル
  6
EXLTYPE3
 62
     1
100
AcDbLine
 10
636.810102
 20
1712.495914
 30
0.0
 11
636.810399
 21
567.0
 31
0.0
  0
ARC
  5
655
100
AcDbEntity
  8
スト－ル
  6
CONTINUOUS
 62
     7
100
AcDbCircle
 10
668.319802
 20
2396.800976
 30
0.0
 40
90.0
100
AcDbArc
 50
205.77678
 51
230.935266
  0
ARC
  5
656
100
AcDbEntity
  8
スト－ル
  6
CONTINUOUS
 62
     7
100
AcDbCircle
 10
650.3099
 20
2388.103652
 30
0.0
 40
70.0
100
AcDbArc
 50
180.0
 51
205.77678
  0
ARC
  5
657
100
AcDbEntity
  8
スト－ル
  6
CONTINUOUS
 62
     7
100
AcDbCircle
 10
605.299999
 20
2396.800976
 30
0.0
 40
90.0
100
AcDbArc
 50
309.064734
 51
334.22322
  0
ARC
  5
658
100
AcDbEntity
  8
スト－ル
  6
CONTINUOUS
 62
     7
100
AcDbCircle
 10
623.3099
 20
2388.103652
 30
0.0
 40
70.0
100
AcDbArc
 50
334.22322
 51
0.0
  0
ARC
  5
659
100
AcDbEntity
  8
スト－ル
  6
CONTINUOUS
 62
     7
100
AcDbCircle
 10
636.8099
 20
2357.979254
 30
0.0
 40
40.0
100
AcDbArc
 50
230.935266
 51
309.064734
  0
LINE
  5
65A
100
AcDbEntity
  8
スト－ル
  6
CONTINUOUS
 62
     7
100
AcDbLine
 10
580.3099
 20
2388.103652
 30
0.0
 11
580.3099
 21
2444.672217
 31
0.0
  0
LINE
  5
65B
100
AcDbEntity
  8
スト－ル
  6
CONTINUOUS
 62
     7
100
AcDbLine
 10
693.3099
 20
2388.103652
 30
0.0
 11
693.3099
 21
2444.672263
 31
0.0
  0
LINE
  5
65C
100
AcDbEntity
  8
スト－ル
  6
CONTINUOUS
 62
     2
100
AcDbLine
 10
567.097986
 20
2443.976447
 30
0.0
 11
567.097742
 21
2381.000153
 31
0.0
  0
ARC
  5
65D
100
AcDbEntity
  8
スト－ル
  6
CONTINUOUS
 62
     2
100
AcDbCircle
 10
617.097986
 20
2381.000153
 30
0.0
 40
50.0
100
AcDbArc
 50
179.999997
 51
214.638424
  0
ARC
  5
65E
100
AcDbEntity
  8
スト－ル
  6
CONTINUOUS
 62
     2
100
AcDbCircle
 10
699.373377
 20
2437.839875
 30
0.0
 40
150.0
100
AcDbArc
 50
214.638424
 51
231.271236
  0
ARC
  5
65F
100
AcDbEntity
  8
スト－ル
  6
CONTINUOUS
 62
     2
100
AcDbCircle
 10
636.8099
 20
2359.828156
 30
0.0
 40
50.0
100
AcDbArc
 50
231.271236
 51
308.728755
  0
ARC
  5
660
100
AcDbEntity
  8
スト－ル
  6
CONTINUOUS
 62
     2
100
AcDbCircle
 10
574.246423
 20
2437.839875
 30
0.0
 40
150.0
100
AcDbArc
 50
308.728755
 51
325.361567
  0
ARC
  5
661
100
AcDbEntity
  8
スト－ル
  6
CONTINUOUS
 62
     2
100
AcDbCircle
 10
656.522302
 20
2381.000153
 30
0.0
 40
50.0
100
AcDbArc
 50
325.361445
 51
0.0
  0
LINE
  5
662
100
AcDbEntity
  8
スト－ル
  6
CONTINUOUS
 62
     2
100
AcDbLine
 10
706.522302
 20
2443.976475
 30
0.0
 11
706.522302
 21
2381.000153
 31
0.0
  0
LINE
  5
663
100
AcDbEntity
  8
スト－ル
  6
CONTINUOUS
 62
     2
100
AcDbLine
 10
592.3099
 20
2388.103652
 30
0.0
 11
592.3099
 21
2445.177676
 31
0.0
  0
ARC
  5
664
100
AcDbEntity
  8
スト－ル
  6
CONTINUOUS
 62
     2
100
AcDbCircle
 10
650.3099
 20
2388.103652
 30
0.0
 40
58.0
100
AcDbArc
 50
180.0
 51
205.77678
  0
ARC
  5
665
100
AcDbEntity
  8
スト－ル
  6
CONTINUOUS
 62
     2
100
AcDbCircle
 10
605.299999
 20
2396.800976
 30
0.0
 40
78.0
100
AcDbArc
 50
321.250291
 51
334.22322
  0
ARC
  5
666
100
AcDbEntity
  8
スト－ル
  6
CONTINUOUS
 62
     2
100
AcDbCircle
 10
668.319802
 20
2396.800976
 30
0.0
 40
78.0
100
AcDbArc
 50
205.77678
 51
218.749709
  0
ARC
  5
667
100
AcDbEntity
  8
スト－ル
  6
CONTINUOUS
 62
     2
100
AcDbCircle
 10
623.3099
 20
2388.103652
 30
0.0
 40
58.0
100
AcDbArc
 50
334.22322
 51
0.0
  0
LINE
  5
668
100
AcDbEntity
  8
スト－ル
  6
CONTINUOUS
 62
     2
100
AcDbLine
 10
681.3099
 20
2445.177713
 30
0.0
 11
681.3099
 21
2388.103652
 31
0.0
  0
LINE
  5
669
100
AcDbEntity
  8
スト－ル
  6
CONTINUOUS
 62
     2
100
AcDbLine
 10
641.8099
 20
2357.979254
 30
0.0
 11
641.8099
 21
2423.979254
 31
0.0
  0
ARC
  5
66A
100
AcDbEntity
  8
スト－ル
  6
CONTINUOUS
 62
     2
100
AcDbCircle
 10
638.8099
 20
2423.979254
 30
0.0
 40
3.0
100
AcDbArc
 50
0.0
 51
90.0
  0
LINE
  5
66B
100
AcDbEntity
  8
スト－ル
  6
CONTINUOUS
 62
     2
100
AcDbLine
 10
634.8099
 20
2426.979254
 30
0.0
 11
638.8099
 21
2426.979254
 31
0.0
  0
LINE
  5
66C
100
AcDbEntity
  8
スト－ル
  6
CONTINUOUS
 62
     2
100
AcDbLine
 10
631.8099
 20
2357.979254
 30
0.0
 11
631.8099
 21
2423.979254
 31
0.0
  0
ARC
  5
66D
100
AcDbEntity
  8
スト－ル
  6
CONTINUOUS
 62
     2
100
AcDbCircle
 10
634.8099
 20
2423.979254
 30
0.0
 40
3.0
100
AcDbArc
 50
90.0
 51
180.0
  0
ARC
  5
66E
100
AcDbEntity
  8
スト－ル
  6
CONTINUOUS
 62
     2
100
AcDbCircle
 10
636.8099
 20
2447.979254
 30
0.0
 40
5.5
100
AcDbArc
 50
201.179855
 51
338.820192
  0
LINE
  5
66F
100
AcDbEntity
  8
スト－ル
  6
CONTINUOUS
 62
     6
100
AcDbLine
 10
1662.391082
 20
652.000122
 30
0.0
 11
1669.451019
 21
652.000122
 31
0.0
  0
LINE
  5
670
100
AcDbEntity
  8
スト－ル
  6
CONTINUOUS
 62
     6
100
AcDbLine
 10
1661.024749
 20
672.000122
 30
0.0
 11
1670.362029
 21
672.000122
 31
0.0
  0
LINE
  5
671
100
AcDbEntity
  8
スト－ル
  6
CONTINUOUS
 62
     6
100
AcDbLine
 10
1661.25241
 20
687.000122
 30
0.0
 11
1671.500701
 21
687.000122
 31
0.0
  0
LINE
  5
672
100
AcDbEntity
  8
スト－ル
  6
CONTINUOUS
 62
     7
100
AcDbLine
 10
1667.607513
 20
635.000122
 30
0.0
 11
1607.035735
 21
635.000122
 31
0.0
  0
LINE
  5
673
100
AcDbEntity
  8
スト－ル
  6
CONTINUOUS
 62
     6
100
AcDbLine
 10
1513.779266
 20
740.672241
 30
0.0
 11
1519.068938
 21
639.738403
 31
0.0
  0
LINE
  5
674
100
AcDbEntity
  8
スト－ル
  6
CONTINUOUS
 62
     6
100
AcDbLine
 10
1539.582366
 20
639.719604
 30
0.0
 11
1542.800384
 21
697.000122
 31
0.0
  0
ARC
  5
675
100
AcDbEntity
  8
スト－ル
  6
CONTINUOUS
 62
     6
100
AcDbCircle
 10
1524.06198
 20
640.000122
 30
0.0
 40
5.0
100
AcDbArc
 50
182.999756
 51
270.0
  0
ARC
  5
676
100
AcDbEntity
  8
スト－ル
  6
CONTINUOUS
 62
     6
100
AcDbCircle
 10
1524.06198
 20
640.000122
 30
0.0
 40
14.0
100
AcDbArc
 50
183.000122
 51
270.0
  0
LINE
  5
677
100
AcDbEntity
  8
スト－ル
  6
CONTINUOUS
 62
     6
100
AcDbLine
 10
1519.371917
 20
652.000122
 30
0.0
 11
1523.47116
 21
652.000122
 31
0.0
  0
ARC
  5
678
100
AcDbEntity
  8
スト－ル
  6
CONTINUOUS
 62
     6
100
AcDbCircle
 10
1534.590301
 20
640.000122
 30
0.0
 40
5.0
100
AcDbArc
 50
270.0
 51
356.784546
  0
ARC
  5
679
100
AcDbEntity
  8
スト－ル
  6
CONTINUOUS
 62
     6
100
AcDbCircle
 10
1534.590301
 20
640.000122
 30
0.0
 40
14.0
100
AcDbArc
 50
270.0
 51
287.062988
  0
LINE
  5
67A
100
AcDbEntity
  8
スト－ル
  6
CONTINUOUS
 62
     6
100
AcDbLine
 10
1534.590301
 20
635.000122
 30
0.0
 11
1524.06198
 21
635.000122
 31
0.0
  0
LINE
  5
67B
100
AcDbEntity
  8
スト－ル
  6
CONTINUOUS
 62
     6
100
AcDbLine
 10
1534.590301
 20
626.000122
 30
0.0
 11
1524.06198
 21
626.000122
 31
0.0
  0
LINE
  5
67C
100
AcDbEntity
  8
スト－ル
  6
CONTINUOUS
 62
     6
100
AcDbLine
 10
1606.367645
 20
652.000122
 30
0.0
 11
1614.566253
 21
652.000122
 31
0.0
  0
ARC
  5
67D
100
AcDbEntity
  8
スト－ル
  6
CONTINUOUS
 62
     7
100
AcDbCircle
 10
1607.035735
 20
640.000122
 30
0.0
 40
5.0
100
AcDbArc
 50
183.215454
 51
270.0
  0
LINE
  5
67E
100
AcDbEntity
  8
スト－ル
  6
CONTINUOUS
 62
     6
100
AcDbLine
 10
1646.22177
 20
652.000122
 30
0.0
 11
1653.737029
 21
652.000122
 31
0.0
  0
LINE
  5
67F
100
AcDbEntity
  8
スト－ル
  6
CONTINUOUS
 62
     6
100
AcDbLine
 10
1494.852019
 20
746.87146
 30
0.0
 11
1504.972381
 21
736.751221
 31
0.0
  0
LINE
  5
680
100
AcDbEntity
  8
スト－ル
  6
CONTINUOUS
 62
     6
100
AcDbLine
 10
1499.64157
 20
754.809937
 30
0.0
 11
1513.779266
 21
740.672241
 31
0.0
  0
ARC
  5
681
100
AcDbEntity
  8
スト－ル
  6
CONTINUOUS
 62
     6
100
AcDbCircle
 10
1587.300262
 20
1041.717651
 30
0.0
 40
309.0
100
AcDbArc
 50
251.769531
 51
252.591309
  0
ARC
  5
682
100
AcDbEntity
  8
スト－ル
  6
CONTINUOUS
 62
     6
100
AcDbCircle
 10
1587.300262
 20
1041.717651
 30
0.0
 40
300.0
100
AcDbArc
 50
251.693237
 51
253.01062
  0
LINE
  5
683
100
AcDbEntity
  8
スト－ル
  6
CONTINUOUS
 62
     6
100
AcDbLine
 10
1603.862518
 20
687.000122
 30
0.0
 11
1611.605682
 21
687.000122
 31
0.0
  0
LINE
  5
684
100
AcDbEntity
  8
スト－ル
  6
CONTINUOUS
 62
     6
100
AcDbLine
 10
1604.545867
 20
672.000122
 30
0.0
 11
1613.883025
 21
672.000122
 31
0.0
  0
LINE
  5
685
100
AcDbEntity
  8
スト－ル
  6
CONTINUOUS
 62
     6
100
AcDbLine
 10
1642.805633
 20
687.000122
 30
0.0
 11
1652.598357
 21
687.000122
 31
0.0
  0
LINE
  5
686
100
AcDbEntity
  8
スト－ル
  6
CONTINUOUS
 62
     6
100
AcDbLine
 10
1645.31076
 20
672.000122
 30
0.0
 11
1653.053924
 21
672.000122
 31
0.0
  0
ARC
  5
687
100
AcDbEntity
  8
スト－ル
  6
CONTINUOUS
 62
     7
100
AcDbCircle
 10
1667.607513
 20
640.000122
 30
0.0
 40
5.0
100
AcDbArc
 50
270.0
 51
356.999573
  0
ARC
  5
688
100
AcDbEntity
  8
スト－ル
  6
CONTINUOUS
 62
     6
100
AcDbCircle
 10
1688.578826
 20
800.714355
 30
0.0
 40
62.0
100
AcDbArc
 50
287.666077
 51
290.243958
  0
LINE
  5
689
100
AcDbEntity
  8
スト－ル
  6
CONTINUOUS
 62
     6
100
AcDbLine
 10
1677.575408
 20
734.659668
 30
0.0
 11
1693.91574
 21
751.000122
 31
0.0
  0
ARC
  5
68A
100
AcDbEntity
  8
スト－ル
  6
CONTINUOUS
 62
     6
100
AcDbCircle
 10
1716.498016
 20
713.052979
 30
0.0
 40
30.0
100
AcDbArc
 50
107.666199
 51
176.999878
  0
ARC
  5
68B
100
AcDbEntity
  8
スト－ル
  6
CONTINUOUS
 62
     6
100
AcDbCircle
 10
1688.578826
 20
800.714355
 30
0.0
 40
50.0
100
AcDbArc
 50
276.127319
 51
284.209961
  0
LINE
  5
68C
100
AcDbEntity
  8
スト－ル
  6
CONTINUOUS
 62
     7
100
AcDbLine
 10
1597.825652
 20
697.000122
 30
0.0
 11
1543.800384
 21
697.000122
 31
0.0
  0
LINE
  5
68D
100
AcDbEntity
  8
スト－ル
  6
CONTINUOUS
 62
     2
100
AcDbLine
 10
1496.266224
 20
748.285682
 30
0.0
 11
1506.386586
 21
738.165443
 31
0.0
  0
LINE
  5
68E
100
AcDbEntity
  8
スト－ル
  6
CONTINUOUS
 62
     2
100
AcDbLine
 10
1498.227357
 20
753.395723
 30
0.0
 11
1510.261464
 21
741.361616
 31
0.0
  0
LINE
  5
68F
100
AcDbEntity
  8
スト－ル
  6
CONTINUOUS
 62
     2
100
AcDbLine
 10
1496.45959
 20
751.627956
 30
0.0
 11
1508.493697
 21
739.593849
 31
0.0
  0
LINE
  5
690
100
AcDbEntity
  8
スト－ル
  6
CONTINUOUS
 62
     2
100
AcDbLine
 10
1511.782007
 20
740.56757
 30
0.0
 11
1517.071679
 21
639.633732
 31
0.0
  0
LINE
  5
691
100
AcDbEntity
  8
スト－ル
  6
CONTINUOUS
 62
     2
100
AcDbLine
 10
1506.96964
 20
736.855892
 30
0.0
 11
1512.078527
 21
639.372127
 31
0.0
  0
LINE
  5
692
100
AcDbEntity
  8
スト－ル
  6
CONTINUOUS
 62
     2
100
AcDbLine
 10
1509.360828
 20
738.9981
 30
0.0
 11
1514.575105
 21
639.502893
 31
0.0
  0
LINE
  5
693
100
AcDbEntity
  8
スト－ル
  6
CONTINUOUS
 62
     2
100
AcDbLine
 10
1534.590301
 20
633.000122
 30
0.0
 11
1524.06198
 21
633.000122
 31
0.0
  0
LINE
  5
694
100
AcDbEntity
  8
スト－ル
  6
CONTINUOUS
 62
     2
100
AcDbLine
 10
1534.590301
 20
628.000122
 30
0.0
 11
1524.06198
 21
628.000122
 31
0.0
  0
LINE
  5
695
100
AcDbEntity
  8
スト－ル
  6
CONTINUOUS
 62
     2
100
AcDbLine
 10
1534.590301
 20
630.500122
 30
0.0
 11
1524.06198
 21
630.500122
 31
0.0
  0
ARC
  5
696
100
AcDbEntity
  8
スト－ル
  6
CONTINUOUS
 62
     2
100
AcDbCircle
 10
1587.300262
 20
1041.717651
 30
0.0
 40
301.89411
100
AcDbArc
 50
251.83024
 51
252.691184
  0
ARC
  5
697
100
AcDbEntity
  8
スト－ル
  6
CONTINUOUS
 62
     2
100
AcDbCircle
 10
1587.300262
 20
1041.717651
 30
0.0
 40
304.295861
100
AcDbArc
 50
251.858263
 51
252.572749
  0
ARC
  5
698
100
AcDbEntity
  8
スト－ル
  6
CONTINUOUS
 62
     2
100
AcDbCircle
 10
1587.300262
 20
1041.717651
 30
0.0
 40
306.672967
100
AcDbArc
 50
251.855243
 51
252.677001
  0
ARC
  5
699
100
AcDbEntity
  8
スト－ル
  6
CONTINUOUS
 62
     2
100
AcDbCircle
 10
1524.06198
 20
640.000122
 30
0.0
 40
12.285308
100
AcDbArc
 50
191.804505
 51
270.177103
  0
ARC
  5
69A
100
AcDbEntity
  8
スト－ル
  6
CONTINUOUS
 62
     2
100
AcDbCircle
 10
1524.06198
 20
640.000122
 30
0.0
 40
9.867568
100
AcDbArc
 50
190.552891
 51
193.662197
  0
ARC
  5
69B
100
AcDbEntity
  8
スト－ル
  6
CONTINUOUS
 62
     2
100
AcDbCircle
 10
1524.06198
 20
640.000122
 30
0.0
 40
9.828212
100
AcDbArc
 50
190.552891
 51
266.492464
  0
ARC
  5
69C
100
AcDbEntity
  8
スト－ル
  6
CONTINUOUS
 62
     2
100
AcDbCircle
 10
1524.06198
 20
640.000122
 30
0.0
 40
7.332055
100
AcDbArc
 50
198.28156
 51
258.969572
  0
ARC
  5
69D
100
AcDbEntity
  8
スト－ル
  6
CONTINUOUS
 62
     2
100
AcDbCircle
 10
1534.590301
 20
640.000122
 30
0.0
 40
7.160919
100
AcDbArc
 50
282.170687
 51
330.593109
  0
ARC
  5
69E
100
AcDbEntity
  8
スト－ル
  6
CONTINUOUS
 62
     2
100
AcDbCircle
 10
1534.590301
 20
640.000122
 30
0.0
 40
10.199916
100
AcDbArc
 50
281.363389
 51
305.516022
  0
ARC
  5
69F
100
AcDbEntity
  8
スト－ル
  6
CONTINUOUS
 62
     2
100
AcDbCircle
 10
1534.590301
 20
640.000122
 30
0.0
 40
12.590807
100
AcDbArc
 50
275.52765
 51
301.079538
  0
LINE
  5
6A0
100
AcDbEntity
  8
スト－ル
  6
CONTINUOUS
 62
     2
100
AcDbLine
 10
1680.348934
 20
734.251222
 30
0.0
 11
1695.506736
 21
749.409138
 31
0.0
  0
ARC
  5
6A1
100
AcDbEntity
  8
スト－ル
  6
CONTINUOUS
 62
     2
100
AcDbCircle
 10
1716.498016
 20
713.052979
 30
0.0
 40
32.466693
100
AcDbArc
 50
107.568025
 51
173.616108
  0
ARC
  5
6A2
100
AcDbEntity
  8
スト－ル
  6
CONTINUOUS
 62
     2
100
AcDbCircle
 10
1716.498016
 20
713.052979
 30
0.0
 40
35.241293
100
AcDbArc
 50
108.870355
 51
160.338343
  0
ARC
  5
6A3
100
AcDbEntity
  8
スト－ル
  6
CONTINUOUS
 62
     2
100
AcDbCircle
 10
1716.498016
 20
713.052979
 30
0.0
 40
37.967402
100
AcDbArc
 50
111.545344
 51
151.264665
  0
ARC
  5
6A4
100
AcDbEntity
  8
スト－ル
  6
CONTINUOUS
 62
     2
100
AcDbCircle
 10
1688.578826
 20
800.714355
 30
0.0
 40
52.584129
100
AcDbArc
 50
276.241165
 51
282.680902
  0
ARC
  5
6A5
100
AcDbEntity
  8
スト－ル
  6
CONTINUOUS
 62
     2
100
AcDbCircle
 10
1530.415693
 20
731.500431
 30
0.0
 40
5.0
100
AcDbArc
 50
354.454683
 51
60.059982
  0
ARC
  5
6A6
100
AcDbEntity
  8
スト－ル
  6
CONTINUOUS
 62
     2
100
AcDbCircle
 10
1513.531811
 20
741.224792
 30
0.0
 40
5.0
100
AcDbArc
 50
60.059982
 51
90.0
  0
LINE
  5
6A7
100
AcDbEntity
  8
スト－ル
  6
CONTINUOUS
 62
     2
100
AcDbLine
 10
1516.027277
 20
745.557534
 30
0.0
 11
1532.911159
 21
735.833173
 31
0.0
  0
LINE
  5
6A8
100
AcDbEntity
  8
スト－ル
  6
CONTINUOUS
 62
     2
100
AcDbLine
 10
1535.392294
 20
731.017266
 30
0.0
 11
1526.868752
 21
643.224792
 31
0.0
  0
LINE
  5
6A9
100
AcDbEntity
  8
スト－ル
  6
CONTINUOUS
 62
     2
100
AcDbLine
 10
1510.868752
 20
746.224792
 30
0.0
 11
1513.531811
 21
746.224792
 31
0.0
  0
ARC
  5
6AA
100
AcDbEntity
  8
スト－ル
  6
CONTINUOUS
 62
     2
100
AcDbCircle
 10
1510.868752
 20
750.224792
 30
0.0
 40
4.0
100
AcDbArc
 50
180.0
 51
270.0
  0
CIRCLE
  5
6AB
100
AcDbEntity
  8
スト－ル
  6
CONTINUOUS
 62
     2
100
AcDbCircle
 10
1604.868752
 20
743.224792
 30
0.0
 40
3.5
  0
ARC
  5
6AC
100
AcDbEntity
  8
スト－ル
  6
CONTINUOUS
 62
     2
100
AcDbCircle
 10
1611.12499
 20
748.224792
 30
0.0
 40
5.0
100
AcDbArc
 50
3.012788
 51
90.0
  0
LINE
  5
6AD
100
AcDbEntity
  8
スト－ル
  6
CONTINUOUS
 62
     2
100
AcDbLine
 10
1616.118079
 20
748.487586
 30
0.0
 11
1616.719156
 21
737.067116
 31
0.0
  0
ARC
  5
6AE
100
AcDbEntity
  8
スト－ル
  6
CONTINUOUS
 62
     2
100
AcDbCircle
 10
1619.71501
 20
737.224792
 30
0.0
 40
3.0
100
AcDbArc
 50
183.012788
 51
270.0
  0
ARC
  5
6AF
100
AcDbEntity
  8
スト－ル
  6
CONTINUOUS
 62
     2
100
AcDbCircle
 10
1681.868752
 20
747.224792
 30
0.0
 40
5.0
100
AcDbArc
 50
0.0
 51
88.989003
  0
ARC
  5
6B0
100
AcDbEntity
  8
スト－ル
  6
CONTINUOUS
 62
     2
100
AcDbCircle
 10
1511.868752
 20
750.224792
 30
0.0
 40
5.0
100
AcDbArc
 50
88.989003
 51
180.0
  0
LINE
  5
6B1
100
AcDbEntity
  8
スト－ル
  6
CONTINUOUS
 62
     2
100
AcDbLine
 10
1641.380634
 20
734.224792
 30
0.0
 11
1619.71501
 21
734.224792
 31
0.0
  0
ARC
  5
6B2
100
AcDbEntity
  8
スト－ル
  6
CONTINUOUS
 62
     2
100
AcDbCircle
 10
1677.439129
 20
747.302962
 30
0.0
 40
5.0
100
AcDbArc
 50
88.989003
 51
143.254412
  0
ARC
  5
6B3
100
AcDbEntity
  8
スト－ル
  6
CONTINUOUS
 62
     2
100
AcDbCircle
 10
1641.380634
 20
774.224792
 30
0.0
 40
40.0
100
AcDbArc
 50
270.0
 51
323.254412
  0
LINE
  5
6B4
100
AcDbEntity
  8
スト－ル
  6
CONTINUOUS
 62
     2
100
AcDbLine
 10
1630.589611
 20
724.224792
 30
0.0
 11
1641.380634
 21
724.224792
 31
0.0
  0
LINE
  5
6B5
100
AcDbEntity
  8
スト－ル
  6
CONTINUOUS
 62
     2
100
AcDbLine
 10
1628.600533
 20
722.016062
 30
0.0
 11
1636.868752
 21
643.224792
 31
0.0
  0
ARC
  5
6B6
100
AcDbEntity
  8
スト－ル
  6
CONTINUOUS
 62
     2
100
AcDbCircle
 10
1630.589611
 20
722.224792
 30
0.0
 40
2.0
100
AcDbArc
 50
90.0
 51
185.990595
  0
LINE
  5
6B7
100
AcDbEntity
  8
スト－ル
  6
CONTINUOUS
 62
     2
100
AcDbLine
 10
1631.368752
 20
734.224792
 30
0.0
 11
1631.368752
 21
724.224792
 31
0.0
  0
LINE
  5
6B8
100
AcDbEntity
  8
スト－ル
  6
CONTINUOUS
 62
     2
100
AcDbLine
 10
1642.368752
 20
734.224792
 30
0.0
 11
1642.368752
 21
724.234557
 31
0.0
  0
ARC
  5
6B9
100
AcDbEntity
  8
スト－ル
  6
CONTINUOUS
 62
     2
100
AcDbCircle
 10
1680.511235
 20
728.740772
 30
0.0
 40
10.0
100
AcDbArc
 50
116.717318
 51
130.705916
  0
LINE
  5
6BA
100
AcDbEntity
  8
スト－ル
  6
CONTINUOUS
 62
     2
100
AcDbLine
 10
1676.015345
 20
737.673128
 30
0.0
 11
1684.667108
 21
742.027789
 31
0.0
  0
LINE
  5
6BB
100
AcDbEntity
  8
スト－ル
  6
CONTINUOUS
 62
     2
100
AcDbLine
 10
1686.868752
 20
747.224792
 30
0.0
 11
1686.868752
 21
745.600731
 31
0.0
  0
ARC
  5
6BC
100
AcDbEntity
  8
スト－ル
  6
CONTINUOUS
 62
     2
100
AcDbCircle
 10
1682.868752
 20
745.600731
 30
0.0
 40
4.0
100
AcDbArc
 50
296.717318
 51
0.0
  0
ARC
  5
6BD
100
AcDbEntity
  8
スト－ル
  6
CONTINUOUS
 62
     2
100
AcDbCircle
 10
1641.380634
 20
774.224792
 30
0.0
 40
50.0
100
AcDbArc
 50
270.0
 51
310.705916
  0
LINE
  5
6BE
100
AcDbEntity
  8
スト－ル
  6
CONTINUOUS
 62
     2
100
AcDbLine
 10
1546.463083
 20
741.562095
 30
0.0
 11
1536.915772
 21
643.224792
 31
0.0
  0
ARC
  5
6BF
100
AcDbEntity
  8
スト－ル
  6
CONTINUOUS
 62
     2
100
AcDbCircle
 10
1549.449043
 20
741.272196
 30
0.0
 40
3.0
100
AcDbArc
 50
87.018014
 51
174.454683
  0
ARC
  5
6C0
100
AcDbEntity
  8
スト－ル
  6
CONTINUOUS
 62
     2
100
AcDbCircle
 10
1610.535155
 20
732.646896
 30
0.0
 40
2.0
100
AcDbArc
 50
5.557935
 51
118.177212
  0
ARC
  5
6C1
100
AcDbEntity
  8
スト－ル
  6
CONTINUOUS
 62
     2
100
AcDbCircle
 10
1604.868752
 20
743.224792
 30
0.0
 40
10.0
100
AcDbArc
 50
205.127527
 51
298.177212
  0
LINE
  5
6C2
100
AcDbEntity
  8
スト－ル
  6
CONTINUOUS
 62
     2
100
AcDbLine
 10
1549.424426
 20
744.272095
 30
0.0
 11
1593.342574
 21
740.694641
 31
0.0
  0
ARC
  5
6C3
100
AcDbEntity
  8
スト－ル
  6
CONTINUOUS
 62
     2
100
AcDbCircle
 10
1593.099009
 20
737.704544
 30
0.0
 40
3.0
100
AcDbArc
 50
25.127527
 51
85.343121
  0
ARC
  5
6C4
100
AcDbEntity
  8
スト－ル
  6
CONTINUOUS
 62
     2
100
AcDbCircle
 10
1624.292644
 20
804.224792
 30
0.0
 40
80.0
100
AcDbArc
 50
241.77184
 51
263.963283
  0
ARC
  5
6C5
100
AcDbEntity
  8
スト－ル
  6
CONTINUOUS
 62
     2
100
AcDbCircle
 10
1615.563886
 20
721.685052
 30
0.0
 40
3.0
100
AcDbArc
 50
5.990595
 51
83.963283
  0
ARC
  5
6C6
100
AcDbEntity
  8
スト－ル
  6
CONTINUOUS
 62
     2
100
AcDbCircle
 10
1617.890071
 20
729.339388
 30
0.0
 40
5.0
100
AcDbArc
 50
185.557935
 51
253.09575
  0
LINE
  5
6C7
100
AcDbEntity
  8
スト－ル
  6
CONTINUOUS
 62
     2
100
AcDbLine
 10
1612.913578
 20
728.855127
 30
0.0
 11
1612.525752
 21
732.840601
 31
0.0
  0
LINE
  5
6C8
100
AcDbEntity
  8
スト－ル
  6
CONTINUOUS
 62
     2
100
AcDbLine
 10
1511.956974
 20
755.224014
 30
0.0
 11
1611.129386
 21
753.473912
 31
0.0
  0
LINE
  5
6C9
100
AcDbEntity
  8
スト－ル
  6
CONTINUOUS
 62
     2
100
AcDbLine
 10
1677.52735
 20
752.302184
 30
0.0
 11
1681.956974
 21
752.224014
 31
0.0
  0
LINE
  5
6CA
100
AcDbEntity
  8
スト－ル
  6
CONTINUOUS
 62
     7
100
AcDbLine
 10
1526.868752
 20
643.224792
 30
0.0
 11
1539.779288
 21
643.224792
 31
0.0
  0
LINE
  5
6CB
100
AcDbEntity
  8
スト－ル
  6
CONTINUOUS
 62
     7
100
AcDbLine
 10
1601.846737
 20
643.224792
 30
0.0
 11
1646.868752
 21
643.224792
 31
0.0
  0
LINE
  5
6CC
100
AcDbEntity
  8
スト－ル
  6
CONTINUOUS
 62
     7
100
AcDbLine
 10
1649.920151
 20
688.841716
 30
0.0
 11
1646.868752
 21
643.224792
 31
0.0
  0
ARC
  5
6CD
100
AcDbEntity
  8
スト－ル
  6
CONTINUOUS
 62
     7
100
AcDbCircle
 10
1699.808662
 20
685.504583
 30
0.0
 40
50.0
100
AcDbArc
 50
144.008076
 51
176.173083
  0
LINE
  5
6CE
100
AcDbEntity
  8
スト－ル
  6
CONTINUOUS
 62
     7
100
AcDbLine
 10
1675.83568
 20
737.58041
 30
0.0
 11
1659.35367
 21
714.888144
 31
0.0
  0
LINE
  5
6CF
100
AcDbEntity
  8
スト－ル
  6
CONTINUOUS
 62
     7
100
AcDbLine
 10
1611.217594
 20
753.472356
 30
0.0
 11
1677.52735
 21
752.302184
 31
0.0
  0
LINE
  5
6D0
100
AcDbEntity
  8
スト－ル
  6
CONTINUOUS
 62
     6
100
AcDbLine
 10
1532.089658
 20
697.000122
 30
0.0
 11
1516.06784
 21
697.000122
 31
0.0
  0
LINE
  5
6D1
100
AcDbEntity
  8
スト－ル
  6
CONTINUOUS
 62
     6
100
AcDbLine
 10
1518.233123
 20
687.000122
 30
0.0
 11
1527.2
 21
687.000122
 31
0.0
  0
LINE
  5
6D2
100
AcDbEntity
  8
スト－ル
  6
CONTINUOUS
 62
     6
100
AcDbLine
 10
1519.371917
 20
672.000122
 30
0.0
 11
1523.926727
 21
672.000122
 31
0.0
  0
LINE
  5
6D3
100
AcDbEntity
  8
スト－ル
  6
CONTINUOUS
 62
     6
100
AcDbLine
 10
1537.767745
 20
652.000122
 30
0.0
 11
1540.340545
 21
652.000122
 31
0.0
  0
LINE
  5
6D4
100
AcDbEntity
  8
スト－ル
  6
CONTINUOUS
 62
     6
100
AcDbLine
 10
1539.709493
 20
672.000122
 30
0.0
 11
1541.439422
 21
672.000122
 31
0.0
  0
LINE
  5
6D5
100
AcDbEntity
  8
スト－ル
  6
CONTINUOUS
 62
     6
100
AcDbLine
 10
1621.170623
 20
652.000122
 30
0.0
 11
1625.892975
 21
652.000122
 31
0.0
  0
LINE
  5
6D6
100
AcDbEntity
  8
スト－ル
  6
CONTINUOUS
 62
     6
100
AcDbLine
 10
1620.487395
 20
672.000122
 30
0.0
 11
1623.79421
 21
672.000122
 31
0.0
  0
LINE
  5
6D7
100
AcDbEntity
  8
スト－ル
  6
CONTINUOUS
 62
     6
100
AcDbLine
 10
1617.754607
 20
687.000122
 30
0.0
 11
1622.220135
 21
687.000122
 31
0.0
  0
LINE
  5
6D8
100
AcDbEntity
  8
スト－ル
  6
CONTINUOUS
 62
     6
100
AcDbLine
 10
1621.170753
 20
697.000122
 30
0.0
 11
1598.825652
 21
697.000122
 31
0.0
  0
LINE
  5
6D9
100
AcDbEntity
  8
スト－ル
  6
CONTINUOUS
 62
     2
100
AcDbLine
 10
1618.547503
 20
721.998147
 30
0.0
 11
1626.815723
 21
643.206878
 31
0.0
  0
LINE
  5
6DA
100
AcDbEntity
  8
スト－ル
  6
CONTINUOUS
 62
     6
100
AcDbLine
 10
1675.670623
 20
697.000122
 30
0.0
 11
1631.225662
 21
697.000122
 31
0.0
  0
LINE
  5
6DB
100
AcDbEntity
  8
スト－ル
  6
CONTINUOUS
 62
     6
100
AcDbLine
 10
1527.302455
 20
647.69193
 30
0.0
 11
1538.429799
 21
658.819273
 31
0.0
  0
LINE
  5
6DC
100
AcDbEntity
  8
スト－ル
  6
CONTINUOUS
 62
     6
100
AcDbLine
 10
1528.823115
 20
663.354725
 30
0.0
 11
1539.950459
 21
674.482069
 31
0.0
  0
LINE
  5
6DD
100
AcDbEntity
  8
スト－ル
  6
CONTINUOUS
 62
     6
100
AcDbLine
 10
1530.343775
 20
679.01752
 30
0.0
 11
1541.471118
 21
690.144864
 31
0.0
  0
LINE
  5
6DE
100
AcDbEntity
  8
スト－ル
  6
CONTINUOUS
 62
     6
100
AcDbLine
 10
1531.864434
 20
694.680316
 30
0.0
 11
1542.991778
 21
705.80766
 31
0.0
  0
LINE
  5
6DF
100
AcDbEntity
  8
スト－ル
  6
CONTINUOUS
 62
     6
100
AcDbLine
 10
1533.385094
 20
710.343111
 30
0.0
 11
1544.512438
 21
721.470455
 31
0.0
  0
LINE
  5
6E0
100
AcDbEntity
  8
スト－ル
  6
CONTINUOUS
 62
     6
100
AcDbLine
 10
1534.905754
 20
726.005906
 30
0.0
 11
1546.033098
 21
737.13325
 31
0.0
  0
LINE
  5
6E1
100
AcDbEntity
  8
スト－ル
  6
CONTINUOUS
 62
     6
100
AcDbLine
 10
1512.698233
 20
746.224792
 30
0.0
 11
1521.528544
 21
755.055104
 31
0.0
  0
LINE
  5
6E2
100
AcDbEntity
  8
スト－ル
  6
CONTINUOUS
 62
     6
100
AcDbLine
 10
1522.465171
 20
741.849595
 30
0.0
 11
1535.425441
 21
754.809864
 31
0.0
  0
LINE
  5
6E3
100
AcDbEntity
  8
スト－ル
  6
CONTINUOUS
 62
     6
100
AcDbLine
 10
1531.438862
 20
736.68115
 30
0.0
 11
1549.322337
 21
754.564625
 31
0.0
  0
ARC
  5
6E4
100
AcDbEntity
  8
スト－ル
  6
CONTINUOUS
 62
     2
100
AcDbCircle
 10
1543.885388
 20
654.442707
 30
0.0
 40
90.0
100
AcDbArc
 50
61.77184
 51
84.214734
  0
LINE
  5
6E5
100
AcDbEntity
  8
スト－ル
  6
CONTINUOUS
 62
     6
100
AcDbLine
 10
1552.889673
 20
743.989825
 30
0.0
 11
1563.219233
 21
754.319386
 31
0.0
  0
LINE
  5
6E6
100
AcDbEntity
  8
スト－ル
  6
CONTINUOUS
 62
     6
100
AcDbLine
 10
1565.966597
 20
742.924614
 30
0.0
 11
1577.116129
 21
754.074146
 31
0.0
  0
LINE
  5
6E7
100
AcDbEntity
  8
スト－ル
  6
CONTINUOUS
 62
     6
100
AcDbLine
 10
1579.043522
 20
741.859403
 30
0.0
 11
1591.013026
 21
753.828907
 31
0.0
  0
LINE
  5
6E8
100
AcDbEntity
  8
スト－ル
  6
CONTINUOUS
 62
     6
100
AcDbLine
 10
1592.120446
 20
740.794192
 30
0.0
 11
1604.909922
 21
753.583668
 31
0.0
  0
LINE
  5
6E9
100
AcDbEntity
  8
スト－ル
  6
CONTINUOUS
 62
     6
100
AcDbLine
 10
1599.973366
 20
734.504976
 30
0.0
 11
1605.209842
 21
739.741452
 31
0.0
  0
LINE
  5
6EA
100
AcDbEntity
  8
スト－ル
  6
CONTINUOUS
 62
     6
100
AcDbLine
 10
1608.352092
 20
742.883703
 30
0.0
 11
1615.703186
 21
750.234796
 31
0.0
  0
LINE
  5
6EB
100
AcDbEntity
  8
スト－ル
  6
CONTINUOUS
 62
     6
100
AcDbLine
 10
1612.488439
 20
732.877914
 30
0.0
 11
1616.698399
 21
737.087873
 31
0.0
  0
LINE
  5
6EC
100
AcDbEntity
  8
スト－ル
  6
CONTINUOUS
 62
     6
100
AcDbLine
 10
1617.621181
 20
723.86852
 30
0.0
 11
1627.977453
 21
734.224792
 31
0.0
  0
LINE
  5
6ED
100
AcDbEntity
  8
スト－ル
  6
CONTINUOUS
 62
     6
100
AcDbLine
 10
1619.625003
 20
711.730206
 30
0.0
 11
1628.724977
 21
720.83018
 31
0.0
  0
LINE
  5
6EE
100
AcDbEntity
  8
スト－ル
  6
CONTINUOUS
 62
     6
100
AcDbLine
 10
1620.968111
 20
698.931179
 30
0.0
 11
1630.068085
 21
708.031153
 31
0.0
  0
LINE
  5
6EF
100
AcDbEntity
  8
スト－ル
  6
CONTINUOUS
 62
     6
100
AcDbLine
 10
1622.311219
 20
686.132151
 30
0.0
 11
1631.411193
 21
695.232125
 31
0.0
  0
LINE
  5
6F0
100
AcDbEntity
  8
スト－ル
  6
CONTINUOUS
 62
     6
100
AcDbLine
 10
1623.654327
 20
673.333123
 30
0.0
 11
1632.754301
 21
682.433097
 31
0.0
  0
LINE
  5
6F1
100
AcDbEntity
  8
スト－ル
  6
CONTINUOUS
 62
     6
100
AcDbLine
 10
1624.997435
 20
660.534095
 30
0.0
 11
1634.097408
 21
669.634069
 31
0.0
  0
LINE
  5
6F2
100
AcDbEntity
  8
スト－ル
  6
CONTINUOUS
 62
     6
100
AcDbLine
 10
1626.340542
 20
647.735068
 30
0.0
 11
1635.440516
 21
656.835041
 31
0.0
  0
LINE
  5
6F3
100
AcDbEntity
  8
スト－ル
  6
CONTINUOUS
 62
     6
100
AcDbLine
 10
1646.527313
 20
724.490381
 30
0.0
 11
1661.964324
 21
739.927391
 31
0.0
  0
LINE
  5
6F4
100
AcDbEntity
  8
スト－ル
  6
CONTINUOUS
 62
     6
100
AcDbLine
 10
1668.214451
 20
732.035383
 30
0.0
 11
1686.087518
 21
749.90845
 31
0.0
  0
LINE
  5
6F5
100
AcDbEntity
  8
スト－ル
  6
CONTINUOUS
 62
     6
100
AcDbLine
 10
1504.972381
 20
736.751221
 30
0.0
 11
1510.081168
 21
639.267389
 31
0.0
  0
LINE
  5
6F6
100
AcDbEntity
  8
フラッシュバルブ
  6
CONTINUOUS
 62
     6
100
AcDbLine
 10
976.8099
 20
1641.996057
 30
0.0
 11
650.81006
 21
1641.995887
 31
0.0
  0
LINE
  5
6F7
100
AcDbEntity
  8
フラッシュバルブ
  6
CONTINUOUS
 62
     6
100
AcDbLine
 10
595.81006
 20
1641.995884
 30
0.0
 11
622.810182
 21
1641.995884
 31
0.0
  0
LINE
  5
6F8
100
AcDbEntity
  8
フラッシュバルブ
  6
CONTINUOUS
 62
     6
100
AcDbLine
 10
632.810182
 20
1641.995884
 30
0.0
 11
640.81006
 21
1641.995884
 31
0.0
  0
POLYLINE
  5
6F9
100
AcDbEntity
  8
フラッシュバルブ
  6
CONTINUOUS
 62
     3
100
AcDb2dPolyline
 66
     1
 10
0.0
 20
0.0
 30
0.0
 70
   128
  0
VERTEX
  5
6FA
100
AcDbEntity
  8
フラッシュバルブ
  6
CONTINUOUS
 62
     3
100
AcDbVertex
100
AcDb2dVertex
 10
1682.002986
 20
1783.892571
 30
0.0
  0
VERTEX
  5
6FB
100
AcDbEntity
  8
フラッシュバルブ
  6
CONTINUOUS
 62
     3
100
AcDbVertex
100
AcDb2dVertex
 10
1715.810359
 20
1792.951257
 30
0.0
  0
VERTEX
  5
6FC
100
AcDbEntity
  8
フラッシュバルブ
  6
CONTINUOUS
 62
     3
100
AcDbVertex
100
AcDb2dVertex
 10
1682.002986
 20
1802.009942
 30
0.0
  0
SEQEND
  5
6FD
100
AcDbEntity
  8
フラッシュバルブ
  6
CONTINUOUS
 62
     3
  0
POLYLINE
  5
6FE
100
AcDbEntity
  8
フラッシュバルブ
  6
CONTINUOUS
 62
     3
100
AcDb2dPolyline
 66
     1
 10
0.0
 20
0.0
 30
0.0
 70
   128
  0
VERTEX
  5
6FF
100
AcDbEntity
  8
フラッシュバルブ
  6
CONTINUOUS
 62
     3
100
AcDbVertex
100
AcDb2dVertex
 10
1824.617732
 20
1802.009942
 30
0.0
  0
VERTEX
  5
700
100
AcDbEntity
  8
フラッシュバルブ
  6
CONTINUOUS
 62
     3
100
AcDbVertex
100
AcDb2dVertex
 10
1790.810359
 20
1792.951257
 30
0.0
  0
VERTEX
  5
701
100
AcDbEntity
  8
フラッシュバルブ
  6
CONTINUOUS
 62
     3
100
AcDbVertex
100
AcDb2dVertex
 10
1824.617732
 20
1783.892571
 30
0.0
  0
SEQEND
  5
702
100
AcDbEntity
  8
フラッシュバルブ
  6
CONTINUOUS
 62
     3
  0
LINE
  5
703
100
AcDbEntity
  8
フラッシュバルブ
  6
CONTINUOUS
 62
     3
100
AcDbLine
 10
1670.810359
 20
1792.951257
 30
0.0
 11
1835.810359
 21
1792.951257
 31
0.0
  0
TEXT
  5
704
100
AcDbEntity
  8
フラッシュバルブ
  6
CONTINUOUS
 62
     2
100
AcDbText
 10
1715.310481
 20
1796.450707
 30
0.0
 40
40.0
  1
７５
 41
0.861
  7
EXCADSTD
 72
     5
 11
1790.471681
 21
1796.450707
 31
0.0
100
AcDbText
  0
LINE
  5
705
100
AcDbEntity
  8
フラッシュバルブ
  6
CONTINUOUS
 62
     6
100
AcDbLine
 10
1674.810451
 20
1641.996057
 30
0.0
 11
1738.628658
 21
1641.996057
 31
0.0
  0
LINE
  5
706
100
AcDbEntity
  8
フラッシュバルブ
  6
CONTINUOUS
 62
     6
100
AcDbLine
 10
1748.628658
 20
1641.996057
 30
0.0
 11
1756.628688
 21
1641.996057
 31
0.0
  0
LINE
  5
707
100
AcDbEntity
  8
フラッシュバルブ
  6
CONTINUOUS
 62
     6
100
AcDbLine
 10
1766.628688
 20
1641.996057
 30
0.0
 11
1824.810298
 21
1641.996057
 31
0.0
  0
LINE
  5
708
100
AcDbEntity
  8
フラッシュバルブ
  6
CONTINUOUS
 62
     6
100
AcDbLine
 10
1822.318385
 20
1700.889947
 30
0.0
 11
1940.999965
 21
1700.889947
 31
0.0
  0
TEXT
  5
709
100
AcDbEntity
  8
フラッシュバルブ
  6
CONTINUOUS
 62
     2
100
AcDbText
 10
1815.636806
 20
1704.390008
 30
0.0
 40
40.0
  1
ＰＪ
 41
0.861
  7
EXCADSTD
 72
     5
 11
1890.798006
 21
1704.390008
 31
0.0
100
AcDbText
  0
TEXT
  5
70A
100
AcDbEntity
  8
フラッシュバルブ
  6
CONTINUOUS
 62
     6
100
AcDbText
 10
1891.522853
 20
1704.390008
 30
0.0
 40
40.0
  1
／ 
 41
0.9912
  7
EXCADSTD
 72
     5
 11
1929.282851
 21
1704.390008
 31
0.0
100
AcDbText
  0
TEXT
  5
70B
100
AcDbEntity
  8
フラッシュバルブ
  6
CONTINUOUS
 62
     2
100
AcDbText
 10
1882.31219
 20
1719.42846
 30
0.0
 40
25.0
  1
１
 41
0.9912
  7
EXCADSTD
 72
     5
 11
1905.912191
 21
1719.42846
 31
0.0
100
AcDbText
  0
TEXT
  5
70C
100
AcDbEntity
  8
フラッシュバルブ
  6
CONTINUOUS
 62
     2
100
AcDbText
 10
1917.720363
 20
1705.69082
 30
0.0
 40
25.0
  1
２
 41
0.9912
  7
EXCADSTD
 72
     5
 11
1941.320363
 21
1705.69082
 31
0.0
100
AcDbText
  0
LINE
  5
70D
100
AcDbEntity
  8
フラッシュバルブ
  6
EXLTYPE3
 62
     1
100
AcDbLine
 10
1715.810359
 20
1712.491815
 30
0.0
 11
1715.810359
 21
1446.695878
 31
0.0
  0
LINE
  5
70E
100
AcDbEntity
  8
フラッシュバルブ
  6
CONTINUOUS
 62
     3
100
AcDbLine
 10
1715.810359
 20
1712.491815
 30
0.0
 11
1715.810359
 21
1812.951257
 31
0.0
  0
LINE
  5
70F
100
AcDbEntity
  8
フラッシュバルブ
  6
CONTINUOUS
 62
     6
100
AcDbLine
 10
627.53241
 20
2615.000033
 30
0.0
 11
646.08739
 21
2615.000033
 31
0.0
  0
LINE
  5
710
100
AcDbEntity
  8
フラッシュバルブ
  6
CONTINUOUS
 62
     6
100
AcDbLine
 10
627.49441
 20
2601.000163
 30
0.0
 11
627.49441
 21
2614.962013
 31
0.0
  0
LINE
  5
711
100
AcDbEntity
  8
フラッシュバルブ
  6
CONTINUOUS
 62
     6
100
AcDbLine
 10
626.33241
 20
2613.800023
 30
0.0
 11
627.53241
 21
2615.000033
 31
0.0
  0
LINE
  5
712
100
AcDbEntity
  8
フラッシュバルブ
  6
CONTINUOUS
 62
     6
100
AcDbLine
 10
646.08739
 20
2615.000033
 30
0.0
 11
647.2874
 21
2613.800023
 31
0.0
  0
LINE
  5
713
100
AcDbEntity
  8
フラッシュバルブ
  6
CONTINUOUS
 62
     6
100
AcDbLine
 10
646.12541
 20
2601.000143
 30
0.0
 11
646.12541
 21
2614.962013
 31
0.0
  0
LINE
  5
714
100
AcDbEntity
  8
フラッシュバルブ
  6
CONTINUOUS
 62
     6
100
AcDbLine
 10
626.33241
 20
2613.800023
 30
0.0
 11
647.2874
 21
2613.800023
 31
0.0
  0
LINE
  5
715
100
AcDbEntity
  8
フラッシュバルブ
  6
CONTINUOUS
 62
     6
100
AcDbLine
 10
647.2874
 20
2589.123353
 30
0.0
 11
647.2874
 21
2591.500033
 31
0.0
  0
LINE
  5
716
100
AcDbEntity
  8
フラッシュバルブ
  6
CONTINUOUS
 62
     6
100
AcDbLine
 10
613.05991
 20
2597.601443
 30
0.0
 11
613.05991
 21
2601.000153
 31
0.0
  0
LINE
  5
717
100
AcDbEntity
  8
フラッシュバルブ
  6
CONTINUOUS
 62
     6
100
AcDbLine
 10
614.15809
 20
2596.500033
 30
0.0
 11
659.46174
 21
2596.500033
 31
0.0
  0
LINE
  5
718
100
AcDbEntity
  8
フラッシュバルブ
  6
CONTINUOUS
 62
     6
100
AcDbLine
 10
660.55991
 20
2597.601443
 30
0.0
 11
660.55991
 21
2601.000153
 31
0.0
  0
LINE
  5
719
100
AcDbEntity
  8
フラッシュバルブ
  6
CONTINUOUS
 62
     6
100
AcDbLine
 10
622.28997
 20
2591.500033
 30
0.0
 11
651.32987
 21
2591.500033
 31
0.0
  0
LINE
  5
71A
100
AcDbEntity
  8
フラッシュバルブ
  6
CONTINUOUS
 62
     6
100
AcDbLine
 10
626.33241
 20
2613.800023
 30
0.0
 11
626.33241
 21
2601.000173
 31
0.0
  0
LINE
  5
71B
100
AcDbEntity
  8
フラッシュバルブ
  6
CONTINUOUS
 62
     6
100
AcDbLine
 10
621.3099
 20
2489.500003
 30
0.0
 11
652.3099
 21
2489.500003
 31
0.0
  0
LINE
  5
71C
100
AcDbEntity
  8
フラッシュバルブ
  6
CONTINUOUS
 62
     6
100
AcDbLine
 10
621.3099
 20
2499.500003
 30
0.0
 11
652.3099
 21
2499.500003
 31
0.0
  0
LINE
  5
71D
100
AcDbEntity
  8
フラッシュバルブ
  6
CONTINUOUS
 62
     6
100
AcDbLine
 10
643.3099
 20
2483.000003
 30
0.0
 11
630.3099
 21
2483.000003
 31
0.0
  0
LINE
  5
71E
100
AcDbEntity
  8
フラッシュバルブ
  6
CONTINUOUS
 62
     6
100
AcDbLine
 10
627.8099
 20
2478.000003
 30
0.0
 11
645.8099
 21
2478.000003
 31
0.0
  0
LINE
  5
71F
100
AcDbEntity
  8
フラッシュバルブ
  6
CONTINUOUS
 62
     6
100
AcDbLine
 10
631.3099
 20
2478.000003
 30
0.0
 11
631.3099
 21
2483.000003
 31
0.0
  0
LINE
  5
720
100
AcDbEntity
  8
フラッシュバルブ
  6
CONTINUOUS
 62
     6
100
AcDbLine
 10
642.3099
 20
2478.000003
 30
0.0
 11
642.3099
 21
2483.000003
 31
0.0
  0
LINE
  5
721
100
AcDbEntity
  8
フラッシュバルブ
  6
CONTINUOUS
 62
     6
100
AcDbLine
 10
645.8099
 20
2475.000003
 30
0.0
 11
627.8099
 21
2475.000003
 31
0.0
  0
LINE
  5
722
100
AcDbEntity
  8
フラッシュバルブ
  6
CONTINUOUS
 62
     6
100
AcDbLine
 10
645.3099
 20
2485.000003
 30
0.0
 11
645.3099
 21
2489.500003
 31
0.0
  0
LINE
  5
723
100
AcDbEntity
  8
フラッシュバルブ
  6
CONTINUOUS
 62
     6
100
AcDbLine
 10
628.3099
 20
2485.000003
 30
0.0
 11
628.3099
 21
2489.500003
 31
0.0
  0
LINE
  5
724
100
AcDbEntity
  8
フラッシュバルブ
  6
CONTINUOUS
 62
     6
100
AcDbLine
 10
648.30991
 20
2552.568332
 30
0.0
 11
648.30991
 21
2547.000003
 31
0.0
  0
LINE
  5
725
100
AcDbEntity
  8
フラッシュバルブ
  6
CONTINUOUS
 62
     6
100
AcDbLine
 10
622.8099
 20
2502.279973
 30
0.0
 11
623.5489
 21
2501.000003
 31
0.0
  0
LINE
  5
726
100
AcDbEntity
  8
フラッシュバルブ
  6
CONTINUOUS
 62
     6
100
AcDbLine
 10
623.5489
 20
2501.000003
 30
0.0
 11
623.5489
 21
2499.500003
 31
0.0
  0
LINE
  5
727
100
AcDbEntity
  8
フラッシュバルブ
  6
CONTINUOUS
 62
     6
100
AcDbLine
 10
650.8099
 20
2502.279973
 30
0.0
 11
650.0709
 21
2501.000003
 31
0.0
  0
LINE
  5
728
100
AcDbEntity
  8
フラッシュバルブ
  6
CONTINUOUS
 62
     6
100
AcDbLine
 10
622.77858
 20
2501.000003
 30
0.0
 11
650.8099
 21
2501.000003
 31
0.0
  0
LINE
  5
729
100
AcDbEntity
  8
フラッシュバルブ
  6
CONTINUOUS
 62
     6
100
AcDbLine
 10
650.0709
 20
2501.000003
 30
0.0
 11
650.0709
 21
2499.500003
 31
0.0
  0
LINE
  5
72A
100
AcDbEntity
  8
フラッシュバルブ
  6
CONTINUOUS
 62
     6
100
AcDbLine
 10
650.8099
 20
2499.500003
 30
0.0
 11
650.8099
 21
2507.125417
 31
0.0
  0
LINE
  5
72B
100
AcDbEntity
  8
フラッシュバルブ
  6
CONTINUOUS
 62
     6
100
AcDbLine
 10
647.28741
 20
2589.987403
 30
0.0
 11
646.41409
 21
2591.500033
 31
0.0
  0
LINE
  5
72C
100
AcDbEntity
  8
フラッシュバルブ
  6
CONTINUOUS
 62
     6
100
AcDbLine
 10
647.2874
 20
2601.000143
 30
0.0
 11
647.2874
 21
2613.800023
 31
0.0
  0
ARC
  5
72D
100
AcDbEntity
  8
フラッシュバルブ
  6
CONTINUOUS
 62
     6
100
AcDbCircle
 10
609.80991
 20
2569.000003
 30
0.0
 40
40.5
100
AcDbArc
 50
346.1206
 51
17.0839
  0
ARC
  5
72E
100
AcDbEntity
  8
フラッシュバルブ
  6
CONTINUOUS
 62
     6
100
AcDbCircle
 10
676.30991
 20
2552.568332
 30
0.0
 40
28.0
100
AcDbArc
 50
166.12064
 51
180.0
  0
ARC
  5
72F
100
AcDbEntity
  8
フラッシュバルブ
  6
CONTINUOUS
 62
     6
100
AcDbCircle
 10
675.2874
 20
2589.123323
 30
0.0
 40
28.0
100
AcDbArc
 50
180.0
 51
197.0839
  0
ARC
  5
730
100
AcDbEntity
  8
フラッシュバルブ
  6
CONTINUOUS
 62
     6
100
AcDbCircle
 10
666.98578
 20
2680.714033
 30
0.0
 40
100.0
100
AcDbArc
 50
238.0043
 51
242.8656
  0
ARC
  5
731
100
AcDbEntity
  8
フラッシュバルブ
  6
CONTINUOUS
 62
     6
100
AcDbCircle
 10
615.05991
 20
2597.601443
 30
0.0
 40
2.0
100
AcDbArc
 50
180.0
 51
238.0043
  0
ARC
  5
732
100
AcDbEntity
  8
フラッシュバルブ
  6
CONTINUOUS
 62
     6
100
AcDbCircle
 10
606.63405
 20
2680.714033
 30
0.0
 40
100.0
100
AcDbArc
 50
297.1344
 51
301.9957
  0
ARC
  5
733
100
AcDbEntity
  8
フラッシュバルブ
  6
CONTINUOUS
 62
     6
100
AcDbCircle
 10
658.55991
 20
2597.601443
 30
0.0
 40
2.0
100
AcDbArc
 50
301.9957
 51
0.0
  0
ARC
  5
734
100
AcDbEntity
  8
フラッシュバルブ
  6
CONTINUOUS
 62
     6
100
AcDbCircle
 10
622.28997
 20
2593.500033
 30
0.0
 40
2.0
100
AcDbArc
 50
242.8656
 51
270.0
  0
ARC
  5
735
100
AcDbEntity
  8
フラッシュバルブ
  6
CONTINUOUS
 62
     6
100
AcDbCircle
 10
651.32985
 20
2593.500033
 30
0.0
 40
2.0
100
AcDbArc
 50
270.0007
 51
297.1344
  0
ARC
  5
736
100
AcDbEntity
  8
フラッシュバルブ
  6
CONTINUOUS
 62
     6
100
AcDbCircle
 10
633.106559
 20
2497.299993
 30
0.0
 40
2.0
100
AcDbArc
 50
0.0
 51
87.6201
  0
ARC
  5
737
100
AcDbEntity
  8
フラッシュバルブ
  6
CONTINUOUS
 62
     6
100
AcDbCircle
 10
633.106559
 20
2491.700013
 30
0.0
 40
2.0
100
AcDbArc
 50
272.3799
 51
0.0
  0
ARC
  5
738
100
AcDbEntity
  8
フラッシュバルブ
  6
CONTINUOUS
 62
     6
100
AcDbCircle
 10
645.8099
 20
2476.500003
 30
0.0
 40
1.5
100
AcDbArc
 50
270.0
 51
90.0
  0
ARC
  5
739
100
AcDbEntity
  8
フラッシュバルブ
  6
CONTINUOUS
 62
     6
100
AcDbCircle
 10
627.8099
 20
2476.500003
 30
0.0
 40
1.5
100
AcDbArc
 50
90.0
 51
270.0
  0
ARC
  5
73A
100
AcDbEntity
  8
フラッシュバルブ
  6
CONTINUOUS
 62
     6
100
AcDbCircle
 10
643.3099
 20
2485.000003
 30
0.0
 40
2.0
100
AcDbArc
 50
270.0
 51
0.0
  0
ARC
  5
73B
100
AcDbEntity
  8
フラッシュバルブ
  6
CONTINUOUS
 62
     6
100
AcDbCircle
 10
630.3099
 20
2485.000003
 30
0.0
 40
2.0
100
AcDbArc
 50
180.0
 51
270.0
  0
ARC
  5
73C
100
AcDbEntity
  8
フラッシュバルブ
  6
CONTINUOUS
 62
     6
100
AcDbCircle
 10
625.013212
 20
2491.700013
 30
0.0
 40
2.0
100
AcDbArc
 50
180.0
 51
267.62
  0
ARC
  5
73D
100
AcDbEntity
  8
フラッシュバルブ
  6
CONTINUOUS
 62
     6
100
AcDbCircle
 10
625.013212
 20
2497.299993
 30
0.0
 40
2.0
100
AcDbArc
 50
92.379883
 51
180.0
  0
LINE
  5
73E
100
AcDbEntity
  8
フラッシュバルブ
  6
CONTINUOUS
 62
     6
100
AcDbLine
 10
626.3324
 20
2589.123353
 30
0.0
 11
626.3324
 21
2591.500033
 31
0.0
  0
LINE
  5
73F
100
AcDbEntity
  8
フラッシュバルブ
  6
CONTINUOUS
 62
     6
100
AcDbLine
 10
626.33239
 20
2589.987403
 30
0.0
 11
627.20571
 21
2591.500033
 31
0.0
  0
ARC
  5
740
100
AcDbEntity
  8
フラッシュバルブ
  6
CONTINUOUS
 62
     6
100
AcDbCircle
 10
622.28995
 20
2593.500033
 30
0.0
 40
2.0
100
AcDbArc
 50
242.8656
 51
269.9993
  0
LINE
  5
741
100
AcDbEntity
  8
フラッシュバルブ
  6
CONTINUOUS
 62
     6
100
AcDbLine
 10
625.30989
 20
2552.568332
 30
0.0
 11
625.30989
 21
2547.000003
 31
0.0
  0
ARC
  5
742
100
AcDbEntity
  8
フラッシュバルブ
  6
CONTINUOUS
 62
     6
100
AcDbCircle
 10
663.80989
 20
2569.000003
 30
0.0
 40
40.5
100
AcDbArc
 50
162.9161
 51
193.8794
  0
ARC
  5
743
100
AcDbEntity
  8
フラッシュバルブ
  6
CONTINUOUS
 62
     6
100
AcDbCircle
 10
597.30989
 20
2552.568332
 30
0.0
 40
28.0
100
AcDbArc
 50
0.0
 51
13.87936
  0
ARC
  5
744
100
AcDbEntity
  8
フラッシュバルブ
  6
CONTINUOUS
 62
     6
100
AcDbCircle
 10
598.3324
 20
2589.123323
 30
0.0
 40
28.0
100
AcDbArc
 50
342.9161
 51
0.0
  0
CIRCLE
  5
745
100
AcDbEntity
  8
フラッシュバルブ
  6
CONTINUOUS
 62
     6
100
AcDbCircle
 10
636.8099
 20
2569.000004
 30
0.0
 40
4.358896
  0
CIRCLE
  5
746
100
AcDbEntity
  8
フラッシュバルブ
  6
CONTINUOUS
 62
     6
100
AcDbCircle
 10
636.8099
 20
2569.000004
 30
0.0
 40
7.499999
  0
LINE
  5
747
100
AcDbEntity
  8
フラッシュバルブ
  6
CONTINUOUS
 62
     6
100
AcDbLine
 10
647.309893
 20
2573.690433
 30
0.0
 11
647.309893
 21
2564.309575
 31
0.0
  0
LINE
  5
748
100
AcDbEntity
  8
フラッシュバルブ
  6
CONTINUOUS
 62
     6
100
AcDbLine
 10
637.997866
 20
2580.438479
 30
0.0
 11
646.121927
 21
2575.74805
 31
0.0
  0
LINE
  5
749
100
AcDbEntity
  8
フラッシュバルブ
  6
CONTINUOUS
 62
     6
100
AcDbLine
 10
627.497873
 20
2575.74805
 30
0.0
 11
635.621934
 21
2580.438479
 31
0.0
  0
LINE
  5
74A
100
AcDbEntity
  8
フラッシュバルブ
  6
CONTINUOUS
 62
     6
100
AcDbLine
 10
626.309907
 20
2564.309575
 30
0.0
 11
626.309907
 21
2573.690433
 31
0.0
  0
LINE
  5
74B
100
AcDbEntity
  8
フラッシュバルブ
  6
CONTINUOUS
 62
     6
100
AcDbLine
 10
635.621934
 20
2557.561528
 30
0.0
 11
627.497873
 21
2562.251957
 31
0.0
  0
LINE
  5
74C
100
AcDbEntity
  8
フラッシュバルブ
  6
CONTINUOUS
 62
     6
100
AcDbLine
 10
646.121927
 20
2562.251957
 30
0.0
 11
637.997866
 21
2557.561528
 31
0.0
  0
ARC
  5
74D
100
AcDbEntity
  8
フラッシュバルブ
  6
CONTINUOUS
 62
     6
100
AcDbCircle
 10
636.8099
 20
2569.000004
 30
0.0
 40
11.499999
100
AcDbArc
 50
144.070689
 51
155.929311
  0
ARC
  5
74E
100
AcDbEntity
  8
フラッシュバルブ
  6
CONTINUOUS
 62
     6
100
AcDbCircle
 10
636.8099
 20
2569.000004
 30
0.0
 40
11.499999
100
AcDbArc
 50
204.070689
 51
215.929311
  0
ARC
  5
74F
100
AcDbEntity
  8
フラッシュバルブ
  6
CONTINUOUS
 62
     6
100
AcDbCircle
 10
636.8099
 20
2569.000004
 30
0.0
 40
11.499999
100
AcDbArc
 50
264.070689
 51
275.929311
  0
ARC
  5
750
100
AcDbEntity
  8
フラッシュバルブ
  6
CONTINUOUS
 62
     6
100
AcDbCircle
 10
636.8099
 20
2569.000004
 30
0.0
 40
11.499999
100
AcDbArc
 50
324.070689
 51
335.929311
  0
ARC
  5
751
100
AcDbEntity
  8
フラッシュバルブ
  6
CONTINUOUS
 62
     6
100
AcDbCircle
 10
636.8099
 20
2569.000004
 30
0.0
 40
11.499999
100
AcDbArc
 50
24.070689
 51
35.929311
  0
ARC
  5
752
100
AcDbEntity
  8
フラッシュバルブ
  6
CONTINUOUS
 62
     6
100
AcDbCircle
 10
636.8099
 20
2569.000004
 30
0.0
 40
11.499999
100
AcDbArc
 50
84.070689
 51
95.929311
  0
LINE
  5
753
100
AcDbEntity
  8
フラッシュバルブ
  6
CONTINUOUS
 62
     6
100
AcDbLine
 10
632.50758
 20
2569.700013
 30
0.0
 11
641.112221
 21
2569.700013
 31
0.0
  0
LINE
  5
754
100
AcDbEntity
  8
フラッシュバルブ
  6
CONTINUOUS
 62
     6
100
AcDbLine
 10
632.50758
 20
2568.299995
 30
0.0
 11
641.112221
 21
2568.299995
 31
0.0
  0
CIRCLE
  5
755
100
AcDbEntity
  8
フラッシュバルブ
  6
CONTINUOUS
 62
     6
100
AcDbCircle
 10
636.8099
 20
2526.000003
 30
0.0
 40
23.5
  0
CIRCLE
  5
756
100
AcDbEntity
  8
フラッシュバルブ
  6
CONTINUOUS
 62
     6
100
AcDbCircle
 10
636.8099
 20
2526.000003
 30
0.0
 40
6.40002
  0
LINE
  5
757
100
AcDbEntity
  8
フラッシュバルブ
  6
CONTINUOUS
 62
     6
100
AcDbLine
 10
646.795509
 20
2531.153873
 30
0.0
 11
646.795509
 21
2520.846133
 31
0.0
  0
LINE
  5
758
100
AcDbEntity
  8
フラッシュバルブ
  6
CONTINUOUS
 62
     6
100
AcDbLine
 10
637.339322
 20
2537.224728
 30
0.0
 11
646.266087
 21
2532.070858
 31
0.0
  0
LINE
  5
759
100
AcDbEntity
  8
フラッシュバルブ
  6
CONTINUOUS
 62
     6
100
AcDbLine
 10
627.353714
 20
2532.070858
 30
0.0
 11
636.280478
 21
2537.224728
 31
0.0
  0
LINE
  5
75A
100
AcDbEntity
  8
フラッシュバルブ
  6
CONTINUOUS
 62
     6
100
AcDbLine
 10
626.824292
 20
2520.846133
 30
0.0
 11
626.824292
 21
2531.153873
 31
0.0
  0
LINE
  5
75B
100
AcDbEntity
  8
フラッシュバルブ
  6
CONTINUOUS
 62
     6
100
AcDbLine
 10
636.280478
 20
2514.775277
 30
0.0
 11
627.353714
 21
2519.929147
 31
0.0
  0
LINE
  5
75C
100
AcDbEntity
  8
フラッシュバルブ
  6
CONTINUOUS
 62
     6
100
AcDbLine
 10
646.266087
 20
2519.929147
 30
0.0
 11
637.339322
 21
2514.775277
 31
0.0
  0
ARC
  5
75D
100
AcDbEntity
  8
フラッシュバルブ
  6
CONTINUOUS
 62
     6
100
AcDbCircle
 10
636.8099
 20
2526.000003
 30
0.0
 40
11.237204
100
AcDbArc
 50
87.299606
 51
92.700394
  0
ARC
  5
75E
100
AcDbEntity
  8
フラッシュバルブ
  6
CONTINUOUS
 62
     6
100
AcDbCircle
 10
636.8099
 20
2526.000003
 30
0.0
 40
11.237204
100
AcDbArc
 50
147.299606
 51
152.700394
  0
ARC
  5
75F
100
AcDbEntity
  8
フラッシュバルブ
  6
CONTINUOUS
 62
     6
100
AcDbCircle
 10
636.8099
 20
2526.000003
 30
0.0
 40
11.237204
100
AcDbArc
 50
207.299606
 51
212.700394
  0
ARC
  5
760
100
AcDbEntity
  8
フラッシュバルブ
  6
CONTINUOUS
 62
     6
100
AcDbCircle
 10
636.8099
 20
2526.000003
 30
0.0
 40
11.237204
100
AcDbArc
 50
267.299606
 51
272.700394
  0
ARC
  5
761
100
AcDbEntity
  8
フラッシュバルブ
  6
CONTINUOUS
 62
     6
100
AcDbCircle
 10
636.8099
 20
2526.000003
 30
0.0
 40
11.237204
100
AcDbArc
 50
327.299606
 51
332.700394
  0
ARC
  5
762
100
AcDbEntity
  8
フラッシュバルブ
  6
CONTINUOUS
 62
     6
100
AcDbCircle
 10
636.8099
 20
2526.000003
 30
0.0
 40
11.237204
100
AcDbArc
 50
27.299606
 51
32.700394
  0
CIRCLE
  5
763
100
AcDbEntity
  8
フラッシュバルブ
  6
CONTINUOUS
 62
     6
100
AcDbCircle
 10
636.8099
 20
2526.000003
 30
0.0
 40
8.5
  0
LINE
  5
764
100
AcDbEntity
  8
フラッシュバルブ
  6
CONTINUOUS
 62
     6
100
AcDbLine
 10
657.015098
 20
2514.000003
 30
0.0
 11
664.3099
 21
2514.000003
 31
0.0
  0
LINE
  5
765
100
AcDbEntity
  8
フラッシュバルブ
  6
CONTINUOUS
 62
     6
100
AcDbLine
 10
663.3099
 20
2537.187003
 30
0.0
 11
664.3099
 21
2537.187003
 31
0.0
  0
LINE
  5
766
100
AcDbEntity
  8
フラッシュバルブ
  6
CONTINUOUS
 62
     6
100
AcDbLine
 10
663.3099
 20
2514.813003
 30
0.0
 11
664.3099
 21
2514.813003
 31
0.0
  0
LINE
  5
767
100
AcDbEntity
  8
フラッシュバルブ
  6
CONTINUOUS
 62
     6
100
AcDbLine
 10
663.3099
 20
2514.000003
 30
0.0
 11
663.3099
 21
2538.000003
 31
0.0
  0
LINE
  5
768
100
AcDbEntity
  8
フラッシュバルブ
  6
CONTINUOUS
 62
     6
100
AcDbLine
 10
661.9018
 20
2514.000003
 30
0.0
 11
663.3099
 21
2514.813003
 31
0.0
  0
LINE
  5
769
100
AcDbEntity
  8
フラッシュバルブ
  6
CONTINUOUS
 62
     6
100
AcDbLine
 10
661.9018
 20
2538.000003
 30
0.0
 11
663.3099
 21
2537.187003
 31
0.0
  0
LINE
  5
76A
100
AcDbEntity
  8
フラッシュバルブ
  6
CONTINUOUS
 62
     6
100
AcDbLine
 10
664.3099
 20
2538.900003
 30
0.0
 11
664.3099
 21
2513.100003
 31
0.0
  0
LINE
  5
76B
100
AcDbEntity
  8
フラッシュバルブ
  6
CONTINUOUS
 62
     6
100
AcDbLine
 10
664.3099
 20
2538.000003
 30
0.0
 11
657.015098
 21
2538.000003
 31
0.0
  0
LINE
  5
76C
100
AcDbEntity
  8
フラッシュバルブ
  6
CONTINUOUS
 62
     6
100
AcDbLine
 10
678.3099
 20
2531.500003
 30
0.0
 11
678.3099
 21
2520.500003
 31
0.0
  0
LINE
  5
76D
100
AcDbEntity
  8
フラッシュバルブ
  6
CONTINUOUS
 62
     6
100
AcDbLine
 10
688.8099
 20
2529.250003
 30
0.0
 11
688.8099
 21
2522.750003
 31
0.0
  0
LINE
  5
76E
100
AcDbEntity
  8
フラッシュバルブ
  6
CONTINUOUS
 62
     6
100
AcDbLine
 10
672.8099
 20
2514.000003
 30
0.0
 11
678.3099
 21
2520.500003
 31
0.0
  0
LINE
  5
76F
100
AcDbEntity
  8
フラッシュバルブ
  6
CONTINUOUS
 62
     6
100
AcDbLine
 10
672.8099
 20
2538.000003
 30
0.0
 11
678.3099
 21
2531.500003
 31
0.0
  0
LINE
  5
770
100
AcDbEntity
  8
フラッシュバルブ
  6
CONTINUOUS
 62
     6
100
AcDbLine
 10
672.3099
 20
2538.000003
 30
0.0
 11
672.8099
 21
2538.000003
 31
0.0
  0
LINE
  5
771
100
AcDbEntity
  8
フラッシュバルブ
  6
CONTINUOUS
 62
     6
100
AcDbLine
 10
672.3099
 20
2514.000003
 30
0.0
 11
672.8099
 21
2514.000003
 31
0.0
  0
LINE
  5
772
100
AcDbEntity
  8
フラッシュバルブ
  6
CONTINUOUS
 62
     6
100
AcDbLine
 10
672.8099
 20
2514.000003
 30
0.0
 11
672.8099
 21
2538.000003
 31
0.0
  0
LINE
  5
773
100
AcDbEntity
  8
フラッシュバルブ
  6
CONTINUOUS
 62
     6
100
AcDbLine
 10
672.3099
 20
2537.999983
 30
0.0
 11
672.3099
 21
2514.000003
 31
0.0
  0
ARC
  5
774
100
AcDbEntity
  8
フラッシュバルブ
  6
CONTINUOUS
 62
     6
100
AcDbCircle
 10
687.3099
 20
2522.750003
 30
0.0
 40
1.5
100
AcDbArc
 50
270.0
 51
0.0
  0
ARC
  5
775
100
AcDbEntity
  8
フラッシュバルブ
  6
CONTINUOUS
 62
     6
100
AcDbCircle
 10
687.3099
 20
2529.250003
 30
0.0
 40
1.5
100
AcDbArc
 50
0.0
 51
90.0
  0
CIRCLE
  5
776
100
AcDbEntity
  8
フラッシュバルブ
  6
CONTINUOUS
 62
     6
100
AcDbCircle
 10
684.3099
 20
2526.000003
 30
0.0
 40
2.0
  0
ARC
  5
777
100
AcDbEntity
  8
フラッシュバルブ
  6
CONTINUOUS
 62
     6
100
AcDbCircle
 10
684.3099
 20
2535.058425
 30
0.0
 40
4.75
100
AcDbArc
 50
245.098938
 51
294.901062
  0
LINE
  5
778
100
AcDbEntity
  8
フラッシュバルブ
  6
CONTINUOUS
 62
     6
100
AcDbLine
 10
678.3099
 20
2530.750003
 30
0.0
 11
682.3099
 21
2530.750003
 31
0.0
  0
LINE
  5
779
100
AcDbEntity
  8
フラッシュバルブ
  6
CONTINUOUS
 62
     6
100
AcDbLine
 10
686.3099
 20
2530.750003
 30
0.0
 11
687.3099
 21
2530.750003
 31
0.0
  0
LINE
  5
77A
100
AcDbEntity
  8
フラッシュバルブ
  6
CONTINUOUS
 62
     6
100
AcDbLine
 10
678.3099
 20
2521.250003
 30
0.0
 11
682.3099
 21
2521.250003
 31
0.0
  0
LINE
  5
77B
100
AcDbEntity
  8
フラッシュバルブ
  6
CONTINUOUS
 62
     6
100
AcDbLine
 10
686.3099
 20
2521.250003
 30
0.0
 11
687.3099
 21
2521.250003
 31
0.0
  0
ARC
  5
77C
100
AcDbEntity
  8
フラッシュバルブ
  6
CONTINUOUS
 62
     6
100
AcDbCircle
 10
684.3099
 20
2516.941581
 30
0.0
 40
4.75
100
AcDbArc
 50
65.098938
 51
114.901062
  0
LINE
  5
77D
100
AcDbEntity
  8
フラッシュバルブ
  6
CONTINUOUS
 62
     6
100
AcDbLine
 10
664.509929
 20
2512.944257
 30
0.0
 11
671.309871
 21
2512.944257
 31
0.0
  0
ARC
  5
77E
100
AcDbEntity
  8
フラッシュバルブ
  6
CONTINUOUS
 62
     6
100
AcDbCircle
 10
667.8694
 20
2534.534573
 30
0.0
 40
5.632679
100
AcDbArc
 50
37.96893
 51
52.352235
  0
ARC
  5
77F
100
AcDbEntity
  8
フラッシュバルブ
  6
CONTINUOUS
 62
     6
100
AcDbCircle
 10
667.8694
 20
2534.534573
 30
0.0
 40
5.632679
100
AcDbArc
 50
126.614289
 51
129.1934
  0
ARC
  5
780
100
AcDbEntity
  8
フラッシュバルブ
  6
CONTINUOUS
 62
     6
100
AcDbCircle
 10
667.8694
 20
2517.465433
 30
0.0
 40
5.632679
100
AcDbArc
 50
230.8067
 51
233.385711
  0
ARC
  5
781
100
AcDbEntity
  8
フラッシュバルブ
  6
CONTINUOUS
 62
     6
100
AcDbCircle
 10
667.8694
 20
2517.465433
 30
0.0
 40
5.632679
100
AcDbArc
 50
307.647765
 51
322.031
  0
LINE
  5
782
100
AcDbEntity
  8
フラッシュバルブ
  6
CONTINUOUS
 62
     6
100
AcDbLine
 10
664.509929
 20
2539.000003
 30
0.0
 11
671.309871
 21
2539.000003
 31
0.0
  0
ELLIPSE
  5
783
100
AcDbEntity
  8
フラッシュバルブ
  6
CONTINUOUS
 62
     6
100
AcDbEllipse
 10
667.9099
 20
2532.500018
 30
0.0
 11
0.0000000000000034
 21
-4.8390950000000004
 31
0.0
210
0.0
220
0.0
230
1.0
 40
0.702605
 41
0.0
 42
6.2831853071796004
  0
ELLIPSE
  5
784
100
AcDbEntity
  8
フラッシュバルブ
  6
CONTINUOUS
 62
     6
100
AcDbEllipse
 10
667.9099
 20
2519.499988
 30
0.0
 11
-0.0000000000000029
 21
4.8390950000000004
 31
0.0
210
0.0
220
0.0
230
1.0
 40
0.702605
 41
0.0
 42
6.2831853071796004
  0
LINE
  5
785
100
AcDbEntity
  8
フラッシュバルブ
  6
CONTINUOUS
 62
     6
100
AcDbLine
 10
622.8099
 20
2499.500003
 30
0.0
 11
622.8099
 21
2507.125417
 31
0.0
  0
LINE
  5
786
100
AcDbEntity
  8
フラッシュバルブ
  6
CONTINUOUS
 62
     6
100
AcDbLine
 10
621.309885
 20
2489.700013
 30
0.0
 11
621.309885
 21
2499.299993
 31
0.0
  0
LINE
  5
787
100
AcDbEntity
  8
フラッシュバルブ
  6
CONTINUOUS
 62
     6
100
AcDbLine
 10
652.309916
 20
2489.700013
 30
0.0
 11
652.309916
 21
2499.299993
 31
0.0
  0
LINE
  5
788
100
AcDbEntity
  8
フラッシュバルブ
  6
CONTINUOUS
 62
     6
100
AcDbLine
 10
623.013212
 20
2497.299993
 30
0.0
 11
623.013212
 21
2491.700013
 31
0.0
  0
LINE
  5
789
100
AcDbEntity
  8
フラッシュバルブ
  6
CONTINUOUS
 62
     6
100
AcDbLine
 10
635.106559
 20
2497.299993
 30
0.0
 11
635.106559
 21
2491.700013
 31
0.0
  0
LINE
  5
78A
100
AcDbEntity
  8
フラッシュバルブ
  6
CONTINUOUS
 62
     6
100
AcDbLine
 10
624.930162
 20
2499.298268
 30
0.0
 11
633.189609
 21
2499.298268
 31
0.0
  0
LINE
  5
78B
100
AcDbEntity
  8
フラッシュバルブ
  6
CONTINUOUS
 62
     6
100
AcDbLine
 10
624.930158
 20
2489.701738
 30
0.0
 11
633.189609
 21
2489.701738
 31
0.0
  0
ARC
  5
78C
100
AcDbEntity
  8
フラッシュバルブ
  6
CONTINUOUS
 62
     6
100
AcDbCircle
 10
648.606589
 20
2497.299993
 30
0.0
 40
2.0
100
AcDbArc
 50
0.0
 51
87.620117
  0
ARC
  5
78D
100
AcDbEntity
  8
フラッシュバルブ
  6
CONTINUOUS
 62
     6
100
AcDbCircle
 10
640.513242
 20
2497.299993
 30
0.0
 40
2.0
100
AcDbArc
 50
92.3799
 51
180.0
  0
ARC
  5
78E
100
AcDbEntity
  8
フラッシュバルブ
  6
CONTINUOUS
 62
     6
100
AcDbCircle
 10
648.606589
 20
2491.700013
 30
0.0
 40
2.0
100
AcDbArc
 50
272.38
 51
0.0
  0
ARC
  5
78F
100
AcDbEntity
  8
フラッシュバルブ
  6
CONTINUOUS
 62
     6
100
AcDbCircle
 10
640.513242
 20
2491.700013
 30
0.0
 40
2.0
100
AcDbArc
 50
180.0
 51
267.6201
  0
LINE
  5
790
100
AcDbEntity
  8
フラッシュバルブ
  6
CONTINUOUS
 62
     6
100
AcDbLine
 10
650.606589
 20
2497.299993
 30
0.0
 11
650.606589
 21
2491.700013
 31
0.0
  0
LINE
  5
791
100
AcDbEntity
  8
フラッシュバルブ
  6
CONTINUOUS
 62
     6
100
AcDbLine
 10
638.513242
 20
2497.299993
 30
0.0
 11
638.513242
 21
2491.700013
 31
0.0
  0
LINE
  5
792
100
AcDbEntity
  8
フラッシュバルブ
  6
CONTINUOUS
 62
     6
100
AcDbLine
 10
648.689638
 20
2499.298268
 30
0.0
 11
640.430192
 21
2499.298268
 31
0.0
  0
LINE
  5
793
100
AcDbEntity
  8
フラッシュバルブ
  6
CONTINUOUS
 62
     6
100
AcDbLine
 10
648.689642
 20
2489.701738
 30
0.0
 11
640.430192
 21
2489.701738
 31
0.0
  0
LINE
  5
794
100
AcDbEntity
  8
フラッシュバルブ
  6
CONTINUOUS
 62
     6
100
AcDbLine
 10
630.460077
 20
2526.800003
 30
0.0
 11
643.159724
 21
2526.800003
 31
0.0
  0
LINE
  5
795
100
AcDbEntity
  8
フラッシュバルブ
  6
CONTINUOUS
 62
     6
100
AcDbLine
 10
630.460077
 20
2525.200003
 30
0.0
 11
643.159724
 21
2525.200003
 31
0.0
  0
LINE
  5
796
100
AcDbEntity
  8
フラッシュバルブ
  6
CONTINUOUS
 62
     6
100
AcDbLine
 10
628.310121
 20
1686.995884
 30
0.0
 11
626.810121
 21
1685.632284
 31
0.0
  0
LINE
  5
797
100
AcDbEntity
  8
フラッシュバルブ
  6
CONTINUOUS
 62
     6
100
AcDbLine
 10
628.310121
 20
1686.995884
 30
0.0
 11
645.310121
 21
1686.995884
 31
0.0
  0
LINE
  5
798
100
AcDbEntity
  8
フラッシュバルブ
  6
CONTINUOUS
 62
     6
100
AcDbLine
 10
645.310121
 20
1686.995884
 30
0.0
 11
646.810121
 21
1685.632284
 31
0.0
  0
LINE
  5
799
100
AcDbEntity
  8
フラッシュバルブ
  6
CONTINUOUS
 62
     6
100
AcDbLine
 10
624.433821
 20
1673.360314
 30
0.0
 11
614.498221
 21
1671.248414
 31
0.0
  0
LINE
  5
79A
100
AcDbEntity
  8
フラッシュバルブ
  6
CONTINUOUS
 62
     6
100
AcDbLine
 10
613.310121
 20
1663.495884
 30
0.0
 11
613.310121
 21
1669.781194
 31
0.0
  0
LINE
  5
79B
100
AcDbEntity
  8
フラッシュバルブ
  6
CONTINUOUS
 62
     6
100
AcDbLine
 10
614.810121
 20
1661.995884
 30
0.0
 11
658.810121
 21
1661.995884
 31
0.0
  0
LINE
  5
79C
100
AcDbEntity
  8
フラッシュバルブ
  6
CONTINUOUS
 62
     6
100
AcDbLine
 10
660.310121
 20
1663.495884
 30
0.0
 11
660.310121
 21
1669.781194
 31
0.0
  0
LINE
  5
79D
100
AcDbEntity
  8
フラッシュバルブ
  6
CONTINUOUS
 62
     6
100
AcDbLine
 10
649.186421
 20
1673.360314
 30
0.0
 11
659.122021
 21
1671.248414
 31
0.0
  0
LINE
  5
79E
100
AcDbEntity
  8
フラッシュバルブ
  6
CONTINUOUS
 62
     6
100
AcDbLine
 10
616.310121
 20
1671.248414
 30
0.0
 11
657.310121
 21
1671.248414
 31
0.0
  0
LINE
  5
79F
100
AcDbEntity
  8
フラッシュバルブ
  6
CONTINUOUS
 62
     6
100
AcDbLine
 10
615.310121
 20
1641.995884
 30
0.0
 11
615.310121
 21
1661.995884
 31
0.0
  0
LINE
  5
7A0
100
AcDbEntity
  8
フラッシュバルブ
  6
CONTINUOUS
 62
     6
100
AcDbLine
 10
658.310121
 20
1661.995884
 30
0.0
 11
658.310121
 21
1657.995884
 31
0.0
  0
LINE
  5
7A1
100
AcDbEntity
  8
フラッシュバルブ
  6
CONTINUOUS
 62
     6
100
AcDbLine
 10
623.910121
 20
1587.195887
 30
0.0
 11
649.710121
 21
1587.195887
 31
0.0
  0
LINE
  5
7A2
100
AcDbEntity
  8
フラッシュバルブ
  6
CONTINUOUS
 62
     6
100
AcDbLine
 10
623.910121
 20
1599.195884
 30
0.0
 11
649.710121
 21
1599.195884
 31
0.0
  0
LINE
  5
7A3
100
AcDbEntity
  8
フラッシュバルブ
  6
CONTINUOUS
 62
     6
100
AcDbLine
 10
624.810121
 20
1602.495884
 30
0.0
 11
624.810121
 21
1599.195884
 31
0.0
  0
LINE
  5
7A4
100
AcDbEntity
  8
フラッシュバルブ
  6
CONTINUOUS
 62
     6
100
AcDbLine
 10
621.810121
 20
1607.692034
 30
0.0
 11
621.810121
 21
1613.995884
 31
0.0
  0
LINE
  5
7A5
100
AcDbEntity
  8
フラッシュバルブ
  6
CONTINUOUS
 62
     6
100
AcDbLine
 10
648.810121
 20
1602.495884
 30
0.0
 11
648.810121
 21
1599.195884
 31
0.0
  0
LINE
  5
7A6
100
AcDbEntity
  8
フラッシュバルブ
  6
CONTINUOUS
 62
     6
100
AcDbLine
 10
651.810121
 20
1607.692034
 30
0.0
 11
651.810121
 21
1613.995884
 31
0.0
  0
LINE
  5
7A7
100
AcDbEntity
  8
フラッシュバルブ
  6
CONTINUOUS
 62
     6
100
AcDbLine
 10
630.410121
 20
1688.195884
 30
0.0
 11
630.410121
 21
1686.995884
 31
0.0
  0
LINE
  5
7A8
100
AcDbEntity
  8
フラッシュバルブ
  6
CONTINUOUS
 62
     6
100
AcDbLine
 10
630.710121
 20
1688.495884
 30
0.0
 11
630.410121
 21
1688.195884
 31
0.0
  0
LINE
  5
7A9
100
AcDbEntity
  8
フラッシュバルブ
  6
CONTINUOUS
 62
     6
100
AcDbLine
 10
642.910121
 20
1688.495884
 30
0.0
 11
630.710121
 21
1688.495884
 31
0.0
  0
LINE
  5
7AA
100
AcDbEntity
  8
フラッシュバルブ
  6
CONTINUOUS
 62
     6
100
AcDbLine
 10
642.910121
 20
1688.495884
 30
0.0
 11
643.210121
 21
1688.195884
 31
0.0
  0
LINE
  5
7AB
100
AcDbEntity
  8
フラッシュバルブ
  6
CONTINUOUS
 62
     6
100
AcDbLine
 10
643.210121
 20
1688.195884
 30
0.0
 11
643.210121
 21
1686.995884
 31
0.0
  0
LINE
  5
7AC
100
AcDbEntity
  8
フラッシュバルブ
  6
CONTINUOUS
 62
     6
100
AcDbLine
 10
635.810121
 20
1684.495884
 30
0.0
 11
635.810121
 21
1678.731454
 31
0.0
  0
LINE
  5
7AD
100
AcDbEntity
  8
フラッシュバルブ
  6
CONTINUOUS
 62
     6
100
AcDbLine
 10
637.810121
 20
1684.495884
 30
0.0
 11
637.810121
 21
1678.731454
 31
0.0
  0
LINE
  5
7AE
100
AcDbEntity
  8
フラッシュバルブ
  6
CONTINUOUS
 62
     6
100
AcDbLine
 10
627.810121
 20
1684.495884
 30
0.0
 11
627.810121
 21
1678.731454
 31
0.0
  0
LINE
  5
7AF
100
AcDbEntity
  8
フラッシュバルブ
  6
CONTINUOUS
 62
     6
100
AcDbLine
 10
645.810121
 20
1684.495884
 30
0.0
 11
645.810121
 21
1678.731454
 31
0.0
  0
LINE
  5
7B0
100
AcDbEntity
  8
フラッシュバルブ
  6
CONTINUOUS
 62
     6
100
AcDbLine
 10
626.810121
 20
1685.632284
 30
0.0
 11
626.810121
 21
1676.294754
 31
0.0
  0
LINE
  5
7B1
100
AcDbEntity
  8
フラッシュバルブ
  6
CONTINUOUS
 62
     6
100
AcDbLine
 10
646.810121
 20
1676.294754
 30
0.0
 11
646.810121
 21
1685.632284
 31
0.0
  0
LINE
  5
7B2
100
AcDbEntity
  8
フラッシュバルブ
  6
CONTINUOUS
 62
     6
100
AcDbLine
 10
635.810121
 20
1684.495884
 30
0.0
 11
637.810121
 21
1684.495884
 31
0.0
  0
LINE
  5
7B3
100
AcDbEntity
  8
フラッシュバルブ
  6
CONTINUOUS
 62
     6
100
AcDbLine
 10
635.810121
 20
1678.731444
 30
0.0
 11
637.810121
 21
1678.731454
 31
0.0
  0
LINE
  5
7B4
100
AcDbEntity
  8
フラッシュバルブ
  6
CONTINUOUS
 62
     6
100
AcDbLine
 10
658.332621
 20
1660.548784
 30
0.0
 11
657.497121
 21
1661.995904
 31
0.0
  0
LINE
  5
7B5
100
AcDbEntity
  8
フラッシュバルブ
  6
CONTINUOUS
 62
     6
100
AcDbLine
 10
615.287621
 20
1660.548784
 30
0.0
 11
616.123121
 21
1661.995904
 31
0.0
  0
LINE
  5
7B6
100
AcDbEntity
  8
フラッシュバルブ
  6
CONTINUOUS
 62
     6
100
AcDbLine
 10
652.310121
 20
1628.978004
 30
0.0
 11
652.310121
 21
1615.013764
 31
0.0
  0
LINE
  5
7B7
100
AcDbEntity
  8
フラッシュバルブ
  6
CONTINUOUS
 62
     6
100
AcDbLine
 10
621.310121
 20
1615.013764
 30
0.0
 11
621.310121
 21
1628.978004
 31
0.0
  0
LINE
  5
7B8
100
AcDbEntity
  8
フラッシュバルブ
  6
CONTINUOUS
 62
     6
100
AcDbLine
 10
623.013421
 20
1612.063554
 30
0.0
 11
635.106821
 21
1605.081424
 31
0.0
  0
LINE
  5
7B9
100
AcDbEntity
  8
フラッシュバルブ
  6
CONTINUOUS
 62
     6
100
AcDbLine
 10
638.513421
 20
1605.081424
 30
0.0
 11
650.606821
 21
1612.063564
 31
0.0
  0
LINE
  5
7BA
100
AcDbEntity
  8
フラッシュバルブ
  6
CONTINUOUS
 62
     6
100
AcDbLine
 10
638.513421
 20
1638.910344
 30
0.0
 11
650.606821
 21
1631.928214
 31
0.0
  0
LINE
  5
7BB
100
AcDbEntity
  8
フラッシュバルブ
  6
CONTINUOUS
 62
     6
100
AcDbLine
 10
623.013421
 20
1631.928224
 30
0.0
 11
635.106821
 21
1638.910344
 31
0.0
  0
LINE
  5
7BC
100
AcDbEntity
  8
フラッシュバルブ
  6
CONTINUOUS
 62
     6
100
AcDbLine
 10
659.810121
 20
1629.995884
 30
0.0
 11
664.310121
 21
1629.995884
 31
0.0
  0
LINE
  5
7BD
100
AcDbEntity
  8
フラッシュバルブ
  6
CONTINUOUS
 62
     6
100
AcDbLine
 10
663.310121
 20
1653.182884
 30
0.0
 11
664.310121
 21
1653.182884
 31
0.0
  0
LINE
  5
7BE
100
AcDbEntity
  8
フラッシュバルブ
  6
CONTINUOUS
 62
     6
100
AcDbLine
 10
663.310121
 20
1630.808884
 30
0.0
 11
664.310121
 21
1630.808884
 31
0.0
  0
LINE
  5
7BF
100
AcDbEntity
  8
フラッシュバルブ
  6
CONTINUOUS
 62
     6
100
AcDbLine
 10
663.310121
 20
1629.995884
 30
0.0
 11
663.310121
 21
1653.995884
 31
0.0
  0
LINE
  5
7C0
100
AcDbEntity
  8
フラッシュバルブ
  6
CONTINUOUS
 62
     6
100
AcDbLine
 10
661.902021
 20
1629.995884
 30
0.0
 11
663.310121
 21
1630.808884
 31
0.0
  0
LINE
  5
7C1
100
AcDbEntity
  8
フラッシュバルブ
  6
CONTINUOUS
 62
     6
100
AcDbLine
 10
661.902021
 20
1653.995884
 30
0.0
 11
663.310121
 21
1653.182884
 31
0.0
  0
LINE
  5
7C2
100
AcDbEntity
  8
フラッシュバルブ
  6
CONTINUOUS
 62
     6
100
AcDbLine
 10
664.310121
 20
1654.895884
 30
0.0
 11
664.310121
 21
1629.095884
 31
0.0
  0
LINE
  5
7C3
100
AcDbEntity
  8
フラッシュバルブ
  6
CONTINUOUS
 62
     6
100
AcDbLine
 10
664.310121
 20
1653.995884
 30
0.0
 11
662.310121
 21
1653.995884
 31
0.0
  0
LINE
  5
7C4
100
AcDbEntity
  8
フラッシュバルブ
  6
CONTINUOUS
 62
     6
100
AcDbLine
 10
678.310121
 20
1647.495884
 30
0.0
 11
678.310121
 21
1636.495884
 31
0.0
  0
LINE
  5
7C5
100
AcDbEntity
  8
フラッシュバルブ
  6
CONTINUOUS
 62
     6
100
AcDbLine
 10
688.810121
 20
1645.245884
 30
0.0
 11
688.810121
 21
1638.745884
 31
0.0
  0
LINE
  5
7C6
100
AcDbEntity
  8
フラッシュバルブ
  6
CONTINUOUS
 62
     6
100
AcDbLine
 10
672.810121
 20
1629.995884
 30
0.0
 11
678.310121
 21
1636.495884
 31
0.0
  0
LINE
  5
7C7
100
AcDbEntity
  8
フラッシュバルブ
  6
CONTINUOUS
 62
     6
100
AcDbLine
 10
672.810121
 20
1653.995884
 30
0.0
 11
678.310121
 21
1647.495884
 31
0.0
  0
LINE
  5
7C8
100
AcDbEntity
  8
フラッシュバルブ
  6
CONTINUOUS
 62
     6
100
AcDbLine
 10
672.310121
 20
1653.995884
 30
0.0
 11
672.810121
 21
1653.995884
 31
0.0
  0
LINE
  5
7C9
100
AcDbEntity
  8
フラッシュバルブ
  6
CONTINUOUS
 62
     6
100
AcDbLine
 10
672.310121
 20
1629.995884
 30
0.0
 11
672.810121
 21
1629.995884
 31
0.0
  0
LINE
  5
7CA
100
AcDbEntity
  8
フラッシュバルブ
  6
CONTINUOUS
 62
     6
100
AcDbLine
 10
672.810121
 20
1629.995884
 30
0.0
 11
672.810121
 21
1653.995884
 31
0.0
  0
LINE
  5
7CB
100
AcDbEntity
  8
フラッシュバルブ
  6
CONTINUOUS
 62
     6
100
AcDbLine
 10
672.310121
 20
1653.995864
 30
0.0
 11
672.310121
 21
1629.995884
 31
0.0
  0
LINE
  5
7CC
100
AcDbEntity
  8
フラッシュバルブ
  6
CONTINUOUS
 62
     6
100
AcDbLine
 10
624.810121
 20
1600.995884
 30
0.0
 11
648.810121
 21
1600.995884
 31
0.0
  0
LINE
  5
7CD
100
AcDbEntity
  8
フラッシュバルブ
  6
CONTINUOUS
 62
     6
100
AcDbLine
 10
648.132121
 20
1600.995864
 30
0.0
 11
648.810121
 21
1602.170204
 31
0.0
  0
LINE
  5
7CE
100
AcDbEntity
  8
フラッシュバルブ
  6
CONTINUOUS
 62
     6
100
AcDbLine
 10
648.132121
 20
1599.195884
 30
0.0
 11
648.132121
 21
1600.995864
 31
0.0
  0
LINE
  5
7CF
100
AcDbEntity
  8
フラッシュバルブ
  6
CONTINUOUS
 62
     6
100
AcDbLine
 10
648.810121
 20
1602.495884
 30
0.0
 11
624.810121
 21
1602.495884
 31
0.0
  0
LINE
  5
7D0
100
AcDbEntity
  8
フラッシュバルブ
  6
CONTINUOUS
 62
     6
100
AcDbLine
 10
625.488121
 20
1599.195884
 30
0.0
 11
625.488121
 21
1600.995864
 31
0.0
  0
LINE
  5
7D1
100
AcDbEntity
  8
フラッシュバルブ
  6
CONTINUOUS
 62
     6
100
AcDbLine
 10
625.488121
 20
1600.995864
 30
0.0
 11
624.810121
 21
1602.170204
 31
0.0
  0
LINE
  5
7D2
100
AcDbEntity
  8
フラッシュバルブ
  6
CONTINUOUS
 62
     6
100
AcDbLine
 10
649.810121
 20
1598.980204
 30
0.0
 11
649.810121
 21
1587.411574
 31
0.0
  0
LINE
  5
7D3
100
AcDbEntity
  8
フラッシュバルブ
  6
CONTINUOUS
 62
     6
100
AcDbLine
 10
623.810121
 20
1598.980204
 30
0.0
 11
623.810121
 21
1587.411574
 31
0.0
  0
ARC
  5
7D4
100
AcDbEntity
  8
フラッシュバルブ
  6
CONTINUOUS
 62
     6
100
AcDbCircle
 10
649.810121
 20
1676.294754
 30
0.0
 40
3.0
100
AcDbArc
 50
180.0
 51
258.0
  0
ARC
  5
7D5
100
AcDbEntity
  8
フラッシュバルブ
  6
CONTINUOUS
 62
     6
100
AcDbCircle
 10
623.810121
 20
1676.294754
 30
0.0
 40
3.0
100
AcDbArc
 50
282.0
 51
0.0
  0
ARC
  5
7D6
100
AcDbEntity
  8
フラッシュバルブ
  6
CONTINUOUS
 62
     6
100
AcDbCircle
 10
614.810121
 20
1669.781194
 30
0.0
 40
1.5
100
AcDbArc
 50
102.0003
 51
180.0
  0
ARC
  5
7D7
100
AcDbEntity
  8
フラッシュバルブ
  6
CONTINUOUS
 62
     6
100
AcDbCircle
 10
658.810121
 20
1663.495884
 30
0.0
 40
1.5
100
AcDbArc
 50
270.0
 51
0.0
  0
ARC
  5
7D8
100
AcDbEntity
  8
フラッシュバルブ
  6
CONTINUOUS
 62
     6
100
AcDbCircle
 10
658.810121
 20
1669.781194
 30
0.0
 40
1.5
100
AcDbArc
 50
0.0
 51
77.99969
  0
ARC
  5
7D9
100
AcDbEntity
  8
フラッシュバルブ
  6
CONTINUOUS
 62
     6
100
AcDbCircle
 10
636.568521
 20
1593.195884
 30
0.0
 40
14.00836
100
AcDbArc
 50
154.6393
 51
155.6117
  0
ARC
  5
7DA
100
AcDbEntity
  8
フラッシュバルブ
  6
CONTINUOUS
 62
     6
100
AcDbCircle
 10
627.810121
 20
1607.692034
 30
0.0
 40
6.0
100
AcDbArc
 50
180.0
 51
240.0
  0
ARC
  5
7DB
100
AcDbEntity
  8
フラッシュバルブ
  6
CONTINUOUS
 62
     6
100
AcDbCircle
 10
637.051721
 20
1593.195884
 30
0.0
 40
14.00836
100
AcDbArc
 50
334.6393
 51
335.6117
  0
ARC
  5
7DC
100
AcDbEntity
  8
フラッシュバルブ
  6
CONTINUOUS
 62
     6
100
AcDbCircle
 10
645.810121
 20
1607.692034
 30
0.0
 40
6.0
100
AcDbArc
 50
300.0
 51
0.0
  0
ARC
  5
7DD
100
AcDbEntity
  8
フラッシュバルブ
  6
CONTINUOUS
 62
     6
100
AcDbCircle
 10
669.810121
 20
1620.287594
 30
0.0
 40
18.0
100
AcDbArc
 50
163.8765
 51
166.4638
  0
ARC
  5
7DE
100
AcDbEntity
  8
フラッシュバルブ
  6
CONTINUOUS
 62
     6
100
AcDbCircle
 10
636.810121
 20
1641.995884
 30
0.0
 40
21.5
100
AcDbArc
 50
180.0
 51
213.338
  0
ARC
  5
7DF
100
AcDbEntity
  8
フラッシュバルブ
  6
CONTINUOUS
 62
     6
100
AcDbCircle
 10
631.810121
 20
1679.912584
 30
0.0
 40
6.083333
100
AcDbArc
 50
48.88809
 51
131.1121
  0
ARC
  5
7E0
100
AcDbEntity
  8
フラッシュバルブ
  6
CONTINUOUS
 62
     6
100
AcDbCircle
 10
631.810121
 20
1686.231484
 30
0.0
 40
8.5
100
AcDbArc
 50
241.9275
 51
298.0724
  0
ARC
  5
7E1
100
AcDbEntity
  8
フラッシュバルブ
  6
CONTINUOUS
 62
     6
100
AcDbCircle
 10
641.810121
 20
1679.912584
 30
0.0
 40
6.083333
100
AcDbArc
 50
48.88794
 51
131.1119
  0
ARC
  5
7E2
100
AcDbEntity
  8
フラッシュバルブ
  6
CONTINUOUS
 62
     6
100
AcDbCircle
 10
641.810121
 20
1686.231484
 30
0.0
 40
8.5
100
AcDbArc
 50
241.9276
 51
298.0725
  0
ARC
  5
7E3
100
AcDbEntity
  8
フラッシュバルブ
  6
CONTINUOUS
 62
     6
100
AcDbCircle
 10
649.810121
 20
1679.912584
 30
0.0
 40
6.083333
100
AcDbArc
 50
119.5479
 51
131.1121
  0
ARC
  5
7E4
100
AcDbEntity
  8
フラッシュバルブ
  6
CONTINUOUS
 62
     6
100
AcDbCircle
 10
649.810121
 20
1686.231484
 30
0.0
 40
8.5
100
AcDbArc
 50
241.9275
 51
249.3327
  0
ARC
  5
7E5
100
AcDbEntity
  8
フラッシュバルブ
  6
CONTINUOUS
 62
     6
100
AcDbCircle
 10
623.810121
 20
1679.912584
 30
0.0
 40
6.083333
100
AcDbArc
 50
48.88794
 51
60.45212
  0
ARC
  5
7E6
100
AcDbEntity
  8
フラッシュバルブ
  6
CONTINUOUS
 62
     6
100
AcDbCircle
 10
623.810121
 20
1686.231484
 30
0.0
 40
8.5
100
AcDbArc
 50
290.6673
 51
298.0725
  0
ARC
  5
7E7
100
AcDbEntity
  8
フラッシュバルブ
  6
CONTINUOUS
 62
     6
100
AcDbCircle
 10
603.810121
 20
1620.287594
 30
0.0
 40
18.0
100
AcDbArc
 50
13.53619
 51
33.33801
  0
CIRCLE
  5
7E8
100
AcDbEntity
  8
フラッシュバルブ
  6
CONTINUOUS
 62
     6
100
AcDbCircle
 10
636.810121
 20
1621.995884
 30
0.0
 40
10.5
  0
ARC
  5
7E9
100
AcDbEntity
  8
フラッシュバルブ
  6
CONTINUOUS
 62
     6
100
AcDbCircle
 10
636.810121
 20
1621.995884
 30
0.0
 40
17.0
100
AcDbArc
 50
84.24966
 51
95.75049
  0
ARC
  5
7EA
100
AcDbEntity
  8
フラッシュバルブ
  6
CONTINUOUS
 62
     6
100
AcDbCircle
 10
636.810121
 20
1621.995884
 30
0.0
 40
17.0
100
AcDbArc
 50
144.2496
 51
155.7505
  0
ARC
  5
7EB
100
AcDbEntity
  8
フラッシュバルブ
  6
CONTINUOUS
 62
     6
100
AcDbCircle
 10
636.810121
 20
1621.995884
 30
0.0
 40
17.0
100
AcDbArc
 50
204.2496
 51
215.7505
  0
ARC
  5
7EC
100
AcDbEntity
  8
フラッシュバルブ
  6
CONTINUOUS
 62
     6
100
AcDbCircle
 10
636.810121
 20
1621.995884
 30
0.0
 40
17.0
100
AcDbArc
 50
264.2496
 51
275.7505
  0
ARC
  5
7ED
100
AcDbEntity
  8
フラッシュバルブ
  6
CONTINUOUS
 62
     6
100
AcDbCircle
 10
636.810121
 20
1621.995884
 30
0.0
 40
17.0
100
AcDbArc
 50
324.2496
 51
335.7505
  0
ARC
  5
7EE
100
AcDbEntity
  8
フラッシュバルブ
  6
CONTINUOUS
 62
     6
100
AcDbCircle
 10
636.810121
 20
1621.995884
 30
0.0
 40
17.0
100
AcDbArc
 50
24.24963
 51
35.75049
  0
ARC
  5
7EF
100
AcDbEntity
  8
フラッシュバルブ
  6
CONTINUOUS
 62
     6
100
AcDbCircle
 10
659.810121
 20
1621.995884
 30
0.0
 40
8.0
100
AcDbArc
 50
90.0
 51
155.7131
  0
ARC
  5
7F0
100
AcDbEntity
  8
フラッシュバルブ
  6
CONTINUOUS
 62
     6
100
AcDbCircle
 10
662.310121
 20
1657.995884
 30
0.0
 40
4.0
100
AcDbArc
 50
180.0
 51
270.0
  0
ARC
  5
7F1
100
AcDbEntity
  8
フラッシュバルブ
  6
CONTINUOUS
 62
     6
100
AcDbCircle
 10
667.869621
 20
1650.530454
 30
0.0
 40
5.632679
100
AcDbArc
 50
37.96893
 51
129.1934
  0
ARC
  5
7F2
100
AcDbEntity
  8
フラッシュバルブ
  6
CONTINUOUS
 62
     6
100
AcDbCircle
 10
667.869621
 20
1633.461314
 30
0.0
 40
5.632679
100
AcDbArc
 50
230.8067
 51
322.031
  0
ARC
  5
7F3
100
AcDbEntity
  8
フラッシュバルブ
  6
CONTINUOUS
 62
     6
100
AcDbCircle
 10
671.505521
 20
1641.995884
 30
0.0
 40
6.995371
100
AcDbArc
 50
132.7627
 51
227.2373
  0
ARC
  5
7F4
100
AcDbEntity
  8
フラッシュバルブ
  6
CONTINUOUS
 62
     6
100
AcDbCircle
 10
665.907021
 20
1630.737554
 30
0.0
 40
1.396928
100
AcDbArc
 50
159.7833
 51
200.2167
  0
ARC
  5
7F5
100
AcDbEntity
  8
フラッシュバルブ
  6
CONTINUOUS
 62
     6
100
AcDbCircle
 10
667.910121
 20
1631.475204
 30
0.0
 40
3.531508
100
AcDbArc
 50
200.2169
 51
339.7831
  0
ARC
  5
7F6
100
AcDbEntity
  8
フラッシュバルブ
  6
CONTINUOUS
 62
     6
100
AcDbCircle
 10
667.910121
 20
1629.999904
 30
0.0
 40
3.531508
100
AcDbArc
 50
20.2168
 51
159.7832
  0
ARC
  5
7F7
100
AcDbEntity
  8
フラッシュバルブ
  6
CONTINUOUS
 62
     6
100
AcDbCircle
 10
614.810121
 20
1663.495884
 30
0.0
 40
1.5
100
AcDbArc
 50
180.0
 51
270.0
  0
ARC
  5
7F8
100
AcDbEntity
  8
フラッシュバルブ
  6
CONTINUOUS
 62
     6
100
AcDbCircle
 10
687.310121
 20
1638.745884
 30
0.0
 40
1.5
100
AcDbArc
 50
270.0
 51
0.0
  0
ARC
  5
7F9
100
AcDbEntity
  8
フラッシュバルブ
  6
CONTINUOUS
 62
     6
100
AcDbCircle
 10
687.310121
 20
1645.245884
 30
0.0
 40
1.5
100
AcDbArc
 50
0.0
 51
90.0
  0
CIRCLE
  5
7FA
100
AcDbEntity
  8
フラッシュバルブ
  6
CONTINUOUS
 62
     6
100
AcDbCircle
 10
684.310121
 20
1641.995884
 30
0.0
 40
2.0
  0
ARC
  5
7FB
100
AcDbEntity
  8
フラッシュバルブ
  6
CONTINUOUS
 62
     6
100
AcDbCircle
 10
669.913221
 20
1630.737554
 30
0.0
 40
1.396928
100
AcDbArc
 50
339.7833
 51
20.21667
  0
ARC
  5
7FC
100
AcDbEntity
  8
フラッシュバルブ
  6
CONTINUOUS
 62
     6
100
AcDbCircle
 10
664.314721
 20
1641.995884
 30
0.0
 40
6.995371
100
AcDbArc
 50
312.7627
 51
47.23727
  0
ARC
  5
7FD
100
AcDbEntity
  8
フラッシュバルブ
  6
CONTINUOUS
 62
     6
100
AcDbCircle
 10
667.910121
 20
1638.108174
 30
0.0
 40
1.700001
100
AcDbArc
 50
227.2374
 51
312.7626
  0
ARC
  5
7FE
100
AcDbEntity
  8
フラッシュバルブ
  6
CONTINUOUS
 62
     6
100
AcDbCircle
 10
637.051721
 20
1593.195884
 30
0.0
 40
14.00836
100
AcDbArc
 50
24.38831
 51
25.36072
  0
ARC
  5
7FF
100
AcDbEntity
  8
フラッシュバルブ
  6
CONTINUOUS
 62
     6
100
AcDbCircle
 10
636.568521
 20
1593.195884
 30
0.0
 40
14.00836
100
AcDbArc
 50
204.3883
 51
205.3607
  0
ARC
  5
800
100
AcDbEntity
  8
フラッシュバルブ
  6
CONTINUOUS
 62
     6
100
AcDbCircle
 10
630.310121
 20
1596.452994
 30
0.0
 40
2.527199
100
AcDbArc
 50
75.61594
 51
104.3841
  0
ARC
  5
801
100
AcDbEntity
  8
フラッシュバルブ
  6
CONTINUOUS
 62
     6
100
AcDbCircle
 10
631.145421
 20
1593.195884
 30
0.0
 40
5.889718
100
AcDbArc
 50
104.3842
 51
255.6158
  0
ARC
  5
802
100
AcDbEntity
  8
フラッシュバルブ
  6
CONTINUOUS
 62
     6
100
AcDbCircle
 10
629.474821
 20
1593.195884
 30
0.0
 40
5.889718
100
AcDbArc
 50
284.3842
 51
75.61584
  0
ARC
  5
803
100
AcDbEntity
  8
フラッシュバルブ
  6
CONTINUOUS
 62
     6
100
AcDbCircle
 10
643.310121
 20
1589.938774
 30
0.0
 40
2.527195
100
AcDbArc
 50
255.6159
 51
284.3841
  0
ARC
  5
804
100
AcDbEntity
  8
フラッシュバルブ
  6
CONTINUOUS
 62
     6
100
AcDbCircle
 10
643.310121
 20
1596.453004
 30
0.0
 40
2.527195
100
AcDbArc
 50
75.61591
 51
104.3841
  0
ARC
  5
805
100
AcDbEntity
  8
フラッシュバルブ
  6
CONTINUOUS
 62
     6
100
AcDbCircle
 10
644.145421
 20
1593.195884
 30
0.0
 40
5.88972
100
AcDbArc
 50
104.3842
 51
255.6158
  0
ARC
  5
806
100
AcDbEntity
  8
フラッシュバルブ
  6
CONTINUOUS
 62
     6
100
AcDbCircle
 10
642.474821
 20
1593.195884
 30
0.0
 40
5.88972
100
AcDbArc
 50
284.3842
 51
75.61584
  0
ARC
  5
807
100
AcDbEntity
  8
フラッシュバルブ
  6
CONTINUOUS
 62
     6
100
AcDbCircle
 10
667.910121
 20
1645.883594
 30
0.0
 40
1.700001
100
AcDbArc
 50
47.23737
 51
132.7626
  0
ARC
  5
808
100
AcDbEntity
  8
フラッシュバルブ
  6
CONTINUOUS
 62
     6
100
AcDbCircle
 10
667.910121
 20
1653.991864
 30
0.0
 40
3.531508
100
AcDbArc
 50
200.2167
 51
339.7833
  0
ARC
  5
809
100
AcDbEntity
  8
フラッシュバルブ
  6
CONTINUOUS
 62
     6
100
AcDbCircle
 10
669.913221
 20
1653.254214
 30
0.0
 40
1.396928
100
AcDbArc
 50
339.7832
 51
20.21652
  0
ARC
  5
80A
100
AcDbEntity
  8
フラッシュバルブ
  6
CONTINUOUS
 62
     6
100
AcDbCircle
 10
665.907021
 20
1653.254214
 30
0.0
 40
1.396928
100
AcDbArc
 50
159.7834
 51
200.2168
  0
ARC
  5
80B
100
AcDbEntity
  8
フラッシュバルブ
  6
CONTINUOUS
 62
     6
100
AcDbCircle
 10
667.910121
 20
1652.516564
 30
0.0
 40
3.531508
100
AcDbArc
 50
20.21686
 51
159.7831
  0
LINE
  5
80C
100
AcDbEntity
  8
フラッシュバルブ
  6
CONTINUOUS
 62
     6
100
AcDbLine
 10
628.870121
 20
1493.99585
 30
0.0
 11
628.870121
 21
1587.195887
 31
0.0
  0
LINE
  5
80D
100
AcDbEntity
  8
フラッシュバルブ
  6
CONTINUOUS
 62
     6
100
AcDbLine
 10
644.750121
 20
1493.99585
 30
0.0
 11
644.750121
 21
1587.195887
 31
0.0
  0
ARC
  5
80E
100
AcDbEntity
  8
フラッシュバルブ
  6
CONTINUOUS
 62
     6
100
AcDbCircle
 10
630.310121
 20
1589.938774
 30
0.0
 40
2.527195
100
AcDbArc
 50
255.6159
 51
284.3841
  0
ARC
  5
80F
100
AcDbEntity
  8
フラッシュバルブ
  6
CONTINUOUS
 62
     6
100
AcDbCircle
 10
684.310121
 20
1651.054306
 30
0.0
 40
4.75
100
AcDbArc
 50
245.098938
 51
294.901062
  0
LINE
  5
810
100
AcDbEntity
  8
フラッシュバルブ
  6
CONTINUOUS
 62
     6
100
AcDbLine
 10
678.310121
 20
1646.745884
 30
0.0
 11
682.310121
 21
1646.745884
 31
0.0
  0
LINE
  5
811
100
AcDbEntity
  8
フラッシュバルブ
  6
CONTINUOUS
 62
     6
100
AcDbLine
 10
686.310121
 20
1646.745884
 30
0.0
 11
687.310121
 21
1646.745884
 31
0.0
  0
LINE
  5
812
100
AcDbEntity
  8
フラッシュバルブ
  6
CONTINUOUS
 62
     6
100
AcDbLine
 10
678.310121
 20
1637.245884
 30
0.0
 11
682.310121
 21
1637.245884
 31
0.0
  0
LINE
  5
813
100
AcDbEntity
  8
フラッシュバルブ
  6
CONTINUOUS
 62
     6
100
AcDbLine
 10
686.310121
 20
1637.245884
 30
0.0
 11
687.310121
 21
1637.245884
 31
0.0
  0
ARC
  5
814
100
AcDbEntity
  8
フラッシュバルブ
  6
CONTINUOUS
 62
     6
100
AcDbCircle
 10
684.310121
 20
1632.937462
 30
0.0
 40
4.75
100
AcDbArc
 50
65.098938
 51
114.901062
  0
ARC
  5
815
100
AcDbEntity
  8
フラッシュバルブ
  6
CONTINUOUS
 62
     6
100
AcDbCircle
 10
636.810121
 20
1641.995884
 30
0.0
 40
23.75
100
AcDbArc
 50
154.858749
 51
229.259693
  0
ARC
  5
816
100
AcDbEntity
  8
フラッシュバルブ
  6
CONTINUOUS
 62
     6
100
AcDbCircle
 10
636.810121
 20
1641.995884
 30
0.0
 40
23.75
100
AcDbArc
 50
310.740307
 51
328.213164
  0
LINE
  5
817
100
AcDbEntity
  8
フラッシュバルブ
  6
CONTINUOUS
 62
     6
100
AcDbLine
 10
1727.810274
 20
1602.496057
 30
0.0
 11
1727.810274
 21
1599.196057
 31
0.0
  0
LINE
  5
818
100
AcDbEntity
  8
フラッシュバルブ
  6
CONTINUOUS
 62
     6
100
AcDbLine
 10
1727.132264
 20
1599.196057
 30
0.0
 11
1727.132264
 21
1600.996037
 31
0.0
  0
LINE
  5
819
100
AcDbEntity
  8
フラッシュバルブ
  6
CONTINUOUS
 62
     6
100
AcDbLine
 10
1727.810274
 20
1600.996057
 30
0.0
 11
1703.810274
 21
1600.996057
 31
0.0
  0
LINE
  5
81A
100
AcDbEntity
  8
フラッシュバルブ
  6
CONTINUOUS
 62
     6
100
AcDbLine
 10
1727.132264
 20
1600.996037
 30
0.0
 11
1727.810274
 21
1602.170377
 31
0.0
  0
LINE
  5
81B
100
AcDbEntity
  8
フラッシュバルブ
  6
CONTINUOUS
 62
     6
100
AcDbLine
 10
1703.810274
 20
1602.496057
 30
0.0
 11
1703.810274
 21
1599.196057
 31
0.0
  0
LINE
  5
81C
100
AcDbEntity
  8
フラッシュバルブ
  6
CONTINUOUS
 62
     6
100
AcDbLine
 10
1704.488284
 20
1599.196057
 30
0.0
 11
1704.488284
 21
1600.996037
 31
0.0
  0
LINE
  5
81D
100
AcDbEntity
  8
フラッシュバルブ
  6
CONTINUOUS
 62
     6
100
AcDbLine
 10
1704.488284
 20
1600.996037
 30
0.0
 11
1703.810274
 21
1602.170377
 31
0.0
  0
LINE
  5
81E
100
AcDbEntity
  8
フラッシュバルブ
  6
CONTINUOUS
 62
     6
100
AcDbLine
 10
1748.310274
 20
1658.996057
 30
0.0
 11
1748.310274
 21
1661.496057
 31
0.0
  0
LINE
  5
81F
100
AcDbEntity
  8
フラッシュバルブ
  6
CONTINUOUS
 62
     6
100
AcDbLine
 10
1769.310274
 20
1661.496057
 30
0.0
 11
1769.310274
 21
1658.473557
 31
0.0
  0
LINE
  5
820
100
AcDbEntity
  8
フラッシュバルブ
  6
CONTINUOUS
 62
     6
100
AcDbLine
 10
1752.810274
 20
1675.996057
 30
0.0
 11
1764.810274
 21
1675.996057
 31
0.0
  0
LINE
  5
821
100
AcDbEntity
  8
フラッシュバルブ
  6
CONTINUOUS
 62
     6
100
AcDbLine
 10
1766.310274
 20
1669.652907
 30
0.0
 11
1766.310274
 21
1674.496057
 31
0.0
  0
LINE
  5
822
100
AcDbEntity
  8
フラッシュバルブ
  6
CONTINUOUS
 62
     6
100
AcDbLine
 10
1748.187776
 20
1661.496057
 30
0.0
 11
1769.432774
 21
1661.496057
 31
0.0
  0
LINE
  5
823
100
AcDbEntity
  8
フラッシュバルブ
  6
CONTINUOUS
 62
     6
100
AcDbLine
 10
1751.310274
 20
1669.652907
 30
0.0
 11
1751.310274
 21
1674.496057
 31
0.0
  0
LINE
  5
824
100
AcDbEntity
  8
フラッシュバルブ
  6
CONTINUOUS
 62
     6
100
AcDbLine
 10
1759.510284
 20
1675.996057
 30
0.0
 11
1759.510284
 21
1676.971527
 31
0.0
  0
LINE
  5
825
100
AcDbEntity
  8
フラッシュバルブ
  6
CONTINUOUS
 62
     6
100
AcDbLine
 10
1758.110264
 20
1675.996057
 30
0.0
 11
1758.110264
 21
1676.971527
 31
0.0
  0
LINE
  5
826
100
AcDbEntity
  8
フラッシュバルブ
  6
CONTINUOUS
 62
     6
100
AcDbLine
 10
1728.710264
 20
1587.196057
 30
0.0
 11
1702.910274
 21
1587.196057
 31
0.0
  0
LINE
  5
827
100
AcDbEntity
  8
フラッシュバルブ
  6
CONTINUOUS
 62
     6
100
AcDbLine
 10
1728.710264
 20
1599.196057
 30
0.0
 11
1702.910274
 21
1599.196057
 31
0.0
  0
LINE
  5
828
100
AcDbEntity
  8
フラッシュバルブ
  6
CONTINUOUS
 62
     6
100
AcDbLine
 10
1727.810274
 20
1602.496057
 30
0.0
 11
1703.810274
 21
1602.496057
 31
0.0
  0
LINE
  5
829
100
AcDbEntity
  8
フラッシュバルブ
  6
CONTINUOUS
 62
     6
100
AcDbLine
 10
1804.810274
 20
1651.273557
 30
0.0
 11
1804.810274
 21
1632.718577
 31
0.0
  0
LINE
  5
82A
100
AcDbEntity
  8
フラッシュバルブ
  6
CONTINUOUS
 62
     6
100
AcDbLine
 10
1790.810404
 20
1651.311557
 30
0.0
 11
1804.772254
 21
1651.311557
 31
0.0
  0
LINE
  5
82B
100
AcDbEntity
  8
フラッシュバルブ
  6
CONTINUOUS
 62
     6
100
AcDbLine
 10
1803.610264
 20
1652.473557
 30
0.0
 11
1804.810274
 21
1651.273557
 31
0.0
  0
LINE
  5
82C
100
AcDbEntity
  8
フラッシュバルブ
  6
CONTINUOUS
 62
     6
100
AcDbLine
 10
1804.810274
 20
1632.718577
 30
0.0
 11
1803.610264
 21
1631.518567
 31
0.0
  0
LINE
  5
82D
100
AcDbEntity
  8
フラッシュバルブ
  6
CONTINUOUS
 62
     6
100
AcDbLine
 10
1779.797644
 20
1652.473557
 30
0.0
 11
1781.310274
 21
1651.600237
 31
0.0
  0
LINE
  5
82E
100
AcDbEntity
  8
フラッシュバルブ
  6
CONTINUOUS
 62
     6
100
AcDbLine
 10
1790.810384
 20
1632.680557
 30
0.0
 11
1804.772254
 21
1632.680557
 31
0.0
  0
LINE
  5
82F
100
AcDbEntity
  8
フラッシュバルブ
  6
CONTINUOUS
 62
     6
100
AcDbLine
 10
1803.610264
 20
1652.473557
 30
0.0
 11
1803.610264
 21
1631.518567
 31
0.0
  0
LINE
  5
830
100
AcDbEntity
  8
フラッシュバルブ
  6
CONTINUOUS
 62
     6
100
AcDbLine
 10
1778.933594
 20
1631.518567
 30
0.0
 11
1781.310274
 21
1631.518567
 31
0.0
  0
LINE
  5
831
100
AcDbEntity
  8
フラッシュバルブ
  6
CONTINUOUS
 62
     6
100
AcDbLine
 10
1787.411684
 20
1665.746057
 30
0.0
 11
1790.810394
 21
1665.746057
 31
0.0
  0
LINE
  5
832
100
AcDbEntity
  8
フラッシュバルブ
  6
CONTINUOUS
 62
     6
100
AcDbLine
 10
1786.310274
 20
1664.647877
 30
0.0
 11
1786.310274
 21
1619.344227
 31
0.0
  0
LINE
  5
833
100
AcDbEntity
  8
フラッシュバルブ
  6
CONTINUOUS
 62
     6
100
AcDbLine
 10
1787.411684
 20
1618.246057
 30
0.0
 11
1790.810394
 21
1618.246057
 31
0.0
  0
LINE
  5
834
100
AcDbEntity
  8
フラッシュバルブ
  6
CONTINUOUS
 62
     6
100
AcDbLine
 10
1781.310274
 20
1656.515997
 30
0.0
 11
1781.310274
 21
1627.476097
 31
0.0
  0
LINE
  5
835
100
AcDbEntity
  8
フラッシュバルブ
  6
CONTINUOUS
 62
     6
100
AcDbLine
 10
1803.610264
 20
1652.473557
 30
0.0
 11
1790.810414
 21
1652.473557
 31
0.0
  0
LINE
  5
836
100
AcDbEntity
  8
フラッシュバルブ
  6
CONTINUOUS
 62
     6
100
AcDbLine
 10
1688.633154
 20
1604.996057
 30
0.0
 11
1679.987394
 21
1604.996057
 31
0.0
  0
LINE
  5
837
100
AcDbEntity
  8
フラッシュバルブ
  6
CONTINUOUS
 62
     6
100
AcDbLine
 10
1679.310274
 20
1637.496057
 30
0.0
 11
1679.310274
 21
1606.496057
 31
0.0
  0
LINE
  5
838
100
AcDbEntity
  8
フラッシュバルブ
  6
CONTINUOUS
 62
     6
100
AcDbLine
 10
1689.310274
 20
1637.496057
 30
0.0
 11
1689.310274
 21
1606.496057
 31
0.0
  0
LINE
  5
839
100
AcDbEntity
  8
フラッシュバルブ
  6
CONTINUOUS
 62
     6
100
AcDbLine
 10
1689.110264
 20
1610.063717
 30
0.0
 11
1689.110264
 21
1606.081597
 31
0.0
  0
LINE
  5
83A
100
AcDbEntity
  8
フラッシュバルブ
  6
CONTINUOUS
 62
     6
100
AcDbLine
 10
1679.510284
 20
1610.063717
 30
0.0
 11
1679.510284
 21
1606.081597
 31
0.0
  0
LINE
  5
83B
100
AcDbEntity
  8
フラッシュバルブ
  6
CONTINUOUS
 62
     6
100
AcDbLine
 10
1680.510284
 20
1605.081597
 30
0.0
 11
1688.110264
 21
1605.081597
 31
0.0
  0
LINE
  5
83C
100
AcDbEntity
  8
フラッシュバルブ
  6
CONTINUOUS
 62
     6
100
AcDbLine
 10
1727.149384
 20
1633.531577
 30
0.0
 11
1717.471194
 21
1627.943867
 31
0.0
  0
LINE
  5
83D
100
AcDbEntity
  8
フラッシュバルブ
  6
CONTINUOUS
 62
     6
100
AcDbLine
 10
1672.810274
 20
1615.496057
 30
0.0
 11
1672.810274
 21
1628.496057
 31
0.0
  0
LINE
  5
83E
100
AcDbEntity
  8
フラッシュバルブ
  6
CONTINUOUS
 62
     6
100
AcDbLine
 10
1681.510284
 20
1612.063717
 30
0.0
 11
1687.110264
 21
1612.063717
 31
0.0
  0
LINE
  5
83F
100
AcDbEntity
  8
フラッシュバルブ
  6
CONTINUOUS
 62
     6
100
AcDbLine
 10
1681.613744
 20
1615.013937
 30
0.0
 11
1687.006804
 21
1615.013937
 31
0.0
  0
LINE
  5
840
100
AcDbEntity
  8
フラッシュバルブ
  6
CONTINUOUS
 62
     6
100
AcDbLine
 10
1728.186524
 20
1673.360487
 30
0.0
 11
1738.122164
 21
1671.248587
 31
0.0
  0
LINE
  5
841
100
AcDbEntity
  8
フラッシュバルブ
  6
CONTINUOUS
 62
     6
100
AcDbLine
 10
1721.910314
 20
1688.496057
 30
0.0
 11
1716.610324
 21
1688.496057
 31
0.0
  0
LINE
  5
842
100
AcDbEntity
  8
フラッシュバルブ
  6
CONTINUOUS
 62
     6
100
AcDbLine
 10
1716.610324
 20
1688.496057
 30
0.0
 11
1716.610324
 21
1686.996057
 31
0.0
  0
LINE
  5
843
100
AcDbEntity
  8
フラッシュバルブ
  6
CONTINUOUS
 62
     6
100
AcDbLine
 10
1720.964144
 20
1678.731627
 30
0.0
 11
1720.964144
 21
1684.496057
 31
0.0
  0
LINE
  5
844
100
AcDbEntity
  8
フラッシュバルブ
  6
CONTINUOUS
 62
     6
100
AcDbLine
 10
1721.893584
 20
1678.731627
 30
0.0
 11
1720.964144
 21
1678.731627
 31
0.0
  0
LINE
  5
845
100
AcDbEntity
  8
フラッシュバルブ
  6
CONTINUOUS
 62
     6
100
AcDbLine
 10
1721.893584
 20
1684.496057
 30
0.0
 11
1720.964144
 21
1684.496057
 31
0.0
  0
LINE
  5
846
100
AcDbEntity
  8
フラッシュバルブ
  6
CONTINUOUS
 62
     6
100
AcDbLine
 10
1721.893584
 20
1684.496057
 30
0.0
 11
1721.893584
 21
1678.731627
 31
0.0
  0
LINE
  5
847
100
AcDbEntity
  8
フラッシュバルブ
  6
CONTINUOUS
 62
     6
100
AcDbLine
 10
1694.310274
 20
1670.995877
 30
0.0
 11
1737.310274
 21
1670.995877
 31
0.0
  0
LINE
  5
848
100
AcDbEntity
  8
フラッシュバルブ
  6
CONTINUOUS
 62
     6
100
AcDbLine
 10
1737.810274
 20
1661.996057
 30
0.0
 11
1693.810274
 21
1661.996057
 31
0.0
  0
LINE
  5
849
100
AcDbEntity
  8
フラッシュバルブ
  6
CONTINUOUS
 62
     6
100
AcDbLine
 10
1727.149384
 20
1650.460537
 30
0.0
 11
1717.471194
 21
1656.048247
 31
0.0
  0
LINE
  5
84A
100
AcDbEntity
  8
フラッシュバルブ
  6
CONTINUOUS
 62
     6
100
AcDbLine
 10
1728.810274
 20
1636.408347
 30
0.0
 11
1728.810274
 21
1647.583767
 31
0.0
  0
LINE
  5
84B
100
AcDbEntity
  8
フラッシュバルブ
  6
CONTINUOUS
 62
     6
100
AcDbLine
 10
1722.210294
 20
1688.196057
 30
0.0
 11
1722.210294
 21
1686.996057
 31
0.0
  0
LINE
  5
84C
100
AcDbEntity
  8
フラッシュバルブ
  6
CONTINUOUS
 62
     6
100
AcDbLine
 10
1688.633154
 20
1638.996057
 30
0.0
 11
1679.987394
 21
1638.996057
 31
0.0
  0
LINE
  5
84D
100
AcDbEntity
  8
フラッシュバルブ
  6
CONTINUOUS
 62
     6
100
AcDbLine
 10
1667.810274
 20
1630.996057
 30
0.0
 11
1667.810274
 21
1612.996057
 31
0.0
  0
LINE
  5
84E
100
AcDbEntity
  8
フラッシュバルブ
  6
CONTINUOUS
 62
     6
100
AcDbLine
 10
1667.810274
 20
1627.496057
 30
0.0
 11
1672.810274
 21
1627.496057
 31
0.0
  0
LINE
  5
84F
100
AcDbEntity
  8
フラッシュバルブ
  6
CONTINUOUS
 62
     6
100
AcDbLine
 10
1667.810274
 20
1616.496057
 30
0.0
 11
1672.810274
 21
1616.496057
 31
0.0
  0
LINE
  5
850
100
AcDbEntity
  8
フラッシュバルブ
  6
CONTINUOUS
 62
     6
100
AcDbLine
 10
1664.810274
 20
1612.996057
 30
0.0
 11
1664.810274
 21
1630.996057
 31
0.0
  0
LINE
  5
851
100
AcDbEntity
  8
フラッシュバルブ
  6
CONTINUOUS
 62
     6
100
AcDbLine
 10
1674.810274
 20
1613.496057
 30
0.0
 11
1679.310274
 21
1613.496057
 31
0.0
  0
LINE
  5
852
100
AcDbEntity
  8
フラッシュバルブ
  6
CONTINUOUS
 62
     6
100
AcDbLine
 10
1674.810274
 20
1630.496057
 30
0.0
 11
1679.310274
 21
1630.496057
 31
0.0
  0
LINE
  5
853
100
AcDbEntity
  8
フラッシュバルブ
  6
CONTINUOUS
 62
     6
100
AcDbLine
 10
1724.310274
 20
1686.996057
 30
0.0
 11
1707.310274
 21
1686.996057
 31
0.0
  0
LINE
  5
854
100
AcDbEntity
  8
フラッシュバルブ
  6
CONTINUOUS
 62
     6
100
AcDbLine
 10
1715.010224
 20
1688.496057
 30
0.0
 11
1715.010224
 21
1686.996057
 31
0.0
  0
LINE
  5
855
100
AcDbEntity
  8
フラッシュバルブ
  6
CONTINUOUS
 62
     6
100
AcDbLine
 10
1709.410254
 20
1688.196057
 30
0.0
 11
1709.410254
 21
1686.996057
 31
0.0
  0
LINE
  5
856
100
AcDbEntity
  8
フラッシュバルブ
  6
CONTINUOUS
 62
     6
100
AcDbLine
 10
1709.710234
 20
1688.496057
 30
0.0
 11
1709.410254
 21
1688.196057
 31
0.0
  0
LINE
  5
857
100
AcDbEntity
  8
フラッシュバルブ
  6
CONTINUOUS
 62
     6
100
AcDbLine
 10
1709.710234
 20
1688.496057
 30
0.0
 11
1715.010224
 21
1688.496057
 31
0.0
  0
LINE
  5
858
100
AcDbEntity
  8
フラッシュバルブ
  6
CONTINUOUS
 62
     6
100
AcDbLine
 10
1721.910314
 20
1688.496057
 30
0.0
 11
1722.210294
 21
1688.196057
 31
0.0
  0
LINE
  5
859
100
AcDbEntity
  8
フラッシュバルブ
  6
CONTINUOUS
 62
     6
100
AcDbLine
 10
1724.310274
 20
1686.996057
 30
0.0
 11
1727.060274
 21
1684.496057
 31
0.0
  0
LINE
  5
85A
100
AcDbEntity
  8
フラッシュバルブ
  6
CONTINUOUS
 62
     6
100
AcDbLine
 10
1727.060274
 20
1678.731627
 30
0.0
 11
1727.060274
 21
1684.496057
 31
0.0
  0
LINE
  5
85B
100
AcDbEntity
  8
フラッシュバルブ
  6
CONTINUOUS
 62
     6
100
AcDbLine
 10
1739.310274
 20
1663.496057
 30
0.0
 11
1739.310274
 21
1669.781367
 31
0.0
  0
LINE
  5
85C
100
AcDbEntity
  8
フラッシュバルブ
  6
CONTINUOUS
 62
     6
100
AcDbLine
 10
1707.310274
 20
1686.996057
 30
0.0
 11
1704.560274
 21
1684.496057
 31
0.0
  0
LINE
  5
85D
100
AcDbEntity
  8
フラッシュバルブ
  6
CONTINUOUS
 62
     6
100
AcDbLine
 10
1704.560274
 20
1678.731627
 30
0.0
 11
1704.560274
 21
1684.496057
 31
0.0
  0
LINE
  5
85E
100
AcDbEntity
  8
フラッシュバルブ
  6
CONTINUOUS
 62
     6
100
AcDbLine
 10
1703.433994
 20
1673.360487
 30
0.0
 11
1693.498384
 21
1671.248587
 31
0.0
  0
LINE
  5
85F
100
AcDbEntity
  8
フラッシュバルブ
  6
CONTINUOUS
 62
     6
100
AcDbLine
 10
1692.310274
 20
1663.496057
 30
0.0
 11
1692.310274
 21
1669.781367
 31
0.0
  0
LINE
  5
860
100
AcDbEntity
  8
フラッシュバルブ
  6
CONTINUOUS
 62
     6
100
AcDbLine
 10
1742.378603
 20
1630.496057
 30
0.0
 11
1736.810274
 21
1630.496057
 31
0.0
  0
LINE
  5
861
100
AcDbEntity
  8
フラッシュバルブ
  6
CONTINUOUS
 62
     6
100
AcDbLine
 10
1692.090244
 20
1635.996057
 30
0.0
 11
1692.090244
 21
1636.346427
 31
0.0
  0
LINE
  5
862
100
AcDbEntity
  8
フラッシュバルブ
  6
CONTINUOUS
 62
     6
100
AcDbLine
 10
1689.310274
 20
1635.996057
 30
0.0
 11
1690.251524
 21
1635.996057
 31
0.0
  0
LINE
  5
863
100
AcDbEntity
  8
フラッシュバルブ
  6
CONTINUOUS
 62
     6
100
AcDbLine
 10
1692.090244
 20
1635.996057
 30
0.0
 11
1690.810274
 21
1635.257057
 31
0.0
  0
LINE
  5
864
100
AcDbEntity
  8
フラッシュバルブ
  6
CONTINUOUS
 62
     6
100
AcDbLine
 10
1690.810274
 20
1635.257057
 30
0.0
 11
1689.310274
 21
1635.257057
 31
0.0
  0
LINE
  5
865
100
AcDbEntity
  8
フラッシュバルブ
  6
CONTINUOUS
 62
     6
100
AcDbLine
 10
1692.090244
 20
1607.996057
 30
0.0
 11
1690.810274
 21
1608.735057
 31
0.0
  0
LINE
  5
866
100
AcDbEntity
  8
フラッシュバルブ
  6
CONTINUOUS
 62
     6
100
AcDbLine
 10
1690.810274
 20
1636.027377
 30
0.0
 11
1690.810274
 21
1607.996057
 31
0.0
  0
LINE
  5
867
100
AcDbEntity
  8
フラッシュバルブ
  6
CONTINUOUS
 62
     6
100
AcDbLine
 10
1690.810274
 20
1608.735057
 30
0.0
 11
1689.310274
 21
1608.735057
 31
0.0
  0
LINE
  5
868
100
AcDbEntity
  8
フラッシュバルブ
  6
CONTINUOUS
 62
     6
100
AcDbLine
 10
1689.310274
 20
1607.996057
 30
0.0
 11
1696.863104
 21
1607.996057
 31
0.0
  0
LINE
  5
869
100
AcDbEntity
  8
フラッシュバルブ
  6
CONTINUOUS
 62
     6
100
AcDbLine
 10
1730.810274
 20
1607.692207
 30
0.0
 11
1730.810274
 21
1624.496057
 31
0.0
  0
LINE
  5
86A
100
AcDbEntity
  8
フラッシュバルブ
  6
CONTINUOUS
 62
     6
100
AcDbLine
 10
1694.310274
 20
1647.996057
 30
0.0
 11
1694.310274
 21
1661.996057
 31
0.0
  0
LINE
  5
86B
100
AcDbEntity
  8
フラッシュバルブ
  6
CONTINUOUS
 62
     6
100
AcDbLine
 10
1694.310274
 20
1660.587927
 30
0.0
 11
1695.123264
 21
1661.996077
 31
0.0
  0
LINE
  5
86C
100
AcDbEntity
  8
フラッシュバルブ
  6
CONTINUOUS
 62
     6
100
AcDbLine
 10
1737.310274
 20
1660.587927
 30
0.0
 11
1736.497286
 21
1661.996077
 31
0.0
  0
LINE
  5
86D
100
AcDbEntity
  8
フラッシュバルブ
  6
CONTINUOUS
 62
     6
100
AcDbLine
 10
1737.310274
 20
1661.996057
 30
0.0
 11
1737.310274
 21
1658.996057
 31
0.0
  0
LINE
  5
86E
100
AcDbEntity
  8
フラッシュバルブ
  6
CONTINUOUS
 62
     6
100
AcDbLine
 10
1681.613744
 20
1628.978177
 30
0.0
 11
1687.006804
 21
1628.978177
 31
0.0
  0
LINE
  5
86F
100
AcDbEntity
  8
フラッシュバルブ
  6
CONTINUOUS
 62
     6
100
AcDbLine
 10
1681.510284
 20
1631.928397
 30
0.0
 11
1687.110264
 21
1631.928397
 31
0.0
  0
LINE
  5
870
100
AcDbEntity
  8
フラッシュバルブ
  6
CONTINUOUS
 62
     6
100
AcDbLine
 10
1679.510284
 20
1633.928397
 30
0.0
 11
1679.510284
 21
1637.910517
 31
0.0
  0
LINE
  5
871
100
AcDbEntity
  8
フラッシュバルブ
  6
CONTINUOUS
 62
     6
100
AcDbLine
 10
1680.510284
 20
1638.910517
 30
0.0
 11
1688.110264
 21
1638.910517
 31
0.0
  0
LINE
  5
872
100
AcDbEntity
  8
フラッシュバルブ
  6
CONTINUOUS
 62
     6
100
AcDbLine
 10
1689.110264
 20
1633.928397
 30
0.0
 11
1689.110264
 21
1637.910517
 31
0.0
  0
LINE
  5
873
100
AcDbEntity
  8
フラッシュバルブ
  6
CONTINUOUS
 62
     6
100
AcDbLine
 10
1709.726964
 20
1684.496057
 30
0.0
 11
1710.656404
 21
1684.496057
 31
0.0
  0
LINE
  5
874
100
AcDbEntity
  8
フラッシュバルブ
  6
CONTINUOUS
 62
     6
100
AcDbLine
 10
1709.726964
 20
1678.731627
 30
0.0
 11
1710.656404
 21
1678.731627
 31
0.0
  0
LINE
  5
875
100
AcDbEntity
  8
フラッシュバルブ
  6
CONTINUOUS
 62
     6
100
AcDbLine
 10
1710.656404
 20
1678.731627
 30
0.0
 11
1710.656404
 21
1684.496057
 31
0.0
  0
LINE
  5
876
100
AcDbEntity
  8
フラッシュバルブ
  6
CONTINUOUS
 62
     6
100
AcDbLine
 10
1709.726964
 20
1684.496057
 30
0.0
 11
1709.726964
 21
1678.731627
 31
0.0
  0
LINE
  5
877
100
AcDbEntity
  8
フラッシュバルブ
  6
CONTINUOUS
 62
     6
100
AcDbLine
 10
1704.471164
 20
1633.531577
 30
0.0
 11
1714.149354
 21
1627.943867
 31
0.0
  0
LINE
  5
878
100
AcDbEntity
  8
フラッシュバルブ
  6
CONTINUOUS
 62
     6
100
AcDbLine
 10
1704.471164
 20
1650.460537
 30
0.0
 11
1714.149354
 21
1656.048247
 31
0.0
  0
LINE
  5
879
100
AcDbEntity
  8
フラッシュバルブ
  6
CONTINUOUS
 62
     6
100
AcDbLine
 10
1702.810274
 20
1636.408347
 30
0.0
 11
1702.810274
 21
1647.583767
 31
0.0
  0
LINE
  5
87A
100
AcDbEntity
  8
フラッシュバルブ
  6
CONTINUOUS
 62
     6
100
AcDbLine
 10
1779.797644
 20
1631.518557
 30
0.0
 11
1781.310274
 21
1632.391877
 31
0.0
  0
LINE
  5
87B
100
AcDbEntity
  8
フラッシュバルブ
  6
CONTINUOUS
 62
     6
100
AcDbLine
 10
1781.310274
 20
1652.473557
 30
0.0
 11
1775.310274
 21
1652.473557
 31
0.0
  0
LINE
  5
87C
100
AcDbEntity
  8
フラッシュバルブ
  6
CONTINUOUS
 62
     6
100
AcDbLine
 10
1790.810384
 20
1631.518567
 30
0.0
 11
1803.610264
 21
1631.518567
 31
0.0
  0
ARC
  5
87D
100
AcDbEntity
  8
フラッシュバルブ
  6
CONTINUOUS
 62
     6
100
AcDbCircle
 10
1706.810274
 20
1607.692207
 30
0.0
 40
6.0
100
AcDbArc
 50
205.2725
 51
240.0
  0
ARC
  5
87E
100
AcDbEntity
  8
フラッシュバルブ
  6
CONTINUOUS
 62
     6
100
AcDbCircle
 10
1724.810274
 20
1607.692207
 30
0.0
 40
6.0
100
AcDbArc
 50
300.0
 51
0.0
  0
ARC
  5
87F
100
AcDbEntity
  8
フラッシュバルブ
  6
CONTINUOUS
 62
     6
100
AcDbCircle
 10
1696.863104
 20
1602.996057
 30
0.0
 40
5.0
100
AcDbArc
 50
25.27237
 51
90.0
  0
ARC
  5
880
100
AcDbEntity
  8
フラッシュバルブ
  6
CONTINUOUS
 62
     6
100
AcDbCircle
 10
1742.810274
 20
1658.996057
 30
0.0
 40
5.5
100
AcDbArc
 50
180.0
 51
0.0
  0
ARC
  5
881
100
AcDbEntity
  8
フラッシュバルブ
  6
CONTINUOUS
 62
     6
100
AcDbCircle
 10
1758.810274
 20
1668.996057
 30
0.0
 40
40.5
100
AcDbArc
 50
256.1206
 51
287.0839
  0
ARC
  5
882
100
AcDbEntity
  8
フラッシュバルブ
  6
CONTINUOUS
 62
     6
100
AcDbCircle
 10
1742.378603
 20
1602.496057
 30
0.0
 40
28.0
100
AcDbArc
 50
76.12064
 51
90.0
  0
ARC
  5
883
100
AcDbEntity
  8
フラッシュバルブ
  6
CONTINUOUS
 62
     6
100
AcDbCircle
 10
1764.810274
 20
1674.496057
 30
0.0
 40
1.5
100
AcDbArc
 50
0.0
 51
90.0
  0
ARC
  5
884
100
AcDbEntity
  8
フラッシュバルブ
  6
CONTINUOUS
 62
     6
100
AcDbCircle
 10
1766.310274
 20
1663.996057
 30
0.0
 40
4.0
100
AcDbArc
 50
321.3178
 51
70.52875
  0
ARC
  5
885
100
AcDbEntity
  8
フラッシュバルブ
  6
CONTINUOUS
 62
     6
100
AcDbCircle
 10
1768.310274
 20
1669.652907
 30
0.0
 40
2.0
100
AcDbArc
 50
180.0
 51
250.5288
  0
ARC
  5
886
100
AcDbEntity
  8
フラッシュバルブ
  6
CONTINUOUS
 62
     6
100
AcDbCircle
 10
1752.810274
 20
1674.496057
 30
0.0
 40
1.5
100
AcDbArc
 50
90.0
 51
180.0
  0
ARC
  5
887
100
AcDbEntity
  8
フラッシュバルブ
  6
CONTINUOUS
 62
     6
100
AcDbCircle
 10
1751.310274
 20
1663.996057
 30
0.0
 40
4.0
100
AcDbArc
 50
109.4713
 51
218.6822
  0
ARC
  5
888
100
AcDbEntity
  8
フラッシュバルブ
  6
CONTINUOUS
 62
     6
100
AcDbCircle
 10
1758.810274
 20
1666.996057
 30
0.0
 40
10.0
100
AcDbArc
 50
64.15808
 51
85.98602
  0
ARC
  5
889
100
AcDbEntity
  8
フラッシュバルブ
  6
CONTINUOUS
 62
     6
100
AcDbCircle
 10
1758.810274
 20
1666.996057
 30
0.0
 40
10.0
100
AcDbArc
 50
94.01398
 51
115.8419
  0
ARC
  5
88A
100
AcDbEntity
  8
フラッシュバルブ
  6
CONTINUOUS
 62
     6
100
AcDbCircle
 10
1715.568634
 20
1593.196057
 30
0.0
 40
14.00836
100
AcDbArc
 50
154.6393
 51
205.3607
  0
ARC
  5
88B
100
AcDbEntity
  8
フラッシュバルブ
  6
CONTINUOUS
 62
     6
100
AcDbCircle
 10
1716.051914
 20
1593.196057
 30
0.0
 40
14.00836
100
AcDbArc
 50
334.6393
 51
25.36072
  0
ARC
  5
88C
100
AcDbEntity
  8
フラッシュバルブ
  6
CONTINUOUS
 62
     6
100
AcDbCircle
 10
1727.068604
 20
1588.870816
 30
0.0
 40
1.459078
100
AcDbArc
 50
217.2828
 51
322.7173
  0
ARC
  5
88D
100
AcDbEntity
  8
フラッシュバルブ
  6
CONTINUOUS
 62
     6
100
AcDbCircle
 10
1727.068604
 20
1597.521297
 30
0.0
 40
1.459078
100
AcDbArc
 50
37.28275
 51
142.7173
  0
ARC
  5
88E
100
AcDbEntity
  8
フラッシュバルブ
  6
CONTINUOUS
 62
     6
100
AcDbCircle
 10
1721.387364
 20
1593.196057
 30
0.0
 40
8.599416
100
AcDbArc
 50
322.7173
 51
37.28268
  0
ARC
  5
88F
100
AcDbEntity
  8
フラッシュバルブ
  6
CONTINUOUS
 62
     6
100
AcDbCircle
 10
1732.749854
 20
1593.196057
 30
0.0
 40
8.599416
100
AcDbArc
 50
142.7173
 51
217.2827
  0
ARC
  5
890
100
AcDbEntity
  8
フラッシュバルブ
  6
CONTINUOUS
 62
     6
100
AcDbCircle
 10
1718.754424
 20
1593.196057
 30
0.0
 40
2.892159
100
AcDbArc
 50
358.9791
 51
1.020874
  0
ARC
  5
891
100
AcDbEntity
  8
フラッシュバルブ
  6
CONTINUOUS
 62
     6
100
AcDbCircle
 10
1715.810274
 20
1593.143597
 30
0.0
 40
5.836777
100
AcDbArc
 50
1.020874
 51
178.9792
  0
ARC
  5
892
100
AcDbEntity
  8
フラッシュバルブ
  6
CONTINUOUS
 62
     6
100
AcDbCircle
 10
1715.810274
 20
1593.248517
 30
0.0
 40
5.836777
100
AcDbArc
 50
181.0208
 51
358.9791
  0
ARC
  5
893
100
AcDbEntity
  8
フラッシュバルブ
  6
CONTINUOUS
 62
     6
100
AcDbCircle
 10
1778.933594
 20
1603.518567
 30
0.0
 40
28.0
100
AcDbArc
 50
90.0
 51
107.0839
  0
ARC
  5
894
100
AcDbEntity
  8
フラッシュバルブ
  6
CONTINUOUS
 62
     6
100
AcDbCircle
 10
1870.524274
 20
1611.820187
 30
0.0
 40
100.0
100
AcDbArc
 50
148.0043
 51
152.8656
  0
ARC
  5
895
100
AcDbEntity
  8
フラッシュバルブ
  6
CONTINUOUS
 62
     6
100
AcDbCircle
 10
1787.411684
 20
1663.746057
 30
0.0
 40
2.0
100
AcDbArc
 50
90.0
 51
148.0043
  0
ARC
  5
896
100
AcDbEntity
  8
フラッシュバルブ
  6
CONTINUOUS
 62
     6
100
AcDbCircle
 10
1870.524274
 20
1672.171917
 30
0.0
 40
100.0
100
AcDbArc
 50
207.1344
 51
211.9957
  0
ARC
  5
897
100
AcDbEntity
  8
フラッシュバルブ
  6
CONTINUOUS
 62
     6
100
AcDbCircle
 10
1787.411684
 20
1620.246057
 30
0.0
 40
2.0
100
AcDbArc
 50
211.9957
 51
270.0
  0
ARC
  5
898
100
AcDbEntity
  8
フラッシュバルブ
  6
CONTINUOUS
 62
     6
100
AcDbCircle
 10
1783.310274
 20
1656.515997
 30
0.0
 40
2.0
100
AcDbArc
 50
152.8656
 51
180.0
  0
ARC
  5
899
100
AcDbEntity
  8
フラッシュバルブ
  6
CONTINUOUS
 62
     6
100
AcDbCircle
 10
1783.310274
 20
1627.476117
 30
0.0
 40
2.0
100
AcDbArc
 50
180.0007
 51
207.1344
  0
ARC
  5
89A
100
AcDbEntity
  8
フラッシュバルブ
  6
CONTINUOUS
 62
     6
100
AcDbCircle
 10
1775.310274
 20
1658.473557
 30
0.0
 40
6.0
100
AcDbArc
 50
180.0
 51
270.0
  0
ARC
  5
89B
100
AcDbEntity
  8
フラッシュバルブ
  6
CONTINUOUS
 62
     6
100
AcDbCircle
 10
1755.494844
 20
1664.496057
 30
0.0
 40
1.375
100
AcDbArc
 50
135.0506
 51
224.9494
  0
ARC
  5
89C
100
AcDbEntity
  8
フラッシュバルブ
  6
CONTINUOUS
 62
     6
100
AcDbCircle
 10
1758.810274
 20
1661.186477
 30
0.0
 40
6.059581
100
AcDbArc
 50
44.9494
 51
135.0505
  0
ARC
  5
89D
100
AcDbEntity
  8
フラッシュバルブ
  6
CONTINUOUS
 62
     6
100
AcDbCircle
 10
1758.810274
 20
1667.805637
 30
0.0
 40
6.059581
100
AcDbArc
 50
224.9495
 51
315.0506
  0
ARC
  5
89E
100
AcDbEntity
  8
フラッシュバルブ
  6
CONTINUOUS
 62
     6
100
AcDbCircle
 10
1749.717012
 20
1662.918657
 30
0.0
 40
1.172602
100
AcDbArc
 50
253.2524
 51
286.7476
  0
ARC
  5
89F
100
AcDbEntity
  8
フラッシュバルブ
  6
CONTINUOUS
 62
     6
100
AcDbCircle
 10
1749.717012
 20
1666.073457
 30
0.0
 40
1.172602
100
AcDbArc
 50
73.25247
 51
106.7475
  0
ARC
  5
8A0
100
AcDbEntity
  8
フラッシュバルブ
  6
CONTINUOUS
 62
     6
100
AcDbCircle
 10
1750.191683
 20
1664.496057
 30
0.0
 40
2.81987
100
AcDbArc
 50
106.7474
 51
137.2599
  0
ARC
  5
8A1
100
AcDbEntity
  8
フラッシュバルブ
  6
CONTINUOUS
 62
     6
100
AcDbCircle
 10
1749.242342
 20
1664.496057
 30
0.0
 40
2.81987
100
AcDbArc
 50
286.7474
 51
73.25259
  0
ARC
  5
8A2
100
AcDbEntity
  8
フラッシュバルブ
  6
CONTINUOUS
 62
     6
100
AcDbCircle
 10
1750.191683
 20
1664.496057
 30
0.0
 40
2.81987
100
AcDbArc
 50
174.5721
 51
253.2526
  0
ARC
  5
8A3
100
AcDbEntity
  8
フラッシュバルブ
  6
CONTINUOUS
 62
     6
100
AcDbCircle
 10
1749.310274
 20
1669.652907
 30
0.0
 40
2.0
100
AcDbArc
 50
289.4711
 51
0.0
  0
ARC
  5
8A4
100
AcDbEntity
  8
フラッシュバルブ
  6
CONTINUOUS
 62
     6
100
AcDbCircle
 10
1681.310274
 20
1606.496057
 30
0.0
 40
2.0
100
AcDbArc
 50
180.0
 51
228.5903
  0
ARC
  5
8A5
100
AcDbEntity
  8
フラッシュバルブ
  6
CONTINUOUS
 62
     6
100
AcDbCircle
 10
1687.310274
 20
1606.496057
 30
0.0
 40
2.0
100
AcDbArc
 50
311.4097
 51
0.0
  0
ARC
  5
8A6
100
AcDbEntity
  8
フラッシュバルブ
  6
CONTINUOUS
 62
     6
100
AcDbCircle
 10
1680.510284
 20
1606.081597
 30
0.0
 40
1.0
100
AcDbArc
 50
180.0
 51
270.0
  0
ARC
  5
8A7
100
AcDbEntity
  8
フラッシュバルブ
  6
CONTINUOUS
 62
     6
100
AcDbCircle
 10
1688.110264
 20
1606.081597
 30
0.0
 40
1.0
100
AcDbArc
 50
270.0
 51
0.0
  0
ARC
  5
8A8
100
AcDbEntity
  8
フラッシュバルブ
  6
CONTINUOUS
 62
     6
100
AcDbCircle
 10
1715.810274
 20
1641.996057
 30
0.0
 40
14.15
100
AcDbArc
 50
323.2592
 51
336.7408
  0
ARC
  5
8A9
100
AcDbEntity
  8
フラッシュバルブ
  6
CONTINUOUS
 62
     6
100
AcDbCircle
 10
1715.810274
 20
1641.996057
 30
0.0
 40
14.15
100
AcDbArc
 50
263.2591
 51
276.7408
  0
ARC
  5
8AA
100
AcDbEntity
  8
フラッシュバルブ
  6
CONTINUOUS
 62
     6
100
AcDbCircle
 10
1687.110264
 20
1610.063717
 30
0.0
 40
2.0
100
AcDbArc
 50
0.0
 51
90.0
  0
ARC
  5
8AB
100
AcDbEntity
  8
フラッシュバルブ
  6
CONTINUOUS
 62
     6
100
AcDbCircle
 10
1681.510284
 20
1610.063717
 30
0.0
 40
2.0
100
AcDbArc
 50
90.0
 51
180.0
  0
ARC
  5
8AC
100
AcDbEntity
  8
フラッシュバルブ
  6
CONTINUOUS
 62
     6
100
AcDbCircle
 10
1687.006804
 20
1617.013937
 30
0.0
 40
2.0
100
AcDbArc
 50
270.0
 51
357.6201
  0
ARC
  5
8AD
100
AcDbEntity
  8
フラッシュバルブ
  6
CONTINUOUS
 62
     6
100
AcDbCircle
 10
1567.133474
 20
1621.996057
 30
0.0
 40
121.9769
100
AcDbArc
 50
357.6201
 51
2.379944
  0
ARC
  5
8AE
100
AcDbEntity
  8
フラッシュバルブ
  6
CONTINUOUS
 62
     6
100
AcDbCircle
 10
1681.613744
 20
1617.013937
 30
0.0
 40
2.0
100
AcDbArc
 50
182.3799
 51
270.0
  0
ARC
  5
8AF
100
AcDbEntity
  8
フラッシュバルブ
  6
CONTINUOUS
 62
     6
100
AcDbCircle
 10
1801.487124
 20
1621.996057
 30
0.0
 40
121.9769
100
AcDbArc
 50
177.6201
 51
182.3799
  0
ARC
  5
8B0
100
AcDbEntity
  8
フラッシュバルブ
  6
CONTINUOUS
 62
     6
100
AcDbCircle
 10
1715.810274
 20
1678.855307
 30
0.0
 40
7.640748
100
AcDbArc
 50
47.58264
 51
132.4172
  0
ARC
  5
8B1
100
AcDbEntity
  8
フラッシュバルブ
  6
CONTINUOUS
 62
     6
100
AcDbCircle
 10
1715.810274
 20
1685.516357
 30
0.0
 40
8.520332
100
AcDbArc
 50
232.7791
 51
307.2211
  0
ARC
  5
8B2
100
AcDbEntity
  8
フラッシュバルブ
  6
CONTINUOUS
 62
     6
100
AcDbCircle
 10
1718.109834
 20
1676.846747
 30
0.0
 40
11.68415
100
AcDbArc
 50
40.09857
 51
53.14877
  0
ARC
  5
8B3
100
AcDbEntity
  8
フラッシュバルブ
  6
CONTINUOUS
 62
     6
100
AcDbCircle
 10
1724.217654
 20
1684.996057
 30
0.0
 40
1.5
100
AcDbArc
 50
53.14868
 51
83.73279
  0
ARC
  5
8B4
100
AcDbEntity
  8
フラッシュバルブ
  6
CONTINUOUS
 62
     6
100
AcDbCircle
 10
1724.725834
 20
1683.506957
 30
0.0
 40
3.0
100
AcDbArc
 50
96.59277
 51
160.7487
  0
ARC
  5
8B5
100
AcDbEntity
  8
フラッシュバルブ
  6
CONTINUOUS
 62
     6
100
AcDbCircle
 10
1724.615754
 20
1679.992557
 30
0.0
 40
3.0
100
AcDbArc
 50
204.8529
 51
265.1772
  0
ARC
  5
8B6
100
AcDbEntity
  8
フラッシュバルブ
  6
CONTINUOUS
 62
     6
100
AcDbCircle
 10
1724.217654
 20
1678.496057
 30
0.0
 40
1.5
100
AcDbArc
 50
270.0
 51
306.8513
  0
ARC
  5
8B7
100
AcDbEntity
  8
フラッシュバルブ
  6
CONTINUOUS
 62
     6
100
AcDbCircle
 10
1718.109834
 20
1686.645357
 30
0.0
 40
11.68415
100
AcDbArc
 50
306.8512
 51
319.9014
  0
ARC
  5
8B8
100
AcDbEntity
  8
フラッシュバルブ
  6
CONTINUOUS
 62
     6
100
AcDbCircle
 10
1728.810274
 20
1676.294927
 30
0.0
 40
3.0
100
AcDbArc
 50
125.6853
 51
258.0
  0
ARC
  5
8B9
100
AcDbEntity
  8
フラッシュバルブ
  6
CONTINUOUS
 62
     6
100
AcDbCircle
 10
1715.810274
 20
1641.996057
 30
0.0
 40
14.15
100
AcDbArc
 50
83.25916
 51
96.74091
  0
ARC
  5
8BA
100
AcDbEntity
  8
フラッシュバルブ
  6
CONTINUOUS
 62
     6
100
AcDbCircle
 10
1715.810274
 20
1641.996057
 30
0.0
 40
14.15
100
AcDbArc
 50
23.25916
 51
36.74084
  0
ARC
  5
8BB
100
AcDbEntity
  8
フラッシュバルブ
  6
CONTINUOUS
 62
     6
100
AcDbCircle
 10
1687.310274
 20
1637.496057
 30
0.0
 40
2.0
100
AcDbArc
 50
0.0
 51
48.59036
  0
ARC
  5
8BC
100
AcDbEntity
  8
フラッシュバルブ
  6
CONTINUOUS
 62
     6
100
AcDbCircle
 10
1681.310274
 20
1637.496057
 30
0.0
 40
2.0
100
AcDbArc
 50
131.4096
 51
180.0
  0
ARC
  5
8BD
100
AcDbEntity
  8
フラッシュバルブ
  6
CONTINUOUS
 62
     6
100
AcDbCircle
 10
1666.310274
 20
1612.996057
 30
0.0
 40
1.5
100
AcDbArc
 50
180.0
 51
0.0
  0
ARC
  5
8BE
100
AcDbEntity
  8
フラッシュバルブ
  6
CONTINUOUS
 62
     6
100
AcDbCircle
 10
1666.310274
 20
1630.996057
 30
0.0
 40
1.5
100
AcDbArc
 50
0.0
 51
180.0
  0
ARC
  5
8BF
100
AcDbEntity
  8
フラッシュバルブ
  6
CONTINUOUS
 62
     6
100
AcDbCircle
 10
1674.810274
 20
1615.496057
 30
0.0
 40
2.0
100
AcDbArc
 50
180.0
 51
270.0
  0
ARC
  5
8C0
100
AcDbEntity
  8
フラッシュバルブ
  6
CONTINUOUS
 62
     6
100
AcDbCircle
 10
1737.810274
 20
1669.781367
 30
0.0
 40
1.5
100
AcDbArc
 50
0.0
 51
77.99973
  0
ARC
  5
8C1
100
AcDbEntity
  8
フラッシュバルブ
  6
CONTINUOUS
 62
     6
100
AcDbCircle
 10
1737.810274
 20
1663.496057
 30
0.0
 40
1.5
100
AcDbArc
 50
270.0
 51
0.0
  0
ARC
  5
8C2
100
AcDbEntity
  8
フラッシュバルブ
  6
CONTINUOUS
 62
     6
100
AcDbCircle
 10
1702.810274
 20
1676.294927
 30
0.0
 40
3.0
100
AcDbArc
 50
282.0
 51
54.31467
  0
ARC
  5
8C3
100
AcDbEntity
  8
フラッシュバルブ
  6
CONTINUOUS
 62
     6
100
AcDbCircle
 10
1693.810274
 20
1669.781367
 30
0.0
 40
1.5
100
AcDbArc
 50
102.0003
 51
180.0
  0
ARC
  5
8C4
100
AcDbEntity
  8
フラッシュバルブ
  6
CONTINUOUS
 62
     6
100
AcDbCircle
 10
1736.810274
 20
1624.496057
 30
0.0
 40
6.0
100
AcDbArc
 50
90.0
 51
180.0
  0
ARC
  5
8C5
100
AcDbEntity
  8
フラッシュバルブ
  6
CONTINUOUS
 62
     6
100
AcDbCircle
 10
1690.251524
 20
1640.996057
 30
0.0
 40
5.0
100
AcDbArc
 50
270.0
 51
15.31653
  0
ARC
  5
8C6
100
AcDbEntity
  8
フラッシュバルブ
  6
CONTINUOUS
 62
     6
100
AcDbCircle
 10
1715.810274
 20
1647.996057
 30
0.0
 40
21.5
100
AcDbArc
 50
180.0
 51
195.3165
  0
ARC
  5
8C7
100
AcDbEntity
  8
フラッシュバルブ
  6
CONTINUOUS
 62
     6
100
AcDbCircle
 10
1698.870694
 20
1593.196057
 30
0.0
 40
8.599416
100
AcDbArc
 50
322.7173
 51
37.28265
  0
ARC
  5
8C8
100
AcDbEntity
  8
フラッシュバルブ
  6
CONTINUOUS
 62
     6
100
AcDbCircle
 10
1704.551944
 20
1597.521297
 30
0.0
 40
1.459078
100
AcDbArc
 50
37.28278
 51
142.7172
  0
ARC
  5
8C9
100
AcDbEntity
  8
フラッシュバルブ
  6
CONTINUOUS
 62
     6
100
AcDbCircle
 10
1710.233184
 20
1593.196057
 30
0.0
 40
8.599416
100
AcDbArc
 50
142.7173
 51
217.2827
  0
ARC
  5
8CA
100
AcDbEntity
  8
フラッシュバルブ
  6
CONTINUOUS
 62
     6
100
AcDbCircle
 10
1704.551944
 20
1588.870816
 30
0.0
 40
1.459078
100
AcDbArc
 50
217.2827
 51
322.7172
  0
ARC
  5
8CB
100
AcDbEntity
  8
フラッシュバルブ
  6
CONTINUOUS
 62
     6
100
AcDbCircle
 10
1712.866124
 20
1593.196057
 30
0.0
 40
2.892159
100
AcDbArc
 50
178.9791
 51
181.0209
  0
ARC
  5
8CC
100
AcDbEntity
  8
フラッシュバルブ
  6
CONTINUOUS
 62
     6
100
AcDbCircle
 10
1674.810274
 20
1628.496057
 30
0.0
 40
2.0
100
AcDbArc
 50
90.0
 51
180.0
  0
ARC
  5
8CD
100
AcDbEntity
  8
フラッシュバルブ
  6
CONTINUOUS
 62
     6
100
AcDbCircle
 10
1681.613744
 20
1626.978177
 30
0.0
 40
2.0
100
AcDbArc
 50
90.0
 51
177.62
  0
ARC
  5
8CE
100
AcDbEntity
  8
フラッシュバルブ
  6
CONTINUOUS
 62
     6
100
AcDbCircle
 10
1687.006804
 20
1626.978177
 30
0.0
 40
2.0
100
AcDbArc
 50
2.379883
 51
90.0
  0
ARC
  5
8CF
100
AcDbEntity
  8
フラッシュバルブ
  6
CONTINUOUS
 62
     6
100
AcDbCircle
 10
1681.510284
 20
1633.928397
 30
0.0
 40
2.0
100
AcDbArc
 50
180.0
 51
270.0
  0
ARC
  5
8D0
100
AcDbEntity
  8
フラッシュバルブ
  6
CONTINUOUS
 62
     6
100
AcDbCircle
 10
1680.510284
 20
1637.910517
 30
0.0
 40
1.0
100
AcDbArc
 50
90.0
 51
180.0
  0
ARC
  5
8D1
100
AcDbEntity
  8
フラッシュバルブ
  6
CONTINUOUS
 62
     6
100
AcDbCircle
 10
1688.110264
 20
1637.910517
 30
0.0
 40
1.0
100
AcDbArc
 50
0.0
 51
90.0
  0
ARC
  5
8D2
100
AcDbEntity
  8
フラッシュバルブ
  6
CONTINUOUS
 62
     6
100
AcDbCircle
 10
1687.110264
 20
1633.928397
 30
0.0
 40
2.0
100
AcDbArc
 50
270.0
 51
0.0
  0
ARC
  5
8D3
100
AcDbEntity
  8
フラッシュバルブ
  6
CONTINUOUS
 62
     6
100
AcDbCircle
 10
1706.894714
 20
1683.506957
 30
0.0
 40
3.0
100
AcDbArc
 50
19.25128
 51
83.40723
  0
ARC
  5
8D4
100
AcDbEntity
  8
フラッシュバルブ
  6
CONTINUOUS
 62
     6
100
AcDbCircle
 10
1707.004794
 20
1679.992557
 30
0.0
 40
3.0
100
AcDbArc
 50
274.8228
 51
335.1471
  0
ARC
  5
8D5
100
AcDbEntity
  8
フラッシュバルブ
  6
CONTINUOUS
 62
     6
100
AcDbCircle
 10
1707.402894
 20
1678.496057
 30
0.0
 40
1.5
100
AcDbArc
 50
233.1487
 51
270.0
  0
ARC
  5
8D6
100
AcDbEntity
  8
フラッシュバルブ
  6
CONTINUOUS
 62
     6
100
AcDbCircle
 10
1713.510714
 20
1686.645357
 30
0.0
 40
11.68415
100
AcDbArc
 50
220.0986
 51
233.1488
  0
ARC
  5
8D7
100
AcDbEntity
  8
フラッシュバルブ
  6
CONTINUOUS
 62
     6
100
AcDbCircle
 10
1713.510714
 20
1676.846747
 30
0.0
 40
11.68415
100
AcDbArc
 50
126.8512
 51
139.9014
  0
ARC
  5
8D8
100
AcDbEntity
  8
フラッシュバルブ
  6
CONTINUOUS
 62
     6
100
AcDbCircle
 10
1707.402894
 20
1684.996057
 30
0.0
 40
1.5
100
AcDbArc
 50
96.26727
 51
126.8513
  0
ARC
  5
8D9
100
AcDbEntity
  8
フラッシュバルブ
  6
CONTINUOUS
 62
     6
100
AcDbCircle
 10
1693.810274
 20
1663.496057
 30
0.0
 40
1.5
100
AcDbArc
 50
180.0
 51
270.0
  0
CIRCLE
  5
8DA
100
AcDbEntity
  8
フラッシュバルブ
  6
CONTINUOUS
 62
     6
100
AcDbCircle
 10
1715.810274
 20
1641.996057
 30
0.0
 40
4.75
  0
CIRCLE
  5
8DB
100
AcDbEntity
  8
フラッシュバルブ
  6
CONTINUOUS
 62
     6
100
AcDbCircle
 10
1715.810274
 20
1641.996057
 30
0.0
 40
5.5
  0
CIRCLE
  5
8DC
100
AcDbEntity
  8
フラッシュバルブ
  6
CONTINUOUS
 62
     6
100
AcDbCircle
 10
1715.810274
 20
1641.996057
 30
0.0
 40
12.0
  0
ARC
  5
8DD
100
AcDbEntity
  8
フラッシュバルブ
  6
CONTINUOUS
 62
     6
100
AcDbCircle
 10
1715.810274
 20
1641.996057
 30
0.0
 40
14.15
100
AcDbArc
 50
143.2592
 51
156.7408
  0
ARC
  5
8DE
100
AcDbEntity
  8
フラッシュバルブ
  6
CONTINUOUS
 62
     6
100
AcDbCircle
 10
1715.810274
 20
1641.996057
 30
0.0
 40
14.15
100
AcDbArc
 50
203.2592
 51
216.7409
  0
ARC
  5
8DF
100
AcDbEntity
  8
フラッシュバルブ
  6
CONTINUOUS
 62
     6
100
AcDbCircle
 10
1767.428864
 20
1664.496057
 30
0.0
 40
2.81987
100
AcDbArc
 50
42.74008
 51
73.25259
  0
ARC
  5
8E0
100
AcDbEntity
  8
フラッシュバルブ
  6
CONTINUOUS
 62
     6
100
AcDbCircle
 10
1767.428864
 20
1664.496057
 30
0.0
 40
2.81987
100
AcDbArc
 50
286.7474
 51
5.427887
  0
ARC
  5
8E1
100
AcDbEntity
  8
フラッシュバルブ
  6
CONTINUOUS
 62
     6
100
AcDbCircle
 10
1767.903534
 20
1662.918657
 30
0.0
 40
1.172602
100
AcDbArc
 50
253.2525
 51
286.7475
  0
ARC
  5
8E2
100
AcDbEntity
  8
フラッシュバルブ
  6
CONTINUOUS
 62
     6
100
AcDbCircle
 10
1768.378204
 20
1664.496057
 30
0.0
 40
2.81987
100
AcDbArc
 50
106.7474
 51
253.2526
  0
ARC
  5
8E3
100
AcDbEntity
  8
フラッシュバルブ
  6
CONTINUOUS
 62
     6
100
AcDbCircle
 10
1767.903534
 20
1666.073457
 30
0.0
 40
1.172602
100
AcDbArc
 50
73.25247
 51
106.7475
  0
ARC
  5
8E4
100
AcDbEntity
  8
フラッシュバルブ
  6
CONTINUOUS
 62
     6
100
AcDbCircle
 10
1762.125704
 20
1664.496057
 30
0.0
 40
1.375
100
AcDbArc
 50
315.0506
 51
44.94943
  0
LINE
  5
8E5
100
AcDbEntity
  8
フラッシュバルブ
  6
CONTINUOUS
 62
     6
100
AcDbLine
 10
1723.750274
 20
1493.99585
 30
0.0
 11
1723.750274
 21
1587.196057
 31
0.0
  0
LINE
  5
8E6
100
AcDbEntity
  8
フラッシュバルブ
  6
CONTINUOUS
 62
     6
100
AcDbLine
 10
1707.870274
 20
1493.99585
 30
0.0
 11
1707.870274
 21
1587.196057
 31
0.0
  0
TEXT
  5
8E7
100
AcDbEntity
  8
フラッシュバルブ
  6
CONTINUOUS
 62
     2
100
AcDbText
 10
1421.162325
 20
1708.96098
 30
0.0
 40
40.0
  1
ＪＵ６ＡＦ
 41
0.8106
  7
EXCADSTD
 72
     5
 11
1614.162325
 21
1708.96098
 31
0.0
100
AcDbText
  0
LINE
  5
8E8
100
AcDbEntity
  8
フラッシュバルブ
  6
CONTINUOUS
 62
     6
100
AcDbLine
 10
1426.499789
 20
1705.460919
 30
0.0
 11
1604.831057
 21
1705.460919
 31
0.0
  0
LINE
  5
8E9
100
AcDbEntity
  8
器具明細表
  6
CONTINUOUS
 62
     6
100
AcDbLine
 10
1249.0
 20
2409.000305
 30
0.0
 11
1949.0
 21
2409.000305
 31
0.0
  0
LINE
  5
8EA
100
AcDbEntity
  8
器具明細表
  6
CONTINUOUS
 62
     6
100
AcDbLine
 10
1249.0
 20
2474.000305
 30
0.0
 11
1949.0
 21
2474.000305
 31
0.0
  0
LINE
  5
8EB
100
AcDbEntity
  8
器具明細表
  6
CONTINUOUS
 62
     6
100
AcDbLine
 10
1249.0
 20
2539.0
 30
0.0
 11
1949.0
 21
2539.0
 31
0.0
  0
LINE
  5
8EC
100
AcDbEntity
  8
器具明細表
  6
CONTINUOUS
 62
     6
100
AcDbLine
 10
1249.0
 20
2604.0
 30
0.0
 11
1949.0
 21
2604.0
 31
0.0
  0
LINE
  5
8ED
100
AcDbEntity
  8
器具明細表
  6
CONTINUOUS
 62
     6
100
AcDbLine
 10
1249.0
 20
2669.0
 30
0.0
 11
1949.0
 21
2669.0
 31
0.0
  0
LINE
  5
8EE
100
AcDbEntity
  8
器具明細表
  6
CONTINUOUS
 62
     6
100
AcDbLine
 10
1249.0
 20
2734.0
 30
0.0
 11
1949.0
 21
2734.0
 31
0.0
  0
LINE
  5
8EF
100
AcDbEntity
  8
器具明細表
  6
CONTINUOUS
 62
     6
100
AcDbLine
 10
1249.0
 20
2734.0
 30
0.0
 11
1249.0
 21
2409.000305
 31
0.0
  0
LINE
  5
8F0
100
AcDbEntity
  8
器具明細表
  6
CONTINUOUS
 62
     6
100
AcDbLine
 10
1579.0
 20
2734.0
 30
0.0
 11
1579.0
 21
2409.000305
 31
0.0
  0
LINE
  5
8F1
100
AcDbEntity
  8
器具明細表
  6
CONTINUOUS
 62
     6
100
AcDbLine
 10
1859.0
 20
2734.0
 30
0.0
 11
1859.0
 21
2409.000305
 31
0.0
  0
LINE
  5
8F2
100
AcDbEntity
  8
器具明細表
  6
CONTINUOUS
 62
     6
100
AcDbLine
 10
1949.0
 20
2734.0
 30
0.0
 11
1949.0
 21
2409.000305
 31
0.0
  0
TEXT
  5
8F3
100
AcDbEntity
  8
器具明細表
  6
CONTINUOUS
 62
     2
100
AcDbText
 10
1266.050781
 20
2746.004395
 30
0.0
 40
60.0
  1
器　具　明　細
 41
0.91
  7
EXCADSTD
 72
     5
 11
1721.050781
 21
2746.004395
 31
0.0
100
AcDbText
  0
TEXT
  5
8F4
100
AcDbEntity
  8
器具明細表
  6
CONTINUOUS
 62
     2
100
AcDbText
 10
1299.400391
 20
2674.0
 30
0.0
 40
55.0
  1
品　　番
 41
0.859091
  7
EXCADSTD
 72
     5
 11
1524.400391
 21
2674.0
 31
0.0
100
AcDbText
  0
TEXT
  5
8F5
100
AcDbEntity
  8
器具明細表
  6
CONTINUOUS
 62
     2
100
AcDbText
 10
1864.0
 20
2674.0
 30
0.0
 40
55.0
  1
個数
 41
0.664364
  7
EXCADSTD
 72
     5
 11
1943.7442
 21
2674.0
 31
0.0
100
AcDbText
  0
TEXT
  5
8F6
100
AcDbEntity
  8
器具明細表
  6
CONTINUOUS
 62
     2
100
AcDbText
 10
1629.01709
 20
2674.0
 30
0.0
 40
55.0
  1
品　　名
 41
0.687273
  7
EXCADSTD
 72
     5
 11
1809.01709
 21
2674.0
 31
0.0
100
AcDbText
  0
TEXT
  5
8F7
100
AcDbEntity
  8
器具明細表
  6
CONTINUOUS
 62
     2
100
AcDbText
 10
1582.918457
 20
2479.779114
 30
0.0
 40
50.0
  1
スパッド
 41
0.6552
  7
EXCADSTD
 72
     5
 11
1738.918457
 21
2479.779114
 31
0.0
100
AcDbText
  0
TEXT
  5
8F8
100
AcDbEntity
  8
器具明細表
  6
CONTINUOUS
 62
     2
100
AcDbText
 10
1251.983856
 20
2611.480469
 30
0.0
 40
50.0
  1
Ｕ３３３Ｃ
 41
0.64848
  7
EXCADSTD
 72
     5
 11
1444.983856
 21
2611.480469
 31
0.0
100
AcDbText
  0
TEXT
  5
8F9
100
AcDbEntity
  8
器具明細表
  6
CONTINUOUS
 62
     2
100
AcDbText
 10
1884.0
 20
2547.613281
 30
0.0
 40
47.5
  1
１
 41
0.834695
  7
EXCADSTD
 72
     5
 11
1921.759998
 21
2547.613281
 31
0.0
100
AcDbText
  0
TEXT
  5
8FA
100
AcDbEntity
  8
器具明細表
  6
CONTINUOUS
 62
     2
100
AcDbText
 10
1884.0
 20
2481.466126
 30
0.0
 40
47.5
  1
１
 41
0.834695
  7
EXCADSTD
 72
     5
 11
1921.759998
 21
2481.466126
 31
0.0
100
AcDbText
  0
TEXT
  5
8FB
100
AcDbEntity
  8
器具明細表
  6
CONTINUOUS
 62
     2
100
AcDbText
 10
1884.0
 20
2417.381653
 30
0.0
 40
47.5
  1
１
 41
0.834695
  7
EXCADSTD
 72
     5
 11
1921.759998
 21
2417.381653
 31
0.0
100
AcDbText
  0
TEXT
  5
8FC
100
AcDbEntity
  8
器具明細表
  6
CONTINUOUS
 62
     2
100
AcDbText
 10
1251.983856
 20
2546.480469
 30
0.0
 40
50.0
  1
ＪＵ６ＡＦ
 41
0.64848
  7
EXCADSTD
 72
     5
 11
1444.983856
 21
2546.480469
 31
0.0
100
AcDbText
  0
TEXT
  5
8FD
100
AcDbEntity
  8
器具明細表
  6
CONTINUOUS
 62
     2
100
AcDbText
 10
1251.983856
 20
2481.479858
 30
0.0
 40
50.0
  1
ＮＵ２
 41
0.6664
  7
EXCADSTD
 72
     5
 11
1370.983856
 21
2481.479858
 31
0.0
100
AcDbText
  0
TEXT
  5
8FE
100
AcDbEntity
  8
器具明細表
  6
CONTINUOUS
 62
     2
100
AcDbText
 10
1582.918457
 20
2609.0
 30
0.0
 40
50.0
  1
小便器
 41
0.6664
  7
EXCADSTD
 72
     5
 11
1701.918457
 21
2609.0
 31
0.0
100
AcDbText
  0
TEXT
  5
8FF
100
AcDbEntity
  8
器具明細表
  6
CONTINUOUS
 62
     2
100
AcDbText
 10
1884.0
 20
2612.981934
 30
0.0
 40
47.5
  1
１
 41
0.834695
  7
EXCADSTD
 72
     5
 11
1921.759998
 21
2612.981934
 31
0.0
100
AcDbText
  0
INSERT
  5
900
100
AcDbEntity
  8
器具明細表
  6
CONTINUOUS
 62
     0
100
AcDbBlockReference
  2
NC510LSK
 10
1351.534424
 20
2818.388184
 30
0.0
 41
10.0
 42
10.0
  0
TEXT
  5
901
100
AcDbEntity
  8
器具明細表
  6
CONTINUOUS
 62
     2
100
AcDbText
 10
1251.983856
 20
2416.479858
 30
0.0
 40
50.0
  1
ＮＵ９ＡＶ
 41
0.64848
  7
EXCADSTD
 72
     5
 11
1444.983856
 21
2416.479858
 31
0.0
100
AcDbText
  0
TEXT
  5
902
100
AcDbEntity
  8
器具明細表
  6
CONTINUOUS
 62
     2
100
AcDbText
 10
1582.918457
 20
2414.779114
 30
0.0
 40
50.0
  1
樹脂製床フランジ
 41
0.5901
  7
EXCADSTD
 72
     5
 11
1863.918474
 21
2414.779114
 31
0.0
100
AcDbText
  0
TEXT
  5
903
100
AcDbEntity
  8
器具明細表
  6
CONTINUOUS
 62
     2
100
AcDbText
 10
1237.391876
 20
2347.240204
 30
0.0
 40
45.0
  1
注：本図は、流動方式を示します。
 41
0.709333
  7
EXCADSTD
 72
     5
 11
1845.391869
 21
2347.240204
 31
0.0
100
AcDbText
  0
TEXT
  5
904
100
AcDbEntity
  8
器具明細表
  6
CONTINUOUS
 62
     2
100
AcDbText
 10
1582.918457
 20
2544.0
 30
0.0
 40
50.0
  1
小便器洗浄弁
 41
0.644
  7
EXCADSTD
 72
     5
 11
1812.918456
 21
2544.0
 31
0.0
100
AcDbText
  0
TEXT
  5
905
100
AcDbEntity
  8
器具明細表
  6
CONTINUOUS
 62
     2
100
AcDbText
 10
1237.391876
 20
2289.279388
 30
0.0
 40
45.0
  1
  ：最低水圧０．０７ＭＰａ以上（流動時）
 41
0.687811
  7
EXCADSTD
 72
     5
 11
1997.391867
 21
2289.279388
 31
0.0
100
AcDbText
  0
TEXT
  5
906
100
AcDbEntity
  8
器具明細表
  6
CONTINUOUS
 62
     2
100
AcDbText
 10
1237.391876
 20
2236.279388
 30
0.0
 40
45.0
  1
　　必要です。
 41
0.709333
  7
EXCADSTD
 72
     5
 11
1503.391873
 21
2236.279388
 31
0.0
100
AcDbText
  0
TEXT
  5
907
100
AcDbEntity
  8
器具明細表
  6
CONTINUOUS
 62
     2
100
AcDbText
 10
1237.391876
 20
2183.279388
 30
0.0
 40
45.0
  1
　　（最高水圧０．０７ＭＰａ）
 41
0.709333
  7
EXCADSTD
 72
     5
 11
1807.391869
 21
2183.279388
 31
0.0
100
AcDbText
  0
ENDSEC
  0
SECTION
  2
OBJECTS
  0
DICTIONARY
  5
19
100
AcDbDictionary
  3
ACAD_GROUP
350
1A
  3
ACAD_MLINESTYLE
350
1B
  0
DICTIONARY
  5
1A
102
{ACAD_REACTORS
330
19
102
}
100
AcDbDictionary
  0
DICTIONARY
  5
1B
102
{ACAD_REACTORS
330
19
102
}
100
AcDbDictionary
  3
STANDARD
350
1C
  0
MLINESTYLE
  5
1C
102
{ACAD_REACTORS
330
1B
102
}
100
AcDbMlineStyle
  2
Standard
 70
     0
  3

 62
     0
 51
90.0
 52
90.0
 71
     2
 49
0.5
 62
   256
  6
ByLayer
 49
-0.5
 62
   256
  6
ByLayer
  0
ENDSEC
  0
EOF
