  0
SECTION
  2
HEADER
  9
$ACADVER
  1
AC1014
  9
$ACADMAINTVER
 70
     0
  9
$DWGCODEPAGE
  3
ANSI_932
  9
$INSBASE
 10
0.0
 20
0.0
 30
0.0
  9
$EXTMIN
 10
-2.0
 20
0.0
 30
0.0
  9
$EXTMAX
 10
208.0
 20
297.0
 30
0.0
  9
$LIMMIN
 10
0.0
 20
0.0
  9
$LIMMAX
 10
210.0
 20
297.0
  9
$ORTHOMODE
 70
     0
  9
$REGENMODE
 70
     1
  9
$FILLMODE
 70
     1
  9
$QTEXTMODE
 70
     0
  9
$MIRRTEXT
 70
     1
  9
$DRAGMODE
 70
     2
  9
$LTSCALE
 40
1.0
  9
$OSMODE
 70
     0
  9
$ATTMODE
 70
     1
  9
$TEXTSIZE
 40
0.2
  9
$TRACEWID
 40
0.05
  9
$TEXTSTYLE
  7
STANDARD
  9
$CLAYER
  8
_
  9
$CELTYPE
  6
CONTINUOUS
  9
$CECOLOR
 62
   256
  9
$CELTSCALE
 40
1.0
  9
$DELOBJ
 70
     1
  9
$DISPSILH
 70
     0
  9
$DIMSCALE
 40
1.0
  9
$DIMASZ
 40
0.18
  9
$DIMEXO
 40
0.0625
  9
$DIMDLI
 40
0.38
  9
$DIMRND
 40
0.0
  9
$DIMDLE
 40
0.0
  9
$DIMEXE
 40
0.18
  9
$DIMTP
 40
0.0
  9
$DIMTM
 40
0.0
  9
$DIMTXT
 40
0.18
  9
$DIMCEN
 40
0.09
  9
$DIMTSZ
 40
0.0
  9
$DIMTOL
 70
     0
  9
$DIMLIM
 70
     0
  9
$DIMTIH
 70
     1
  9
$DIMTOH
 70
     1
  9
$DIMSE1
 70
     0
  9
$DIMSE2
 70
     0
  9
$DIMTAD
 70
     0
  9
$DIMZIN
 70
     0
  9
$DIMBLK
  1

  9
$DIMASO
 70
     1
  9
$DIMSHO
 70
     1
  9
$DIMPOST
  1

  9
$DIMAPOST
  1

  9
$DIMALT
 70
     0
  9
$DIMALTD
 70
     2
  9
$DIMALTF
 40
25.4
  9
$DIMLFAC
 40
1.0
  9
$DIMTOFL
 70
     0
  9
$DIMTVP
 40
0.0
  9
$DIMTIX
 70
     0
  9
$DIMSOXD
 70
     0
  9
$DIMSAH
 70
     0
  9
$DIMBLK1
  1

  9
$DIMBLK2
  1

  9
$DIMSTYLE
  2
STANDARD
  9
$DIMCLRD
 70
     0
  9
$DIMCLRE
 70
     0
  9
$DIMCLRT
 70
     0
  9
$DIMTFAC
 40
1.0
  9
$DIMGAP
 40
0.09
  9
$DIMJUST
 70
     0
  9
$DIMSD1
 70
     0
  9
$DIMSD2
 70
     0
  9
$DIMTOLJ
 70
     1
  9
$DIMTZIN
 70
     0
  9
$DIMALTZ
 70
     0
  9
$DIMALTTZ
 70
     0
  9
$DIMFIT
 70
     3
  9
$DIMUPT
 70
     0
  9
$DIMUNIT
 70
     2
  9
$DIMDEC
 70
     4
  9
$DIMTDEC
 70
     4
  9
$DIMALTU
 70
     2
  9
$DIMALTTD
 70
     2
  9
$DIMTXSTY
  7
STANDARD
  9
$DIMAUNIT
 70
     0
  9
$LUNITS
 70
     2
  9
$LUPREC
 70
     4
  9
$SKETCHINC
 40
0.1
  9
$FILLETRAD
 40
0.0
  9
$AUNITS
 70
     0
  9
$AUPREC
 70
     0
  9
$MENU
  1
acad
  9
$ELEVATION
 40
0.0
  9
$PELEVATION
 40
0.0
  9
$THICKNESS
 40
0.0
  9
$LIMCHECK
 70
     0
  9
$BLIPMODE
 70
     1
  9
$CHAMFERA
 40
0.0
  9
$CHAMFERB
 40
0.0
  9
$CHAMFERC
 40
0.0
  9
$CHAMFERD
 40
0.0
  9
$SKPOLY
 70
     0
  9
$TDCREATE
 40
2454513.792473577
  9
$TDUPDATE
 40
2454513.792473577
  9
$TDINDWG
 40
0.0000000000
  9
$TDUSRTIMER
 40
0.0000000000
  9
$USRTIMER
 70
     1
  9
$ANGBASE
 50
0.0
  9
$ANGDIR
 70
     0
  9
$PDMODE
 70
     0
  9
$PDSIZE
 40
0.0
  9
$PLINEWID
 40
0.0
  9
$COORDS
 70
     1
  9
$SPLFRAME
 70
     0
  9
$SPLINETYPE
 70
     6
  9
$SPLINESEGS
 70
     8
  9
$ATTDIA
 70
     0
  9
$ATTREQ
 70
     1
  9
$HANDLING
 70
     1
  9
$HANDSEED
  5
948
  9
$SURFTAB1
 70
     6
  9
$SURFTAB2
 70
     6
  9
$SURFTYPE
 70
     6
  9
$SURFU
 70
     6
  9
$SURFV
 70
     6
  9
$UCSNAME
  2

  9
$UCSORG
 10
0.0
 20
0.0
 30
0.0
  9
$UCSXDIR
 10
1.0
 20
0.0
 30
0.0
  9
$UCSYDIR
 10
0.0
 20
1.0
 30
0.0
  9
$PUCSNAME
  2

  9
$PUCSORG
 10
0.0
 20
0.0
 30
0.0
  9
$PUCSXDIR
 10
1.0
 20
0.0
 30
0.0
  9
$PUCSYDIR
 10
0.0
 20
1.0
 30
0.0
  9
$USERI1
 70
     0
  9
$USERI2
 70
     0
  9
$USERI3
 70
     0
  9
$USERI4
 70
     0
  9
$USERI5
 70
     0
  9
$USERR1
 40
0.0
  9
$USERR2
 40
0.0
  9
$USERR3
 40
0.0
  9
$USERR4
 40
0.0
  9
$USERR5
 40
0.0
  9
$WORLDVIEW
 70
     1
  9
$SHADEDGE
 70
     3
  9
$SHADEDIF
 70
    70
  9
$TILEMODE
 70
     1
  9
$MAXACTVP
 70
    16
  9
$PINSBASE
 10
0.0
 20
0.0
 30
0.0
  9
$PLIMCHECK
 70
     0
  9
$PEXTMIN
 10
1.000000E+20
 20
1.000000E+20
 30
1.000000E+20
  9
$PEXTMAX
 10
-1.000000E+20
 20
-1.000000E+20
 30
-1.000000E+20
  9
$PLIMMIN
 10
0.0
 20
0.0
  9
$PLIMMAX
 10
12.0
 20
9.0
  9
$UNITMODE
 70
     0
  9
$VISRETAIN
 70
     0
  9
$PLINEGEN
 70
     1
  9
$PSLTSCALE
 70
     0
  9
$TREEDEPTH
 70
  3020
  9
$PICKSTYLE
 70
     1
  9
$CMLSTYLE
  2
Standard
  9
$CMLJUST
 70
     0
  9
$CMLSCALE
 40
1.0
  9
$PROXYGRAPHICS
 70
     0
  9
$MEASUREMENT
 70
     0
  0
ENDSEC
  0
SECTION
  2
CLASSES
  0
CLASS
  1
LWPOLYLINE
  2
AcDbPolyline
  3
"AutoCAD"
 90
        0
280
     0
281
     1
  0
CLASS
  1
IMAGE
  2
AcDbRasterImage
  3
ISM
 90
      127
280
     0
281
     1
  0
CLASS
  1
OLE2FRAME
  2
AcDbOle2Frame
  3
""
 90
        0
280
     0
281
     1
  0
CLASS
  1
HATCH
  2
AcDbHatch
  3
"ACAD_SEDONA"
 90
        0
280
     0
281
     1
  0
CLASS
  1
DICTIONARYVAR
  2
AcDbDictionaryVar
  3
"AutoCAD"
 90
        0
280
     0
281
     0
  0
CLASS
  1
RASTERVARIABLES
  2
AcDbRasterVariables
  3
ISM
 90
        0
280
     0
281
     0
  0
CLASS
  1
IMAGEDEF
  2
AcDbRasterImageDef
  3
ISM
 90
        0
280
     0
281
     0
  0
CLASS
  1
IMAGEDEF_REACTOR
  2
AcDbRasterImageDefReactor
  3
ISM
 90
        1
280
     0
281
     0
  0
CLASS
  1
IDBUFFER
  2
AcDbIdBuffer
  3
"Acad"
 90
        0
280
     0
281
     0
  0
CLASS
  1
SPATIAL_FILTER
  2
AcDbSpatialFilter
  3
"Acad"
 90
        0
280
     0
281
     0
  0
CLASS
  1
XRECORD
  2
AcDbXrecord
  3
"<Built In>"
 90
        0
280
     0
281
     0
  0
CLASS
  1
SORTENTSTABLE
  2
AcDbSortentsTable
  3
"AutoCAD"
 90
        0
280
     0
281
     0
  0
CLASS
  1
LAYER_INDEX
  2
AcDbLayerIndex
  3
"Acad"
 90
        0
280
     0
281
     0
  0
CLASS
  1
SPATIAL_INDEX
  2
AcDbSpatialIndex
  3
"Acad"
 90
        0
280
     0
281
     0
  0
CLASS
  1
OBJECT_PTR
  2
CAseDLPNTableRecord
  3
"ASE-LPNTableRecord"
 90
        1
280
     0
281
     0
  0
CLASS
  1
LAYOUT
  2
AcDbLayout
  3
"AutoCAD 2000"
 90
        1
280
     0
281
     0
  0
CLASS
  1
PLOTSETTINGS
  2
AcDbPlotSettings
  3
"AutoCAD 2000"
 90
        1
280
     0
281
     0
  0
CLASS
  1
ACDBDICTIONARYWDFLT
  2
AcDbDictionaryWithDefault
  3
"AutoCAD 2000"
 90
        1
280
     0
281
     0
  0
CLASS
  1
ACDBPLACEHOLDER
  2
AcDbPlaceHolder
  3
"AutoCAD 2000"
 90
        1
280
     0
281
     0
  0
CLASS
  1
VBA_PROJECT
  2
AcDbVbaProject
  3
"acadvba"
 90
        1
280
     0
281
     0
  0
CLASS
  1
WIPEOUT
  2
AcDbWipeout
  3
WipeOut|AutoCAD Express Tool|expresstools@autodesk.com
 90
      127
280
     0
281
     1
  0
CLASS
  1
WIPEOUTVARIABLES
  2
AcDbWipeoutVariables
  3
WipeOut|AutoCAD Express Tool|expresstools@autodesk.com
 90
        0
280
     0
281
     0
  0
CLASS
  1
RTEXT
  2
RText
  3
RText|AutoCAD Express Tool|expresstools@autodesk.com
 90
        0
280
     0
281
     1
  0
CLASS
  1
ARCALIGNEDTEXT
  2
AcDbArcAlignedText
  3
ATEXT|AutoCAD Express Tool|expresstools@autodesk.com
 90
        0
280
     0
281
     1
  0
ENDSEC
  0
SECTION
  2
TABLES
  0
TABLE
  2
VPORT
  5
7
100
AcDbSymbolTable
 70
     1
  0
VPORT
  5
15
100
AcDbSymbolTableRecord
100
AcDbViewportTableRecord
  2
*ACTIVE
 70
     0
 10
0.0
 20
0.0
 11
1.0
 21
1.0
 12
1030.0
 22
1485.0
 13
0.0
 23
0.0
 14
1.0
 24
1.0
 15
0.0
 25
0.0
 16
0.0
 26
0.0
 36
1.0
 17
0.0
 27
0.0
 37
0.0
 40
2970.0
 41
1.722533
 42
50.0
 43
0.0
 44
0.0
 50
0.0
 51
0.0
 71
     0
 72
   100
 73
     1
 74
     1
 75
     0
 76
     0
 77
     0
 78
     0
  0
ENDTAB
  0
TABLE
  2
LTYPE
  5
4
100
AcDbSymbolTable
 70
     9
  0
LTYPE
  5
11
100
AcDbSymbolTableRecord
100
AcDbLinetypeTableRecord
  2
BYBLOCK
 70
    64
  3

 72
    65
 73
     0
 40
0.0
  0
LTYPE
  5
12
100
AcDbSymbolTableRecord
100
AcDbLinetypeTableRecord
  2
BYLAYER
 70
    64
  3

 72
    65
 73
     0
 40
0.0
  0
LTYPE
  5
13
100
AcDbSymbolTableRecord
100
AcDbLinetypeTableRecord
  2
CONTINUOUS
 70
    64
  3
実線
 72
    65
 73
     0
 40
0.0
  0
LTYPE
  5
1D
100
AcDbSymbolTableRecord
100
AcDbLinetypeTableRecord
  2
EXLTYPE1
 70
    64
  3
破線
 72
    65
 73
     2
 40
3.0
 49
2.0
 74
     0
 49
-1.0
 74
     0
  0
LTYPE
  5
1E
100
AcDbSymbolTableRecord
100
AcDbLinetypeTableRecord
  2
EXLTYPE2
 70
    64
  3
点線
 72
    65
 73
     2
 40
2.0
 49
1.0
 74
     0
 49
-1.0
 74
     0
  0
LTYPE
  5
1F
100
AcDbSymbolTableRecord
100
AcDbLinetypeTableRecord
  2
EXLTYPE3
 70
    64
  3
一点鎖線
 72
    65
 73
     4
 40
10.0
 49
7.0
 74
     0
 49
-1.0
 74
     0
 49
1.0
 74
     0
 49
-1.0
 74
     0
  0
LTYPE
  5
20
100
AcDbSymbolTableRecord
100
AcDbLinetypeTableRecord
  2
EXLTYPE4
 70
    64
  3
二点鎖線
 72
    65
 73
     6
 40
12.0
 49
7.0
 74
     0
 49
-1.0
 74
     0
 49
1.0
 74
     0
 49
-1.0
 74
     0
 49
1.0
 74
     0
 49
-1.0
 74
     0
  0
LTYPE
  5
21
100
AcDbSymbolTableRecord
100
AcDbLinetypeTableRecord
  2
EXLTYPE5
 70
    64
  3
三点鎖線
 72
    65
 73
     8
 40
37.0
 49
30.0
 74
     0
 49
-1.0
 74
     0
 49
1.0
 74
     0
 49
-1.0
 74
     0
 49
1.0
 74
     0
 49
-1.0
 74
     0
 49
1.0
 74
     0
 49
-1.0
 74
     0
  0
LTYPE
  5
22
100
AcDbSymbolTableRecord
100
AcDbLinetypeTableRecord
  2
EXLTYPE6
 70
    64
  3
四点鎖線
 72
    65
 73
    10
 40
39.0
 49
30.0
 74
     0
 49
-1.0
 74
     0
 49
1.0
 74
     0
 49
-1.0
 74
     0
 49
1.0
 74
     0
 49
-1.0
 74
     0
 49
1.0
 74
     0
 49
-1.0
 74
     0
 49
1.0
 74
     0
 49
-1.0
 74
     0
  0
ENDTAB
  0
TABLE
  2
LAYER
  5
2
100
AcDbSymbolTable
 70
     6
  0
LAYER
  5
14
100
AcDbSymbolTableRecord
100
AcDbLayerTableRecord
  2
0
 70
     0
 62
     7
  6
CONTINUOUS
  0
LAYER
  5
25
100
AcDbSymbolTableRecord
100
AcDbLayerTableRecord
  2
_
 70
    64
 62
     7
  6
CONTINUOUS
  0
LAYER
  5
26
100
AcDbSymbolTableRecord
100
AcDbLayerTableRecord
  2
_2
 70
    64
 62
     7
  6
CONTINUOUS
  0
LAYER
  5
27
100
AcDbSymbolTableRecord
100
AcDbLayerTableRecord
  2
_3
 70
    64
 62
     7
  6
CONTINUOUS
  0
LAYER
  5
28
100
AcDbSymbolTableRecord
100
AcDbLayerTableRecord
  2
LAY-4
 70
    64
 62
     7
  6
CONTINUOUS
  0
LAYER
  5
29
100
AcDbSymbolTableRecord
100
AcDbLayerTableRecord
  2
_4
 70
    64
 62
     7
  6
CONTINUOUS
  0
ENDTAB
  0
TABLE
  2
STYLE
  5
3
100
AcDbSymbolTable
 70
     3
  0
STYLE
  5
17
100
AcDbSymbolTableRecord
100
AcDbTextStyleTableRecord
  2
STANDARD
 70
     0
 40
0.0
 41
1.0
 50
0.0
 71
     0
 42
0.0
  3
monotxt
  4
extfont
  0
STYLE
  5
23
100
AcDbSymbolTableRecord
100
AcDbTextStyleTableRecord
  2
EXCADSTD
 70
    64
 40
0.0
 41
1.0
 50
0.0
 71
     0
 42
0.2
  3
monotxt
  4
extfont
  0
STYLE
  5
24
100
AcDbSymbolTableRecord
100
AcDbTextStyleTableRecord
  2
EXCADVERT
 70
    68
 40
0.0
 41
1.0
 50
0.0
 71
     0
 42
0.286885
  3
monotxt
  4
extfont
  0
ENDTAB
  0
TABLE
  2
VIEW
  5
5
100
AcDbSymbolTable
 70
     0
  0
ENDTAB
  0
TABLE
  2
UCS
  5
6
100
AcDbSymbolTable
 70
     0
  0
ENDTAB
  0
TABLE
  2
APPID
  5
8
100
AcDbSymbolTable
 70
     1
  0
APPID
  5
16
100
AcDbSymbolTableRecord
100
AcDbRegAppTableRecord
  2
ACAD
 70
     0
  0
ENDTAB
  0
TABLE
  2
DIMSTYLE
  5
9
100
AcDbSymbolTable
 70
     1
  0
DIMSTYLE
105
18
100
AcDbSymbolTableRecord
100
AcDbDimStyleTableRecord
  2
STANDARD
 70
     0
  3

  4

  5

  6

  7

 40
1.0
 41
0.18
 42
0.0625
 43
0.38
 44
0.18
 45
0.0
 46
0.0
 47
0.0
 48
0.0
 71
     0
 72
     0
 73
     1
 74
     1
 75
     0
 76
     0
 77
     0
 78
     0
140
0.18
141
0.09
142
0.0
143
25.4
144
1.0
145
0.0
146
1.0
147
0.09
170
     0
171
     2
172
     1
173
     0
174
     0
175
     0
176
     0
177
     0
178
     0
270
     2
271
     4
272
     4
273
     2
274
     2
275
     0
280
     0
281
     0
282
     0
283
     1
284
     0
285
     0
286
     0
287
     0
288
     0
340
17
  0
ENDTAB
  0
TABLE
  2
BLOCK_RECORD
  5
1
100
AcDbSymbolTable
 70
    15
  0
BLOCK_RECORD
  5
A
100
AcDbSymbolTableRecord
100
AcDbBlockTableRecord
  2
*MODEL_SPACE
  0
BLOCK_RECORD
  5
B
100
AcDbSymbolTableRecord
100
AcDbBlockTableRecord
  2
*PAPER_SPACE
  0
BLOCK_RECORD
  5
2A
100
AcDbSymbolTableRecord
100
AcDbBlockTableRecord
  2
_EX_NORM
  0
BLOCK_RECORD
  5
2B
100
AcDbSymbolTableRecord
100
AcDbBlockTableRecord
  2
_EX_BNORM
  0
BLOCK_RECORD
  5
2C
100
AcDbSymbolTableRecord
100
AcDbBlockTableRecord
  2
_EX_BCIR
  0
BLOCK_RECORD
  5
2D
100
AcDbSymbolTableRecord
100
AcDbBlockTableRecord
  2
_EX_RCIVIL
  0
BLOCK_RECORD
  5
2E
100
AcDbSymbolTableRecord
100
AcDbBlockTableRecord
  2
_EX_SLANT
  0
BLOCK_RECORD
  5
2F
100
AcDbSymbolTableRecord
100
AcDbBlockTableRecord
  2
_EX_NONE
  0
BLOCK_RECORD
  5
30
100
AcDbSymbolTableRecord
100
AcDbBlockTableRecord
  2
_EX_CIVIL
  0
BLOCK_RECORD
  5
31
100
AcDbSymbolTableRecord
100
AcDbBlockTableRecord
  2
_EX_WCIR
  0
BLOCK_RECORD
  5
32
100
AcDbSymbolTableRecord
100
AcDbBlockTableRecord
  2
_EX_WCIR2
  0
BLOCK_RECORD
  5
33
100
AcDbSymbolTableRecord
100
AcDbBlockTableRecord
  2
_EX_WNORM
  0
BLOCK_RECORD
  5
34
100
AcDbSymbolTableRecord
100
AcDbBlockTableRecord
  2
_EX_NNORM
  0
BLOCK_RECORD
  5
35
100
AcDbSymbolTableRecord
100
AcDbBlockTableRecord
  2
_EX_BBOX
  0
BLOCK_RECORD
  5
36
100
AcDbSymbolTableRecord
100
AcDbBlockTableRecord
  2
_EX_WBOX
  0
BLOCK_RECORD
  5
37
100
AcDbSymbolTableRecord
100
AcDbBlockTableRecord
  2
_EX_INTEGRAL
  0
BLOCK_RECORD
  5
38
100
AcDbSymbolTableRecord
100
AcDbBlockTableRecord
  2
NC510LSK
  0
ENDTAB
  0
ENDSEC
  0
SECTION
  2
BLOCKS
  0
BLOCK
  5
D
100
AcDbEntity
  8
0
100
AcDbBlockBegin
  2
*MODEL_SPACE
 70
     0
 10
0.0
 20
0.0
 30
0.0
  3
*MODEL_SPACE
  1

  0
ENDBLK
  5
E
100
AcDbEntity
  8
0
100
AcDbBlockEnd
  0
BLOCK
  5
F
100
AcDbEntity
 67
     1
  8
0
100
AcDbBlockBegin
  2
*PAPER_SPACE
 70
     0
 10
0.0
 20
0.0
 30
0.0
  3
*PAPER_SPACE
  1

  0
ENDBLK
  5
10
100
AcDbEntity
 67
     1
  8
0
100
AcDbBlockEnd
  0
BLOCK
  5
39
100
AcDbEntity
  8
0
100
AcDbBlockBegin
  2
_EX_NORM
 70
     0
 10
0.0
 20
0.0
 30
0.0
  3
_EX_NORM
  1

  0
LINE
  5
3A
100
AcDbEntity
  8
0
  6
CONTINUOUS
 62
     0
100
AcDbLine
 10
0.0
 20
0.0
 30
0.0
 11
-1.0
 21
0.0
 31
0.0
  0
LINE
  5
3B
100
AcDbEntity
  8
0
  6
CONTINUOUS
 62
     0
100
AcDbLine
 10
0.0
 20
0.0
 30
0.0
 11
-1.0
 21
0.166667
 31
0.0
  0
LINE
  5
3C
100
AcDbEntity
  8
0
  6
CONTINUOUS
 62
     0
100
AcDbLine
 10
0.0
 20
0.0
 30
0.0
 11
-1.0
 21
-0.166667
 31
0.0
  0
ENDBLK
  5
3D
100
AcDbEntity
  8
0
100
AcDbBlockEnd
  0
BLOCK
  5
3E
100
AcDbEntity
  8
0
100
AcDbBlockBegin
  2
_EX_BNORM
 70
     0
 10
0.0
 20
0.0
 30
0.0
  3
_EX_BNORM
  1

  0
LINE
  5
3F
100
AcDbEntity
  8
0
  6
CONTINUOUS
 62
     0
100
AcDbLine
 10
0.0
 20
0.0
 30
0.0
 11
-1.0
 21
0.0
 31
0.0
  0
LINE
  5
40
100
AcDbEntity
  8
0
  6
CONTINUOUS
 62
     0
100
AcDbLine
 10
0.0
 20
0.0
 30
0.0
 11
-1.0
 21
0.166667
 31
0.0
  0
LINE
  5
41
100
AcDbEntity
  8
0
  6
CONTINUOUS
 62
     0
100
AcDbLine
 10
0.0
 20
0.0
 30
0.0
 11
-1.0
 21
-0.166667
 31
0.0
  0
LINE
  5
42
100
AcDbEntity
  8
0
  6
CONTINUOUS
 62
     0
100
AcDbLine
 10
0.0
 20
0.0
 30
0.0
 11
-1.0
 21
0.083333
 31
0.0
  0
LINE
  5
43
100
AcDbEntity
  8
0
  6
CONTINUOUS
 62
     0
100
AcDbLine
 10
0.0
 20
0.0
 30
0.0
 11
-1.0
 21
-0.083333
 31
0.0
  0
LINE
  5
44
100
AcDbEntity
  8
0
  6
CONTINUOUS
 62
     0
100
AcDbLine
 10
-1.0
 20
0.166667
 30
0.0
 11
-1.0
 21
-0.166667
 31
0.0
  0
ENDBLK
  5
45
100
AcDbEntity
  8
0
100
AcDbBlockEnd
  0
BLOCK
  5
46
100
AcDbEntity
  8
0
100
AcDbBlockBegin
  2
_EX_BCIR
 70
     0
 10
0.0
 20
0.0
 30
0.0
  3
_EX_BCIR
  1

  0
LINE
  5
47
100
AcDbEntity
  8
0
  6
CONTINUOUS
 62
     0
100
AcDbLine
 10
0.0
 20
0.0
 30
0.0
 11
-1.0
 21
0.0
 31
0.0
  0
CIRCLE
  5
48
100
AcDbEntity
  8
0
  6
CONTINUOUS
 62
     0
100
AcDbCircle
 10
0.0
 20
0.0
 30
0.0
 40
0.5
  0
CIRCLE
  5
49
100
AcDbEntity
  8
0
  6
CONTINUOUS
 62
     0
100
AcDbCircle
 10
0.0
 20
0.0
 30
0.0
 40
0.25
  0
ENDBLK
  5
4A
100
AcDbEntity
  8
0
100
AcDbBlockEnd
  0
BLOCK
  5
4B
100
AcDbEntity
  8
0
100
AcDbBlockBegin
  2
_EX_RCIVIL
 70
     0
 10
0.0
 20
0.0
 30
0.0
  3
_EX_RCIVIL
  1

  0
LINE
  5
4C
100
AcDbEntity
  8
0
  6
CONTINUOUS
 62
     0
100
AcDbLine
 10
0.0
 20
0.0
 30
0.0
 11
-1.0
 21
0.0
 31
0.0
  0
LINE
  5
4D
100
AcDbEntity
  8
0
  6
CONTINUOUS
 62
     0
100
AcDbLine
 10
-1.0
 20
-0.25
 30
0.0
 11
0.0
 21
-0.25
 31
0.0
  0
LINE
  5
4E
100
AcDbEntity
  8
0
  6
CONTINUOUS
 62
     0
100
AcDbLine
 10
-1.0
 20
-0.125
 30
0.0
 11
0.0
 21
-0.125
 31
0.0
  0
ENDBLK
  5
4F
100
AcDbEntity
  8
0
100
AcDbBlockEnd
  0
BLOCK
  5
50
100
AcDbEntity
  8
0
100
AcDbBlockBegin
  2
_EX_SLANT
 70
     0
 10
0.0
 20
0.0
 30
0.0
  3
_EX_SLANT
  1

  0
LINE
  5
51
100
AcDbEntity
  8
0
  6
CONTINUOUS
 62
     0
100
AcDbLine
 10
0.0
 20
0.0
 30
0.0
 11
-1.0
 21
0.0
 31
0.0
  0
LINE
  5
52
100
AcDbEntity
  8
0
  6
CONTINUOUS
 62
     0
100
AcDbLine
 10
0.707107
 20
0.707107
 30
0.0
 11
-0.707107
 21
-0.707107
 31
0.0
  0
ENDBLK
  5
53
100
AcDbEntity
  8
0
100
AcDbBlockEnd
  0
BLOCK
  5
54
100
AcDbEntity
  8
0
100
AcDbBlockBegin
  2
_EX_NONE
 70
     0
 10
0.0
 20
0.0
 30
0.0
  3
_EX_NONE
  1

  0
LINE
  5
55
100
AcDbEntity
  8
0
  6
CONTINUOUS
 62
     0
100
AcDbLine
 10
0.0
 20
0.0
 30
0.0
 11
-1.0
 21
0.0
 31
0.0
  0
ENDBLK
  5
56
100
AcDbEntity
  8
0
100
AcDbBlockEnd
  0
BLOCK
  5
57
100
AcDbEntity
  8
0
100
AcDbBlockBegin
  2
_EX_CIVIL
 70
     0
 10
0.0
 20
0.0
 30
0.0
  3
_EX_CIVIL
  1

  0
LINE
  5
58
100
AcDbEntity
  8
0
  6
CONTINUOUS
 62
     0
100
AcDbLine
 10
0.0
 20
0.0
 30
0.0
 11
-1.0
 21
0.0
 31
0.0
  0
LINE
  5
59
100
AcDbEntity
  8
0
  6
CONTINUOUS
 62
     0
100
AcDbLine
 10
-1.0
 20
0.25
 30
0.0
 11
0.0
 21
0.25
 31
0.0
  0
LINE
  5
5A
100
AcDbEntity
  8
0
  6
CONTINUOUS
 62
     0
100
AcDbLine
 10
-1.0
 20
0.125
 30
0.0
 11
0.0
 21
0.125
 31
0.0
  0
ENDBLK
  5
5B
100
AcDbEntity
  8
0
100
AcDbBlockEnd
  0
BLOCK
  5
5C
100
AcDbEntity
  8
0
100
AcDbBlockBegin
  2
_EX_WCIR
 70
     0
 10
0.0
 20
0.0
 30
0.0
  3
_EX_WCIR
  1

  0
LINE
  5
5D
100
AcDbEntity
  8
0
  6
CONTINUOUS
 62
     0
100
AcDbLine
 10
0.0
 20
0.0
 30
0.0
 11
-1.0
 21
0.0
 31
0.0
  0
CIRCLE
  5
5E
100
AcDbEntity
  8
0
  6
CONTINUOUS
 62
     0
100
AcDbCircle
 10
0.0
 20
0.0
 30
0.0
 40
0.5
  0
ENDBLK
  5
5F
100
AcDbEntity
  8
0
100
AcDbBlockEnd
  0
BLOCK
  5
60
100
AcDbEntity
  8
0
100
AcDbBlockBegin
  2
_EX_WCIR2
 70
     0
 10
0.0
 20
0.0
 30
0.0
  3
_EX_WCIR2
  1

  0
LINE
  5
61
100
AcDbEntity
  8
0
  6
CONTINUOUS
 62
     0
100
AcDbLine
 10
-0.5
 20
0.0
 30
0.0
 11
-1.0
 21
0.0
 31
0.0
  0
CIRCLE
  5
62
100
AcDbEntity
  8
0
  6
CONTINUOUS
 62
     0
100
AcDbCircle
 10
0.0
 20
0.0
 30
0.0
 40
0.5
  0
ENDBLK
  5
63
100
AcDbEntity
  8
0
100
AcDbBlockEnd
  0
BLOCK
  5
64
100
AcDbEntity
  8
0
100
AcDbBlockBegin
  2
_EX_WNORM
 70
     0
 10
0.0
 20
0.0
 30
0.0
  3
_EX_WNORM
  1

  0
LINE
  5
65
100
AcDbEntity
  8
0
  6
CONTINUOUS
 62
     0
100
AcDbLine
 10
-1.0
 20
0.0
 30
0.0
 11
-1.0
 21
0.0
 31
0.0
  0
LINE
  5
66
100
AcDbEntity
  8
0
  6
CONTINUOUS
 62
     0
100
AcDbLine
 10
0.0
 20
0.0
 30
0.0
 11
-1.0
 21
0.166667
 31
0.0
  0
LINE
  5
67
100
AcDbEntity
  8
0
  6
CONTINUOUS
 62
     0
100
AcDbLine
 10
0.0
 20
0.0
 30
0.0
 11
-1.0
 21
-0.166667
 31
0.0
  0
LINE
  5
68
100
AcDbEntity
  8
0
  6
CONTINUOUS
 62
     0
100
AcDbLine
 10
-1.0
 20
0.166667
 30
0.0
 11
-1.0
 21
-0.166667
 31
0.0
  0
ENDBLK
  5
69
100
AcDbEntity
  8
0
100
AcDbBlockEnd
  0
BLOCK
  5
6A
100
AcDbEntity
  8
0
100
AcDbBlockBegin
  2
_EX_NNORM
 70
     0
 10
0.0
 20
0.0
 30
0.0
  3
_EX_NNORM
  1

  0
LINE
  5
6B
100
AcDbEntity
  8
0
  6
CONTINUOUS
 62
     0
100
AcDbLine
 10
0.0
 20
0.0
 30
0.0
 11
-1.0
 21
0.0
 31
0.0
  0
LINE
  5
6C
100
AcDbEntity
  8
0
  6
CONTINUOUS
 62
     0
100
AcDbLine
 10
0.0
 20
0.0
 30
0.0
 11
-1.0
 21
0.166667
 31
0.0
  0
LINE
  5
6D
100
AcDbEntity
  8
0
  6
CONTINUOUS
 62
     0
100
AcDbLine
 10
0.0
 20
0.0
 30
0.0
 11
-1.0
 21
-0.166667
 31
0.0
  0
LINE
  5
6E
100
AcDbEntity
  8
0
  6
CONTINUOUS
 62
     0
100
AcDbLine
 10
-1.0
 20
0.166667
 30
0.0
 11
-1.0
 21
-0.166667
 31
0.0
  0
ENDBLK
  5
6F
100
AcDbEntity
  8
0
100
AcDbBlockEnd
  0
BLOCK
  5
70
100
AcDbEntity
  8
0
100
AcDbBlockBegin
  2
_EX_BBOX
 70
     0
 10
0.0
 20
0.0
 30
0.0
  3
_EX_BBOX
  1

  0
LINE
  5
71
100
AcDbEntity
  8
0
  6
CONTINUOUS
 62
     0
100
AcDbLine
 10
0.0
 20
0.0
 30
0.0
 11
-1.0
 21
0.0
 31
0.0
  0
LINE
  5
72
100
AcDbEntity
  8
0
  6
CONTINUOUS
 62
     0
100
AcDbLine
 10
-0.5
 20
0.5
 30
0.0
 11
0.5
 21
0.5
 31
0.0
  0
LINE
  5
73
100
AcDbEntity
  8
0
  6
CONTINUOUS
 62
     0
100
AcDbLine
 10
0.5
 20
0.5
 30
0.0
 11
0.5
 21
-0.5
 31
0.0
  0
LINE
  5
74
100
AcDbEntity
  8
0
  6
CONTINUOUS
 62
     0
100
AcDbLine
 10
0.5
 20
-0.5
 30
0.0
 11
-0.5
 21
-0.5
 31
0.0
  0
LINE
  5
75
100
AcDbEntity
  8
0
  6
CONTINUOUS
 62
     0
100
AcDbLine
 10
-0.5
 20
-0.5
 30
0.0
 11
-0.5
 21
0.5
 31
0.0
  0
LINE
  5
76
100
AcDbEntity
  8
0
  6
CONTINUOUS
 62
     0
100
AcDbLine
 10
-0.25
 20
0.25
 30
0.0
 11
0.25
 21
0.25
 31
0.0
  0
LINE
  5
77
100
AcDbEntity
  8
0
  6
CONTINUOUS
 62
     0
100
AcDbLine
 10
0.25
 20
0.25
 30
0.0
 11
0.25
 21
-0.25
 31
0.0
  0
LINE
  5
78
100
AcDbEntity
  8
0
  6
CONTINUOUS
 62
     0
100
AcDbLine
 10
0.25
 20
-0.25
 30
0.0
 11
-0.25
 21
-0.25
 31
0.0
  0
LINE
  5
79
100
AcDbEntity
  8
0
  6
CONTINUOUS
 62
     0
100
AcDbLine
 10
-0.25
 20
-0.25
 30
0.0
 11
-0.25
 21
0.25
 31
0.0
  0
ENDBLK
  5
7A
100
AcDbEntity
  8
0
100
AcDbBlockEnd
  0
BLOCK
  5
7B
100
AcDbEntity
  8
0
100
AcDbBlockBegin
  2
_EX_WBOX
 70
     0
 10
0.0
 20
0.0
 30
0.0
  3
_EX_WBOX
  1

  0
LINE
  5
7C
100
AcDbEntity
  8
0
  6
CONTINUOUS
 62
     0
100
AcDbLine
 10
-0.5
 20
0.0
 30
0.0
 11
-1.0
 21
0.0
 31
0.0
  0
LINE
  5
7D
100
AcDbEntity
  8
0
  6
CONTINUOUS
 62
     0
100
AcDbLine
 10
-0.5
 20
0.5
 30
0.0
 11
0.5
 21
0.5
 31
0.0
  0
LINE
  5
7E
100
AcDbEntity
  8
0
  6
CONTINUOUS
 62
     0
100
AcDbLine
 10
0.5
 20
0.5
 30
0.0
 11
0.5
 21
-0.5
 31
0.0
  0
LINE
  5
7F
100
AcDbEntity
  8
0
  6
CONTINUOUS
 62
     0
100
AcDbLine
 10
0.5
 20
-0.5
 30
0.0
 11
-0.5
 21
-0.5
 31
0.0
  0
LINE
  5
80
100
AcDbEntity
  8
0
  6
CONTINUOUS
 62
     0
100
AcDbLine
 10
-0.5
 20
-0.5
 30
0.0
 11
-0.5
 21
0.5
 31
0.0
  0
ENDBLK
  5
81
100
AcDbEntity
  8
0
100
AcDbBlockEnd
  0
BLOCK
  5
82
100
AcDbEntity
  8
0
100
AcDbBlockBegin
  2
_EX_INTEGRAL
 70
     0
 10
0.0
 20
0.0
 30
0.0
  3
_EX_INTEGRAL
  1

  0
LINE
  5
83
100
AcDbEntity
  8
0
  6
CONTINUOUS
 62
     0
100
AcDbLine
 10
0.0
 20
0.0
 30
0.0
 11
-1.0
 21
0.0
 31
0.0
  0
ARC
  5
84
100
AcDbEntity
  8
0
  6
CONTINUOUS
 62
     0
100
AcDbCircle
 10
0.542115
 20
0.164992
 30
0.0
 40
0.56667
100
AcDbArc
 50
73.07249
 51
196.927513
  0
ARC
  5
85
100
AcDbEntity
  8
0
  6
CONTINUOUS
 62
     0
100
AcDbCircle
 10
-0.542115
 20
-0.164992
 30
0.0
 40
0.56667
100
AcDbArc
 50
253.072487
 51
16.927513
  0
ENDBLK
  5
86
100
AcDbEntity
  8
0
100
AcDbBlockEnd
  0
BLOCK
  5
87
100
AcDbEntity
  8
0
100
AcDbBlockBegin
  2
NC510LSK
 70
     0
 10
0.0
 20
0.0
 30
0.0
  3
NC510LSK
  1

  0
POINT
  5
88
100
AcDbEntity
  8
0
  6
CONTINUOUS
 62
     7
100
AcDbPoint
 10
0.0
 20
0.0
 30
0.0
  0
ENDBLK
  5
89
100
AcDbEntity
  8
0
100
AcDbBlockEnd
  0
ENDSEC
  0
SECTION
  2
ENTITIES
  0
LEADER
  5
8A
100
AcDbEntity
  8
_2
  6
CONTINUOUS
 62
     6
100
AcDbLeader
  3
STANDARD
 73
     3
 74
     1
 75
     0
 40
0.0
 76
     2
 10
1540.810394
 20
478.0
 30
0.0
 10
1494.861145
 20
398.413513
 30
0.0
 77
     6
1001
ACAD
1000
DSTYLE
1002
{
1070
    41
1040
35.0
1070
     5
1000
_EX_NORM
1070
     6
1000
_EX_NORM
1070
     7
1000
_EX_NORM
1070
   341
1005
2A
1002
}
  0
TEXT
  5
8B
100
AcDbEntity
  8
_2
  6
CONTINUOUS
 62
     2
100
AcDbText
 10
1019.5
 20
2376.323219
 30
0.0
 40
40.0
  1
^J１２０～１３０
 50
90.0
 41
0.559
  7
EXCADSTD
 72
     5
 11
1019.5
 21
2584.323216
 31
0.0
100
AcDbText
  0
TEXT
  5
8C
100
AcDbEntity
  8
_2
  6
CONTINUOUS
 62
     2
100
AcDbText
 10
1019.5
 20
2578.323216
 30
0.0
 40
40.0
  1
^J
 50
90.0
 41
0.0
  7
EXCADSTD
 72
     5
 11
1019.5
 21
2578.323216
 31
0.0
100
AcDbText
  0
LINE
  5
8D
100
AcDbEntity
  8
_2
  6
CONTINUOUS
 62
     3
100
AcDbLine
 10
1023.0
 20
2355.323217
 30
0.0
 11
1023.0
 21
2605.323217
 31
0.0
  0
LINE
  5
8E
100
AcDbEntity
  8
_2
  6
CONTINUOUS
 62
     3
100
AcDbLine
 10
1017.166667
 20
2390.323217
 30
0.0
 11
1023.0
 21
2355.323217
 31
0.0
  0
LINE
  5
8F
100
AcDbEntity
  8
_2
  6
CONTINUOUS
 62
     3
100
AcDbLine
 10
1023.0
 20
2355.323217
 30
0.0
 11
1028.833333
 21
2390.323217
 31
0.0
  0
LINE
  5
90
100
AcDbEntity
  8
_2
  6
CONTINUOUS
 62
     3
100
AcDbLine
 10
1028.833333
 20
2570.323217
 30
0.0
 11
1023.0
 21
2605.323217
 31
0.0
  0
LINE
  5
91
100
AcDbEntity
  8
_2
  6
CONTINUOUS
 62
     3
100
AcDbLine
 10
1023.0
 20
2605.323217
 30
0.0
 11
1017.166667
 21
2570.323217
 31
0.0
  0
TEXT
  5
92
100
AcDbEntity
  8
_2
  6
CONTINUOUS
 62
     2
100
AcDbText
 10
1079.5
 20
2435.823218
 30
0.0
 40
40.0
  1
^J１４０
 50
90.0
 41
0.6545
  7
EXCADSTD
 72
     5
 11
1079.5
 21
2554.823217
 31
0.0
100
AcDbText
  0
TEXT
  5
93
100
AcDbEntity
  8
_2
  6
CONTINUOUS
 62
     2
100
AcDbText
 10
1079.5
 20
2550.823217
 30
0.0
 40
40.0
  1
^J
 50
90.0
 41
0.0
  7
EXCADSTD
 72
     5
 11
1079.5
 21
2550.823217
 31
0.0
100
AcDbText
  0
LINE
  5
94
100
AcDbEntity
  8
_2
  6
CONTINUOUS
 62
     3
100
AcDbLine
 10
1083.0
 20
2355.323217
 30
0.0
 11
1083.0
 21
2635.323217
 31
0.0
  0
LINE
  5
95
100
AcDbEntity
  8
_2
  6
CONTINUOUS
 62
     3
100
AcDbLine
 10
1077.166667
 20
2390.323217
 30
0.0
 11
1083.0
 21
2355.323217
 31
0.0
  0
LINE
  5
96
100
AcDbEntity
  8
_2
  6
CONTINUOUS
 62
     3
100
AcDbLine
 10
1083.0
 20
2355.323217
 30
0.0
 11
1088.833333
 21
2390.323217
 31
0.0
  0
LINE
  5
97
100
AcDbEntity
  8
_2
  6
CONTINUOUS
 62
     3
100
AcDbLine
 10
1088.833333
 20
2600.323217
 30
0.0
 11
1083.0
 21
2635.323217
 31
0.0
  0
LINE
  5
98
100
AcDbEntity
  8
_2
  6
CONTINUOUS
 62
     3
100
AcDbLine
 10
1083.0
 20
2635.323217
 30
0.0
 11
1077.166667
 21
2600.323217
 31
0.0
  0
POLYLINE
  5
99
100
AcDbEntity
  8
_3
  6
CONTINUOUS
 62
     6
100
AcDb2dPolyline
 66
     1
 10
0.0
 20
0.0
 30
0.0
 70
   128
  0
VERTEX
  5
9A
100
AcDbEntity
  8
_3
  6
CONTINUOUS
 62
     6
100
AcDbVertex
100
AcDb2dVertex
 10
1754.37851
 20
1539.504761
 30
0.0
  0
VERTEX
  5
9B
100
AcDbEntity
  8
_3
  6
CONTINUOUS
 62
     6
100
AcDbVertex
100
AcDb2dVertex
 10
1782.31842
 20
1587.898163
 30
0.0
  0
SEQEND
  5
9C
100
AcDbEntity
  8
_3
  6
CONTINUOUS
 62
     6
  0
LINE
  5
9D
100
AcDbEntity
  8
_3
  6
CONTINUOUS
 62
     6
100
AcDbLine
 10
1766.826678
 20
1572.732323
 30
0.0
 11
1754.37851
 21
1539.504761
 31
0.0
  0
LINE
  5
9E
100
AcDbEntity
  8
_3
  6
CONTINUOUS
 62
     6
100
AcDbLine
 10
1754.37851
 20
1539.504761
 30
0.0
 11
1776.93031
 21
1566.898995
 31
0.0
  0
LINE
  5
9F
100
AcDbEntity
  8
LAY-4
  6
CONTINUOUS
 62
     3
100
AcDbLine
 10
664.810333
 20
1529.0
 30
0.0
 11
975.810547
 21
1529.0
 31
0.0
  0
LINE
  5
A0
100
AcDbEntity
  8
LAY-4
  6
CONTINUOUS
 62
     3
100
AcDbLine
 10
1750.810394
 20
494.0
 30
0.0
 11
1750.810394
 21
364.0
 31
0.0
  0
LINE
  5
A1
100
AcDbEntity
  8
LAY-4
  6
CONTINUOUS
 62
     3
100
AcDbLine
 10
1570.810394
 20
427.860609
 30
0.0
 11
1570.810394
 21
364.0
 31
0.0
  0
LINE
  5
A2
100
AcDbEntity
  8
LAY-4
  6
CONTINUOUS
 62
     3
100
AcDbLine
 10
885.810547
 20
504.0
 30
0.0
 11
885.810547
 21
1354.0
 31
0.0
  0
LINE
  5
A3
100
AcDbEntity
  8
LAY-4
  6
CONTINUOUS
 62
     3
100
AcDbLine
 10
879.977214
 20
539.0
 30
0.0
 11
885.810547
 21
504.0
 31
0.0
  0
LINE
  5
A4
100
AcDbEntity
  8
LAY-4
  6
CONTINUOUS
 62
     3
100
AcDbLine
 10
885.810547
 20
504.0
 30
0.0
 11
891.64388
 21
539.0
 31
0.0
  0
LINE
  5
A5
100
AcDbEntity
  8
LAY-4
  6
CONTINUOUS
 62
     3
100
AcDbLine
 10
891.64388
 20
1319.0
 30
0.0
 11
885.810547
 21
1354.0
 31
0.0
  0
LINE
  5
A6
100
AcDbEntity
  8
LAY-4
  6
CONTINUOUS
 62
     3
100
AcDbLine
 10
885.810547
 20
1354.0
 30
0.0
 11
879.977214
 21
1319.0
 31
0.0
  0
TEXT
  5
A7
100
AcDbEntity
  8
LAY-4
  6
CONTINUOUS
 62
     2
100
AcDbText
 10
882.310547
 20
869.5
 30
0.0
 40
40.0
  1
８５０
 50
90.0
 41
0.833
  7
EXCADSTD
 72
     5
 11
882.310547
 21
988.5
 31
0.0
100
AcDbText
  0
LINE
  5
A8
100
AcDbEntity
  8
LAY-4
  6
CONTINUOUS
 62
     3
100
AcDbLine
 10
885.810547
 20
1354.0
 30
0.0
 11
885.810547
 21
1529.0
 31
0.0
  0
LINE
  5
A9
100
AcDbEntity
  8
LAY-4
  6
CONTINUOUS
 62
     3
100
AcDbLine
 10
879.977214
 20
1389.0
 30
0.0
 11
885.810547
 21
1354.0
 31
0.0
  0
LINE
  5
AA
100
AcDbEntity
  8
LAY-4
  6
CONTINUOUS
 62
     3
100
AcDbLine
 10
885.810547
 20
1354.0
 30
0.0
 11
891.64388
 21
1389.0
 31
0.0
  0
LINE
  5
AB
100
AcDbEntity
  8
LAY-4
  6
CONTINUOUS
 62
     3
100
AcDbLine
 10
891.64388
 20
1494.0
 30
0.0
 11
885.810547
 21
1529.0
 31
0.0
  0
LINE
  5
AC
100
AcDbEntity
  8
LAY-4
  6
CONTINUOUS
 62
     3
100
AcDbLine
 10
885.810547
 20
1529.0
 30
0.0
 11
879.977214
 21
1494.0
 31
0.0
  0
TEXT
  5
AD
100
AcDbEntity
  8
LAY-4
  6
CONTINUOUS
 62
     2
100
AcDbText
 10
882.310547
 20
1382.0
 30
0.0
 40
40.0
  1
１７５
 50
90.0
 41
0.833
  7
EXCADSTD
 72
     5
 11
882.310547
 21
1501.0
 31
0.0
100
AcDbText
  0
LINE
  5
AE
100
AcDbEntity
  8
LAY-4
  6
CONTINUOUS
 62
     3
100
AcDbLine
 10
955.810547
 20
504.0
 30
0.0
 11
955.810547
 21
1529.0
 31
0.0
  0
LINE
  5
AF
100
AcDbEntity
  8
LAY-4
  6
CONTINUOUS
 62
     3
100
AcDbLine
 10
949.977214
 20
539.0
 30
0.0
 11
955.810547
 21
504.0
 31
0.0
  0
LINE
  5
B0
100
AcDbEntity
  8
LAY-4
  6
CONTINUOUS
 62
     3
100
AcDbLine
 10
955.810547
 20
504.0
 30
0.0
 11
961.64388
 21
539.0
 31
0.0
  0
LINE
  5
B1
100
AcDbEntity
  8
LAY-4
  6
CONTINUOUS
 62
     3
100
AcDbLine
 10
961.64388
 20
1494.0
 30
0.0
 11
955.810547
 21
1529.0
 31
0.0
  0
LINE
  5
B2
100
AcDbEntity
  8
LAY-4
  6
CONTINUOUS
 62
     3
100
AcDbLine
 10
955.810547
 20
1529.0
 30
0.0
 11
949.977214
 21
1494.0
 31
0.0
  0
TEXT
  5
B3
100
AcDbEntity
  8
LAY-4
  6
CONTINUOUS
 62
     2
100
AcDbText
 10
952.310547
 20
938.5
 30
0.0
 40
40.0
  1
１０２５
 50
90.0
 41
0.819
  7
EXCADSTD
 72
     5
 11
952.310547
 21
1094.5
 31
0.0
100
AcDbText
  0
LINE
  5
B4
100
AcDbEntity
  8
LAY-4
  6
CONTINUOUS
 62
     3
100
AcDbLine
 10
1570.810394
 20
384.0
 30
0.0
 11
1750.810394
 21
384.0
 31
0.0
  0
LINE
  5
B5
100
AcDbEntity
  8
LAY-4
  6
CONTINUOUS
 62
     3
100
AcDbLine
 10
1605.810394
 20
389.833333
 30
0.0
 11
1570.810394
 21
384.0
 31
0.0
  0
LINE
  5
B6
100
AcDbEntity
  8
LAY-4
  6
CONTINUOUS
 62
     3
100
AcDbLine
 10
1570.810394
 20
384.0
 30
0.0
 11
1605.810394
 21
378.166667
 31
0.0
  0
LINE
  5
B7
100
AcDbEntity
  8
LAY-4
  6
CONTINUOUS
 62
     3
100
AcDbLine
 10
1715.810394
 20
378.166667
 30
0.0
 11
1750.810394
 21
384.0
 31
0.0
  0
LINE
  5
B8
100
AcDbEntity
  8
LAY-4
  6
CONTINUOUS
 62
     3
100
AcDbLine
 10
1750.810394
 20
384.0
 30
0.0
 11
1715.810394
 21
389.833333
 31
0.0
  0
TEXT
  5
B9
100
AcDbEntity
  8
LAY-4
  6
CONTINUOUS
 62
     2
100
AcDbText
 10
1601.310394
 20
387.5
 30
0.0
 40
40.0
  1
１８０
 41
0.833
  7
EXCADSTD
 72
     5
 11
1720.310394
 21
387.5
 31
0.0
100
AcDbText
  0
LINE
  5
BA
100
AcDbEntity
  8
_
  6
EXLTYPE2
 62
     7
100
AcDbLine
 10
170.0
 20
1485.0
 30
0.0
 11
-20.0
 21
1485.0
 31
0.0
  0
LINE
  5
BB
100
AcDbEntity
  8
_
  6
CONTINUOUS
 62
     7
100
AcDbLine
 10
180.0
 20
85.0
 30
0.0
 11
2000.0
 21
85.0
 31
0.0
  0
LINE
  5
BC
100
AcDbEntity
  8
_
  6
CONTINUOUS
 62
     7
100
AcDbLine
 10
2000.0
 20
85.0
 30
0.0
 11
2000.0
 21
2885.0
 31
0.0
  0
LINE
  5
BD
100
AcDbEntity
  8
_
  6
CONTINUOUS
 62
     7
100
AcDbLine
 10
180.0
 20
85.0
 30
0.0
 11
180.0
 21
2885.0
 31
0.0
  0
LINE
  5
BE
100
AcDbEntity
  8
_
  6
CONTINUOUS
 62
     7
100
AcDbLine
 10
180.0
 20
2885.0
 30
0.0
 11
2000.0
 21
2885.0
 31
0.0
  0
LINE
  5
BF
100
AcDbEntity
  8
_
  6
CONTINUOUS
 62
     7
100
AcDbLine
 10
180.0
 20
305.0
 30
0.0
 11
2000.0
 21
305.0
 31
0.0
  0
LINE
  5
C0
100
AcDbEntity
  8
_
  6
CONTINUOUS
 62
     6
100
AcDbLine
 10
2000.0
 20
185.0
 30
0.0
 11
750.0
 21
185.0
 31
0.0
  0
LINE
  5
C1
100
AcDbEntity
  8
_
  6
CONTINUOUS
 62
     6
100
AcDbLine
 10
1860.0
 20
305.0
 30
0.0
 11
1860.0
 21
185.0
 31
0.0
  0
LINE
  5
C2
100
AcDbEntity
  8
_
  6
CONTINUOUS
 62
     6
100
AcDbLine
 10
1810.0
 20
305.0
 30
0.0
 11
1810.0
 21
185.0
 31
0.0
  0
LINE
  5
C3
100
AcDbEntity
  8
_
  6
CONTINUOUS
 62
     6
100
AcDbLine
 10
1440.0
 20
305.0
 30
0.0
 11
1440.0
 21
85.0
 31
0.0
  0
LINE
  5
C4
100
AcDbEntity
  8
_
  6
CONTINUOUS
 62
     6
100
AcDbLine
 10
1390.0
 20
305.0
 30
0.0
 11
1390.0
 21
85.0
 31
0.0
  0
LINE
  5
C5
100
AcDbEntity
  8
_
  6
CONTINUOUS
 62
     6
100
AcDbLine
 10
800.0
 20
305.0
 30
0.0
 11
800.0
 21
185.0
 31
0.0
  0
LINE
  5
C6
100
AcDbEntity
  8
_
  6
CONTINUOUS
 62
     6
100
AcDbLine
 10
750.0
 20
305.0
 30
0.0
 11
750.0
 21
85.0
 31
0.0
  0
LINE
  5
C7
100
AcDbEntity
  8
_
  6
CONTINUOUS
 62
     6
100
AcDbLine
 10
620.0
 20
305.0
 30
0.0
 11
620.0
 21
85.0
 31
0.0
  0
LINE
  5
C8
100
AcDbEntity
  8
_
  6
CONTINUOUS
 62
     6
100
AcDbLine
 10
490.0
 20
305.0
 30
0.0
 11
490.0
 21
85.0
 31
0.0
  0
LINE
  5
C9
100
AcDbEntity
  8
_
  6
CONTINUOUS
 62
     6
100
AcDbLine
 10
335.0
 20
305.0
 30
0.0
 11
335.0
 21
85.0
 31
0.0
  0
LINE
  5
CA
100
AcDbEntity
  8
_
  6
CONTINUOUS
 62
     6
100
AcDbLine
 10
180.0
 20
255.0
 30
0.0
 11
750.0
 21
255.0
 31
0.0
  0
LINE
  5
CB
100
AcDbEntity
  8
_
  6
CONTINUOUS
 62
     6
100
AcDbLine
 10
1892.653809
 20
208.00293
 30
0.0
 11
1969.993897
 21
286.699829
 31
0.0
  0
LINE
  5
CC
100
AcDbEntity
  8
_
  6
EXLTYPE2
 62
     6
100
AcDbLine
 10
180.0
 20
135.0
 30
0.0
 11
490.0
 21
135.0
 31
0.0
  0
CIRCLE
  5
CD
100
AcDbEntity
  8
_
  6
CONTINUOUS
 62
     6
100
AcDbCircle
 10
230.0
 20
110.0
 30
0.0
 40
1.0
  0
CIRCLE
  5
CE
100
AcDbEntity
  8
_
  6
CONTINUOUS
 62
     6
100
AcDbCircle
 10
280.0
 20
110.0
 30
0.0
 40
1.0
  0
CIRCLE
  5
CF
100
AcDbEntity
  8
_
  6
CONTINUOUS
 62
     6
100
AcDbCircle
 10
385.0
 20
110.0
 30
0.0
 40
1.0
  0
CIRCLE
  5
D0
100
AcDbEntity
  8
_
  6
CONTINUOUS
 62
     6
100
AcDbCircle
 10
435.0
 20
110.0
 30
0.0
 40
1.0
  0
LINE
  5
D1
100
AcDbEntity
  8
_
  6
EXLTYPE2
 62
     7
100
AcDbLine
 10
170.0
 20
1485.0
 30
0.0
 11
-20.0
 21
1485.0
 31
0.0
  0
LINE
  5
D2
100
AcDbEntity
  8
_
  6
CONTINUOUS
 62
     7
100
AcDbLine
 10
-20.0
 20
0.0
 30
0.0
 11
30.0
 21
0.0
 31
0.0
  0
LINE
  5
D3
100
AcDbEntity
  8
_
  6
CONTINUOUS
 62
     7
100
AcDbLine
 10
-20.0
 20
0.0
 30
0.0
 11
-20.0
 21
50.0
 31
0.0
  0
LINE
  5
D4
100
AcDbEntity
  8
_
  6
CONTINUOUS
 62
     7
100
AcDbLine
 10
2080.0
 20
0.0
 30
0.0
 11
2030.0
 21
0.0
 31
0.0
  0
LINE
  5
D5
100
AcDbEntity
  8
_
  6
CONTINUOUS
 62
     7
100
AcDbLine
 10
2080.0
 20
0.0
 30
0.0
 11
2080.0
 21
50.0
 31
0.0
  0
LINE
  5
D6
100
AcDbEntity
  8
_
  6
CONTINUOUS
 62
     7
100
AcDbLine
 10
2080.0
 20
2970.0
 30
0.0
 11
2030.0
 21
2970.0
 31
0.0
  0
LINE
  5
D7
100
AcDbEntity
  8
_
  6
CONTINUOUS
 62
     7
100
AcDbLine
 10
2080.0
 20
2970.0
 30
0.0
 11
2080.0
 21
2920.0
 31
0.0
  0
LINE
  5
D8
100
AcDbEntity
  8
_
  6
CONTINUOUS
 62
     7
100
AcDbLine
 10
-20.0
 20
2970.0
 30
0.0
 11
30.0
 21
2970.0
 31
0.0
  0
LINE
  5
D9
100
AcDbEntity
  8
_
  6
CONTINUOUS
 62
     7
100
AcDbLine
 10
-20.0
 20
2970.0
 30
0.0
 11
-20.0
 21
2920.0
 31
0.0
  0
TEXT
  5
DA
100
AcDbEntity
  8
_
  6
CONTINUOUS
 62
     2
100
AcDbText
 10
1890.537109
 20
252.722778
 30
0.0
 40
30.0
  1
１
 41
0.826
  7
EXCADSTD
 72
     5
 11
1914.13711
 21
252.722778
 31
0.0
100
AcDbText
  0
TEXT
  5
DB
100
AcDbEntity
  8
_
  6
CONTINUOUS
 62
     2
100
AcDbText
 10
1931.279297
 20
208.348846
 30
0.0
 40
30.0
  1
１０
 41
0.791
  7
EXCADSTD
 72
     5
 11
1983.067198
 21
208.348846
 31
0.0
100
AcDbText
  0
TEXT
  5
DC
100
AcDbEntity
  8
_
  6
CONTINUOUS
 62
     2
100
AcDbText
 10
202.5
 20
258.75
 30
0.0
 40
42.5
  1
製図
 41
1.087059
  7
EXCADSTD
 72
     5
 11
303.326
 21
258.75
 31
0.0
100
AcDbText
  0
TEXT
  5
DD
100
AcDbEntity
  8
_
  6
CONTINUOUS
 62
     2
100
AcDbText
 10
357.5
 20
258.75
 30
0.0
 40
42.5
  1
写図
 41
1.087059
  7
EXCADSTD
 72
     5
 11
458.326
 21
258.75
 31
0.0
100
AcDbText
  0
TEXT
  5
DE
100
AcDbEntity
  8
_
  6
CONTINUOUS
 62
     2
100
AcDbText
 10
507.5
 20
258.75
 30
0.0
 40
42.5
  1
検図
 41
0.938824
  7
EXCADSTD
 72
     5
 11
594.577
 21
258.75
 31
0.0
100
AcDbText
  0
TEXT
  5
DF
100
AcDbEntity
  8
_
  6
CONTINUOUS
 62
     2
100
AcDbText
 10
637.5
 20
258.75
 30
0.0
 40
42.5
  1
承認
 41
0.938824
  7
EXCADSTD
 72
     5
 11
724.577
 21
258.75
 31
0.0
100
AcDbText
  0
TEXT
  5
E0
100
AcDbEntity
  8
_
  6
CONTINUOUS
 62
     2
100
AcDbText
 10
753.75
 20
248.75
 30
0.0
 40
42.5
  1
品
 41
0.84
  7
EXCADSTD
 72
     5
 11
787.75
 21
248.75
 31
0.0
100
AcDbText
  0
TEXT
  5
E1
100
AcDbEntity
  8
_
  6
CONTINUOUS
 62
     2
100
AcDbText
 10
753.75
 20
198.75
 30
0.0
 40
42.5
  1
名
 41
0.84
  7
EXCADSTD
 72
     5
 11
787.75
 21
198.75
 31
0.0
100
AcDbText
  0
TEXT
  5
E2
100
AcDbEntity
  8
_
  6
CONTINUOUS
 62
     2
100
AcDbText
 10
1393.75
 20
248.75
 30
0.0
 40
42.5
  1
品
 41
0.84
  7
EXCADSTD
 72
     5
 11
1427.75
 21
248.75
 31
0.0
100
AcDbText
  0
TEXT
  5
E3
100
AcDbEntity
  8
_
  6
CONTINUOUS
 62
     2
100
AcDbText
 10
1393.75
 20
198.75
 30
0.0
 40
42.5
  1
番
 41
0.84
  7
EXCADSTD
 72
     5
 11
1427.75
 21
198.75
 31
0.0
100
AcDbText
  0
TEXT
  5
E4
100
AcDbEntity
  8
_
  6
CONTINUOUS
 62
     2
100
AcDbText
 10
1813.75
 20
248.75
 30
0.0
 40
42.5
  1
尺
 41
0.84
  7
EXCADSTD
 72
     5
 11
1847.75
 21
248.75
 31
0.0
100
AcDbText
  0
TEXT
  5
E5
100
AcDbEntity
  8
_
  6
CONTINUOUS
 62
     2
100
AcDbText
 10
1813.75
 20
198.75
 30
0.0
 40
42.5
  1
度
 41
0.84
  7
EXCADSTD
 72
     5
 11
1847.75
 21
198.75
 31
0.0
100
AcDbText
  0
TEXT
  5
E6
100
AcDbEntity
  8
_
  6
CONTINUOUS
 62
     2
100
AcDbText
 10
1393.75
 20
135.75
 30
0.0
 40
42.5
  1
図
 41
0.84
  7
EXCADSTD
 72
     5
 11
1427.75
 21
135.75
 31
0.0
100
AcDbText
  0
TEXT
  5
E7
100
AcDbEntity
  8
_
  6
CONTINUOUS
 62
     2
100
AcDbText
 10
1393.75
 20
92.75
 30
0.0
 40
42.5
  1
番
 41
0.84
  7
EXCADSTD
 72
     5
 11
1427.75
 21
92.75
 31
0.0
100
AcDbText
  0
LINE
  5
E8
100
AcDbEntity
  8
_
  6
CONTINUOUS
 62
     3
100
AcDbLine
 10
827.447754
 20
150.287994
 30
0.0
 11
819.384094
 21
150.287994
 31
0.0
  0
LINE
  5
E9
100
AcDbEntity
  8
_
  6
CONTINUOUS
 62
     3
100
AcDbLine
 10
827.447754
 20
158.351959
 30
0.0
 11
827.447754
 21
150.287994
 31
0.0
  0
LINE
  5
EA
100
AcDbEntity
  8
_
  6
CONTINUOUS
 62
     3
100
AcDbLine
 10
819.384094
 20
158.351959
 30
0.0
 11
827.447754
 21
158.351959
 31
0.0
  0
LINE
  5
EB
100
AcDbEntity
  8
_
  6
CONTINUOUS
 62
     3
100
AcDbLine
 10
819.384094
 20
158.351959
 30
0.0
 11
819.384094
 21
150.287994
 31
0.0
  0
LINE
  5
EC
100
AcDbEntity
  8
_
  6
CONTINUOUS
 62
     3
100
AcDbLine
 10
816.359192
 20
150.287994
 30
0.0
 11
808.295532
 21
150.287994
 31
0.0
  0
LINE
  5
ED
100
AcDbEntity
  8
_
  6
CONTINUOUS
 62
     3
100
AcDbLine
 10
816.359192
 20
158.351959
 30
0.0
 11
816.359192
 21
150.287994
 31
0.0
  0
LINE
  5
EE
100
AcDbEntity
  8
_
  6
CONTINUOUS
 62
     3
100
AcDbLine
 10
808.295532
 20
158.351959
 30
0.0
 11
816.359192
 21
158.351959
 31
0.0
  0
LINE
  5
EF
100
AcDbEntity
  8
_
  6
CONTINUOUS
 62
     3
100
AcDbLine
 10
808.295532
 20
158.351959
 30
0.0
 11
808.295532
 21
150.287994
 31
0.0
  0
LINE
  5
F0
100
AcDbEntity
  8
_
  6
CONTINUOUS
 62
     3
100
AcDbLine
 10
799.887329
 20
114.0
 30
0.0
 11
771.0
 21
114.0
 31
0.0
  0
ARC
  5
F1
100
AcDbEntity
  8
_
  6
CONTINUOUS
 62
     3
100
AcDbCircle
 10
799.887329
 20
132.144073
 30
0.0
 40
18.143997
100
AcDbArc
 50
270.000031
 51
334.000137
  0
LINE
  5
F2
100
AcDbEntity
  8
_
  6
CONTINUOUS
 62
     3
100
AcDbLine
 10
827.447754
 20
147.264008
 30
0.0
 11
816.193024
 21
124.190125
 31
0.0
  0
LINE
  5
F3
100
AcDbEntity
  8
_
  6
CONTINUOUS
 62
     3
100
AcDbLine
 10
815.112244
 20
147.264008
 30
0.0
 11
827.447754
 21
147.264008
 31
0.0
  0
LINE
  5
F4
100
AcDbEntity
  8
_
  6
CONTINUOUS
 62
     3
100
AcDbLine
 10
806.01297
 20
128.60907
 30
0.0
 11
815.112244
 21
147.264008
 31
0.0
  0
ARC
  5
F5
100
AcDbEntity
  8
_
  6
CONTINUOUS
 62
     3
100
AcDbCircle
 10
798.765503
 20
132.144073
 30
0.0
 40
8.064
100
AcDbArc
 50
270.000031
 51
333.99855
  0
LINE
  5
F6
100
AcDbEntity
  8
_
  6
CONTINUOUS
 62
     3
100
AcDbLine
 10
771.0
 20
124.079956
 30
0.0
 11
798.765503
 21
124.079956
 31
0.0
  0
LINE
  5
F7
100
AcDbEntity
  8
_
  6
CONTINUOUS
 62
     3
100
AcDbLine
 10
771.0
 20
124.079956
 30
0.0
 11
771.0
 21
114.0
 31
0.0
  0
LINE
  5
F8
100
AcDbEntity
  8
_
  6
CONTINUOUS
 62
     3
100
AcDbLine
 10
799.224945
 20
137.183899
 30
0.0
 11
771.0
 21
137.183899
 31
0.0
  0
LINE
  5
F9
100
AcDbEntity
  8
_
  6
CONTINUOUS
 62
     3
100
AcDbLine
 10
799.224945
 20
146.256012
 30
0.0
 11
799.224945
 21
137.183899
 31
0.0
  0
LINE
  5
FA
100
AcDbEntity
  8
_
  6
CONTINUOUS
 62
     3
100
AcDbLine
 10
771.0
 20
146.256012
 30
0.0
 11
799.224945
 21
146.256012
 31
0.0
  0
LINE
  5
FB
100
AcDbEntity
  8
_
  6
CONTINUOUS
 62
     3
100
AcDbLine
 10
771.0
 20
146.256012
 30
0.0
 11
771.0
 21
137.183899
 31
0.0
  0
LINE
  5
FC
100
AcDbEntity
  8
_
  6
CONTINUOUS
 62
     3
100
AcDbLine
 10
799.224945
 20
149.279999
 30
0.0
 11
771.0
 21
149.279999
 31
0.0
  0
LINE
  5
FD
100
AcDbEntity
  8
_
  6
CONTINUOUS
 62
     3
100
AcDbLine
 10
799.224945
 20
158.351959
 30
0.0
 11
799.224945
 21
149.279999
 31
0.0
  0
LINE
  5
FE
100
AcDbEntity
  8
_
  6
CONTINUOUS
 62
     3
100
AcDbLine
 10
771.0
 20
158.351959
 30
0.0
 11
799.224945
 21
158.351959
 31
0.0
  0
LINE
  5
FF
100
AcDbEntity
  8
_
  6
CONTINUOUS
 62
     3
100
AcDbLine
 10
771.0
 20
158.351959
 30
0.0
 11
771.0
 21
149.279999
 31
0.0
  0
LINE
  5
100
100
AcDbEntity
  8
_
  6
CONTINUOUS
 62
     3
100
AcDbLine
 10
830.472656
 20
147.264008
 30
0.0
 11
830.472656
 21
140.207886
 31
0.0
  0
LINE
  5
101
100
AcDbEntity
  8
_
  6
CONTINUOUS
 62
     3
100
AcDbLine
 10
830.472656
 20
147.264008
 30
0.0
 11
839.654022
 21
147.264008
 31
0.0
  0
LINE
  5
102
100
AcDbEntity
  8
_
  6
CONTINUOUS
 62
     3
100
AcDbLine
 10
838.536316
 20
154.319977
 30
0.0
 11
839.654022
 21
147.264008
 31
0.0
  0
LINE
  5
103
100
AcDbEntity
  8
_
  6
CONTINUOUS
 62
     3
100
AcDbLine
 10
838.536316
 20
154.319977
 30
0.0
 11
849.76236
 21
154.319977
 31
0.0
  0
LINE
  5
104
100
AcDbEntity
  8
_
  6
CONTINUOUS
 62
     3
100
AcDbLine
 10
849.76236
 20
154.319977
 30
0.0
 11
850.879913
 21
147.264008
 31
0.0
  0
LINE
  5
105
100
AcDbEntity
  8
_
  6
CONTINUOUS
 62
     3
100
AcDbLine
 10
850.879913
 20
147.264008
 30
0.0
 11
878.856751
 21
147.264008
 31
0.0
  0
LINE
  5
106
100
AcDbEntity
  8
_
  6
CONTINUOUS
 62
     3
100
AcDbLine
 10
878.856751
 20
147.264008
 30
0.0
 11
872.973114
 21
134.050507
 31
0.0
  0
ARC
  5
107
100
AcDbEntity
  8
_
  6
CONTINUOUS
 62
     3
100
AcDbCircle
 10
859.161011
 20
140.200409
 30
0.0
 40
15.120106
100
AcDbArc
 50
263.465775
 51
335.998779
  0
LINE
  5
108
100
AcDbEntity
  8
_
  6
CONTINUOUS
 62
     3
100
AcDbLine
 10
857.438446
 20
125.178589
 30
0.0
 11
856.337067
 21
132.144073
 31
0.0
  0
ARC
  5
109
100
AcDbEntity
  8
_
  6
CONTINUOUS
 62
     3
100
AcDbCircle
 10
856.058136
 20
138.192047
 30
0.0
 40
6.048006
100
AcDbArc
 50
272.623749
 51
336.006531
  0
LINE
  5
10A
100
AcDbEntity
  8
_
  6
CONTINUOUS
 62
     3
100
AcDbLine
 10
861.585022
 20
135.732025
 30
0.0
 11
863.576294
 21
140.207886
 31
0.0
  0
LINE
  5
10B
100
AcDbEntity
  8
_
  6
CONTINUOUS
 62
     3
100
AcDbLine
 10
863.576294
 20
140.207886
 30
0.0
 11
851.99762
 21
140.207886
 31
0.0
  0
LINE
  5
10C
100
AcDbEntity
  8
_
  6
CONTINUOUS
 62
     3
100
AcDbLine
 10
851.99762
 20
140.207886
 30
0.0
 11
856.148468
 21
114.0
 31
0.0
  0
LINE
  5
10D
100
AcDbEntity
  8
_
  6
CONTINUOUS
 62
     3
100
AcDbLine
 10
856.148468
 20
114.0
 30
0.0
 11
844.922424
 21
114.0
 31
0.0
  0
LINE
  5
10E
100
AcDbEntity
  8
_
  6
CONTINUOUS
 62
     2
100
AcDbLine
 10
844.922424
 20
114.0
 30
0.0
 11
840.771729
 21
140.207886
 31
0.0
  0
LINE
  5
10F
100
AcDbEntity
  8
_
  6
CONTINUOUS
 62
     2
100
AcDbLine
 10
840.771729
 20
140.207886
 30
0.0
 11
830.472656
 21
140.207886
 31
0.0
  0
LINE
  5
110
100
AcDbEntity
  8
_
  6
CONTINUOUS
 62
     3
100
AcDbLine
 10
877.847687
 20
114.0
 30
0.0
 11
877.847687
 21
124.079956
 31
0.0
  0
LINE
  5
111
100
AcDbEntity
  8
_
  6
CONTINUOUS
 62
     3
100
AcDbLine
 10
877.847687
 20
124.079956
 30
0.0
 11
934.295441
 21
124.079956
 31
0.0
  0
LINE
  5
112
100
AcDbEntity
  8
_
  6
CONTINUOUS
 62
     3
100
AcDbLine
 10
934.295441
 20
124.079956
 30
0.0
 11
934.295441
 21
114.0
 31
0.0
  0
LINE
  5
113
100
AcDbEntity
  8
_
  6
CONTINUOUS
 62
     3
100
AcDbLine
 10
934.295441
 20
114.0
 30
0.0
 11
877.847687
 21
114.0
 31
0.0
  0
LINE
  5
114
100
AcDbEntity
  8
_
  6
CONTINUOUS
 62
     3
100
AcDbLine
 10
881.879517
 20
158.351959
 30
0.0
 11
881.879517
 21
148.272003
 31
0.0
  0
LINE
  5
115
100
AcDbEntity
  8
_
  6
CONTINUOUS
 62
     3
100
AcDbLine
 10
881.879517
 20
158.351959
 30
0.0
 11
930.263611
 21
158.351959
 31
0.0
  0
LINE
  5
116
100
AcDbEntity
  8
_
  6
CONTINUOUS
 62
     3
100
AcDbLine
 10
930.263611
 20
158.351959
 30
0.0
 11
930.263611
 21
148.272003
 31
0.0
  0
LINE
  5
117
100
AcDbEntity
  8
_
  6
CONTINUOUS
 62
     3
100
AcDbLine
 10
930.263611
 20
148.272003
 30
0.0
 11
881.879517
 21
148.272003
 31
0.0
  0
LINE
  5
118
100
AcDbEntity
  8
_
  6
CONTINUOUS
 62
     3
100
AcDbLine
 10
941.352173
 20
158.351959
 30
0.0
 11
941.352173
 21
148.272003
 31
0.0
  0
LINE
  5
119
100
AcDbEntity
  8
_
  6
CONTINUOUS
 62
     3
100
AcDbLine
 10
941.352173
 20
158.351959
 30
0.0
 11
993.768097
 21
158.351959
 31
0.0
  0
LINE
  5
11A
100
AcDbEntity
  8
_
  6
CONTINUOUS
 62
     3
100
AcDbLine
 10
993.768097
 20
158.351959
 30
0.0
 11
978.050934
 21
136.718964
 31
0.0
  0
LINE
  5
11B
100
AcDbEntity
  8
_
  6
CONTINUOUS
 62
     3
100
AcDbLine
 10
978.050934
 20
136.718964
 30
0.0
 11
997.799927
 21
114.0
 31
0.0
  0
LINE
  5
11C
100
AcDbEntity
  8
_
  6
CONTINUOUS
 62
     3
100
AcDbLine
 10
997.799927
 20
114.0
 30
0.0
 11
983.108154
 21
114.0
 31
0.0
  0
LINE
  5
11D
100
AcDbEntity
  8
_
  6
CONTINUOUS
 62
     3
100
AcDbLine
 10
983.108154
 20
114.0
 30
0.0
 11
971.361328
 21
127.512726
 31
0.0
  0
LINE
  5
11E
100
AcDbEntity
  8
_
  6
CONTINUOUS
 62
     3
100
AcDbLine
 10
971.361328
 20
127.512726
 30
0.0
 11
966.978851
 21
121.479248
 31
0.0
  0
ARC
  5
11F
100
AcDbEntity
  8
_
  6
CONTINUOUS
 62
     3
100
AcDbCircle
 10
952.299286
 20
132.144073
 30
0.0
 40
18.143997
100
AcDbArc
 50
270.000031
 51
324.00116
  0
LINE
  5
120
100
AcDbEntity
  8
_
  6
CONTINUOUS
 62
     3
100
AcDbLine
 10
952.299286
 20
114.0
 30
0.0
 11
937.320343
 21
114.0
 31
0.0
  0
LINE
  5
121
100
AcDbEntity
  8
_
  6
CONTINUOUS
 62
     3
100
AcDbLine
 10
937.320343
 20
114.0
 30
0.0
 11
937.320343
 21
124.079956
 31
0.0
  0
LINE
  5
122
100
AcDbEntity
  8
_
  6
CONTINUOUS
 62
     3
100
AcDbLine
 10
937.320343
 20
124.079956
 30
0.0
 11
950.0271
 21
124.079956
 31
0.0
  0
ARC
  5
123
100
AcDbEntity
  8
_
  6
CONTINUOUS
 62
     3
100
AcDbCircle
 10
950.0271
 20
134.159912
 30
0.0
 40
10.079994
100
AcDbArc
 50
270.000031
 51
323.996597
  0
LINE
  5
124
100
AcDbEntity
  8
_
  6
CONTINUOUS
 62
     3
100
AcDbLine
 10
958.180939
 20
128.235077
 30
0.0
 11
972.739502
 21
148.272003
 31
0.0
  0
LINE
  5
125
100
AcDbEntity
  8
_
  6
CONTINUOUS
 62
     3
100
AcDbLine
 10
972.739502
 20
148.272003
 30
0.0
 11
941.352173
 21
148.272003
 31
0.0
  0
LINE
  5
126
100
AcDbEntity
  8
_
  6
CONTINUOUS
 62
     3
100
AcDbLine
 10
1009.895569
 20
158.351959
 30
0.0
 11
1009.895569
 21
151.29599
 31
0.0
  0
LINE
  5
127
100
AcDbEntity
  8
_
  6
CONTINUOUS
 62
     3
100
AcDbLine
 10
1009.895569
 20
158.351959
 30
0.0
 11
1062.31134
 21
158.351959
 31
0.0
  0
LINE
  5
128
100
AcDbEntity
  8
_
  6
CONTINUOUS
 62
     3
100
AcDbLine
 10
1062.31134
 20
158.351959
 30
0.0
 11
1062.31134
 21
151.29599
 31
0.0
  0
LINE
  5
129
100
AcDbEntity
  8
_
  6
CONTINUOUS
 62
     3
100
AcDbLine
 10
1062.31134
 20
151.29599
 30
0.0
 11
1041.647736
 21
151.29599
 31
0.0
  0
LINE
  5
12A
100
AcDbEntity
  8
_
  6
CONTINUOUS
 62
     3
100
AcDbLine
 10
1041.647736
 20
151.29599
 30
0.0
 11
1041.647736
 21
122.064117
 31
0.0
  0
LINE
  5
12B
100
AcDbEntity
  8
_
  6
CONTINUOUS
 62
     3
100
AcDbLine
 10
1041.647736
 20
122.064117
 30
0.0
 11
1064.327332
 21
122.064117
 31
0.0
  0
LINE
  5
12C
100
AcDbEntity
  8
_
  6
CONTINUOUS
 62
     3
100
AcDbLine
 10
1064.327332
 20
122.064117
 30
0.0
 11
1064.327332
 21
114.0
 31
0.0
  0
LINE
  5
12D
100
AcDbEntity
  8
_
  6
CONTINUOUS
 62
     3
100
AcDbLine
 10
1064.327332
 20
114.0
 30
0.0
 11
1007.879578
 21
114.0
 31
0.0
  0
LINE
  5
12E
100
AcDbEntity
  8
_
  6
CONTINUOUS
 62
     3
100
AcDbLine
 10
1007.879578
 20
114.0
 30
0.0
 11
1007.879578
 21
122.064117
 31
0.0
  0
LINE
  5
12F
100
AcDbEntity
  8
_
  6
CONTINUOUS
 62
     3
100
AcDbLine
 10
1007.879578
 20
122.064117
 30
0.0
 11
1030.559174
 21
122.064117
 31
0.0
  0
LINE
  5
130
100
AcDbEntity
  8
_
  6
CONTINUOUS
 62
     3
100
AcDbLine
 10
1030.559174
 20
122.064117
 30
0.0
 11
1030.559174
 21
151.29599
 31
0.0
  0
LINE
  5
131
100
AcDbEntity
  8
_
  6
CONTINUOUS
 62
     3
100
AcDbLine
 10
1030.559174
 20
151.29599
 30
0.0
 11
1009.895569
 21
151.29599
 31
0.0
  0
LINE
  5
132
100
AcDbEntity
  8
_
  6
CONTINUOUS
 62
     3
100
AcDbLine
 10
1065.336243
 20
152.303986
 30
0.0
 11
1065.336243
 21
147.667145
 31
0.0
  0
LINE
  5
133
100
AcDbEntity
  8
_
  6
CONTINUOUS
 62
     3
100
AcDbLine
 10
1065.336243
 20
152.303986
 30
0.0
 11
1074.093109
 21
152.303986
 31
0.0
  0
LINE
  5
134
100
AcDbEntity
  8
_
  6
CONTINUOUS
 62
     3
100
AcDbLine
 10
1074.093109
 20
152.303986
 30
0.0
 11
1069.368225
 21
158.351959
 31
0.0
  0
LINE
  5
135
100
AcDbEntity
  8
_
  6
CONTINUOUS
 62
     3
100
AcDbLine
 10
1069.368225
 20
158.351959
 30
0.0
 11
1078.32193
 21
158.351959
 31
0.0
  0
LINE
  5
136
100
AcDbEntity
  8
_
  6
CONTINUOUS
 62
     3
100
AcDbLine
 10
1078.32193
 20
158.351959
 30
0.0
 11
1083.046814
 21
152.303986
 31
0.0
  0
LINE
  5
137
100
AcDbEntity
  8
_
  6
CONTINUOUS
 62
     3
100
AcDbLine
 10
1083.046814
 20
152.303986
 30
0.0
 11
1084.993073
 21
152.303986
 31
0.0
  0
LINE
  5
138
100
AcDbEntity
  8
_
  6
CONTINUOUS
 62
     3
100
AcDbLine
 10
1084.993073
 20
152.303986
 30
0.0
 11
1084.993073
 21
158.351959
 31
0.0
  0
LINE
  5
139
100
AcDbEntity
  8
_
  6
CONTINUOUS
 62
     3
100
AcDbLine
 10
1084.993073
 20
158.351959
 30
0.0
 11
1092.047668
 21
158.351959
 31
0.0
  0
LINE
  5
13A
100
AcDbEntity
  8
_
  6
CONTINUOUS
 62
     3
100
AcDbLine
 10
1092.047668
 20
158.351959
 30
0.0
 11
1092.047668
 21
152.303986
 31
0.0
  0
LINE
  5
13B
100
AcDbEntity
  8
_
  6
CONTINUOUS
 62
     3
100
AcDbLine
 10
1092.047668
 20
152.303986
 30
0.0
 11
1095.072571
 21
152.303986
 31
0.0
  0
LINE
  5
13C
100
AcDbEntity
  8
_
  6
CONTINUOUS
 62
     3
100
AcDbLine
 10
1095.072571
 20
152.303986
 30
0.0
 11
1095.072571
 21
158.351959
 31
0.0
  0
LINE
  5
13D
100
AcDbEntity
  8
_
  6
CONTINUOUS
 62
     3
100
AcDbLine
 10
1095.072571
 20
158.351959
 30
0.0
 11
1102.127319
 21
158.351959
 31
0.0
  0
LINE
  5
13E
100
AcDbEntity
  8
_
  6
CONTINUOUS
 62
     3
100
AcDbLine
 10
1102.127319
 20
158.351959
 30
0.0
 11
1102.127319
 21
152.303986
 31
0.0
  0
LINE
  5
13F
100
AcDbEntity
  8
_
  6
CONTINUOUS
 62
     3
100
AcDbLine
 10
1102.127319
 20
152.303986
 30
0.0
 11
1104.073578
 21
152.303986
 31
0.0
  0
LINE
  5
140
100
AcDbEntity
  8
_
  6
CONTINUOUS
 62
     3
100
AcDbLine
 10
1104.073578
 20
152.303986
 30
0.0
 11
1108.798462
 21
158.351959
 31
0.0
  0
LINE
  5
141
100
AcDbEntity
  8
_
  6
CONTINUOUS
 62
     3
100
AcDbLine
 10
1108.798462
 20
158.351959
 30
0.0
 11
1117.752167
 21
158.351959
 31
0.0
  0
LINE
  5
142
100
AcDbEntity
  8
_
  6
CONTINUOUS
 62
     3
100
AcDbLine
 10
1117.752167
 20
158.351959
 30
0.0
 11
1113.027283
 21
152.303986
 31
0.0
  0
LINE
  5
143
100
AcDbEntity
  8
_
  6
CONTINUOUS
 62
     3
100
AcDbLine
 10
1113.027283
 20
152.303986
 30
0.0
 11
1121.783997
 21
152.303986
 31
0.0
  0
LINE
  5
144
100
AcDbEntity
  8
_
  6
CONTINUOUS
 62
     3
100
AcDbLine
 10
1121.783997
 20
152.303986
 30
0.0
 11
1121.783997
 21
147.667145
 31
0.0
  0
LINE
  5
145
100
AcDbEntity
  8
_
  6
CONTINUOUS
 62
     3
100
AcDbLine
 10
1121.783997
 20
147.667145
 30
0.0
 11
1111.16098
 21
147.667145
 31
0.0
  0
LINE
  5
146
100
AcDbEntity
  8
_
  6
CONTINUOUS
 62
     3
100
AcDbLine
 10
1111.16098
 20
147.667145
 30
0.0
 11
1109.327637
 21
142.627319
 31
0.0
  0
LINE
  5
147
100
AcDbEntity
  8
_
  6
CONTINUOUS
 62
     3
100
AcDbLine
 10
1109.327637
 20
142.627319
 30
0.0
 11
1121.783997
 21
142.627319
 31
0.0
  0
LINE
  5
148
100
AcDbEntity
  8
_
  6
CONTINUOUS
 62
     3
100
AcDbLine
 10
1121.783997
 20
142.627319
 30
0.0
 11
1121.783997
 21
137.990478
 31
0.0
  0
LINE
  5
149
100
AcDbEntity
  8
_
  6
CONTINUOUS
 62
     3
100
AcDbLine
 10
1121.783997
 20
137.990478
 30
0.0
 11
1098.599945
 21
137.990478
 31
0.0
  0
LINE
  5
14A
100
AcDbEntity
  8
_
  6
CONTINUOUS
 62
     3
100
AcDbLine
 10
1098.599945
 20
137.990478
 30
0.0
 11
1098.599945
 21
135.672058
 31
0.0
  0
LINE
  5
14B
100
AcDbEntity
  8
_
  6
CONTINUOUS
 62
     3
100
AcDbLine
 10
1098.599945
 20
135.672058
 30
0.0
 11
1121.783997
 21
135.672058
 31
0.0
  0
LINE
  5
14C
100
AcDbEntity
  8
_
  6
CONTINUOUS
 62
     3
100
AcDbLine
 10
1121.783997
 20
135.672058
 30
0.0
 11
1121.783997
 21
131.035217
 31
0.0
  0
LINE
  5
14D
100
AcDbEntity
  8
_
  6
CONTINUOUS
 62
     3
100
AcDbLine
 10
1121.783997
 20
131.035217
 30
0.0
 11
1098.599945
 21
131.035217
 31
0.0
  0
LINE
  5
14E
100
AcDbEntity
  8
_
  6
CONTINUOUS
 62
     3
100
AcDbLine
 10
1098.599945
 20
131.035217
 30
0.0
 11
1098.599945
 21
128.716797
 31
0.0
  0
LINE
  5
14F
100
AcDbEntity
  8
_
  6
CONTINUOUS
 62
     3
100
AcDbLine
 10
1098.599945
 20
128.716797
 30
0.0
 11
1121.783997
 21
128.716797
 31
0.0
  0
LINE
  5
150
100
AcDbEntity
  8
_
  6
CONTINUOUS
 62
     3
100
AcDbLine
 10
1121.783997
 20
128.716797
 30
0.0
 11
1121.783997
 21
124.079956
 31
0.0
  0
LINE
  5
151
100
AcDbEntity
  8
_
  6
CONTINUOUS
 62
     3
100
AcDbLine
 10
1121.783997
 20
124.079956
 30
0.0
 11
1110.627838
 21
124.079956
 31
0.0
  0
LINE
  5
152
100
AcDbEntity
  8
_
  6
CONTINUOUS
 62
     3
100
AcDbLine
 10
1110.627838
 20
124.079956
 30
0.0
 11
1121.783997
 21
114.0
 31
0.0
  0
LINE
  5
153
100
AcDbEntity
  8
_
  6
CONTINUOUS
 62
     3
100
AcDbLine
 10
1121.783997
 20
114.0
 30
0.0
 11
1109.756256
 21
114.0
 31
0.0
  0
LINE
  5
154
100
AcDbEntity
  8
_
  6
CONTINUOUS
 62
     3
100
AcDbLine
 10
1109.756256
 20
114.0
 30
0.0
 11
1098.599945
 21
124.079956
 31
0.0
  0
LINE
  5
155
100
AcDbEntity
  8
_
  6
CONTINUOUS
 62
     3
100
AcDbLine
 10
1098.599945
 20
124.079956
 30
0.0
 11
1098.599945
 21
114.0
 31
0.0
  0
LINE
  5
156
100
AcDbEntity
  8
_
  6
CONTINUOUS
 62
     3
100
AcDbLine
 10
1098.599945
 20
114.0
 30
0.0
 11
1088.520447
 21
114.0
 31
0.0
  0
LINE
  5
157
100
AcDbEntity
  8
_
  6
CONTINUOUS
 62
     3
100
AcDbLine
 10
1088.520447
 20
114.0
 30
0.0
 11
1088.520447
 21
124.079956
 31
0.0
  0
LINE
  5
158
100
AcDbEntity
  8
_
  6
CONTINUOUS
 62
     3
100
AcDbLine
 10
1088.520447
 20
124.079956
 30
0.0
 11
1077.364136
 21
114.0
 31
0.0
  0
LINE
  5
159
100
AcDbEntity
  8
_
  6
CONTINUOUS
 62
     3
100
AcDbLine
 10
1077.364136
 20
114.0
 30
0.0
 11
1065.336243
 21
114.0
 31
0.0
  0
LINE
  5
15A
100
AcDbEntity
  8
_
  6
CONTINUOUS
 62
     3
100
AcDbLine
 10
1065.336243
 20
114.0
 30
0.0
 11
1076.492554
 21
124.079956
 31
0.0
  0
LINE
  5
15B
100
AcDbEntity
  8
_
  6
CONTINUOUS
 62
     3
100
AcDbLine
 10
1076.492554
 20
124.079956
 30
0.0
 11
1065.336243
 21
124.079956
 31
0.0
  0
LINE
  5
15C
100
AcDbEntity
  8
_
  6
CONTINUOUS
 62
     3
100
AcDbLine
 10
1065.336243
 20
124.079956
 30
0.0
 11
1065.336243
 21
128.716797
 31
0.0
  0
LINE
  5
15D
100
AcDbEntity
  8
_
  6
CONTINUOUS
 62
     3
100
AcDbLine
 10
1065.336243
 20
128.716797
 30
0.0
 11
1088.520447
 21
128.716797
 31
0.0
  0
LINE
  5
15E
100
AcDbEntity
  8
_
  6
CONTINUOUS
 62
     3
100
AcDbLine
 10
1088.520447
 20
128.716797
 30
0.0
 11
1088.520447
 21
131.035217
 31
0.0
  0
LINE
  5
15F
100
AcDbEntity
  8
_
  6
CONTINUOUS
 62
     3
100
AcDbLine
 10
1088.520447
 20
131.035217
 30
0.0
 11
1065.336243
 21
131.035217
 31
0.0
  0
LINE
  5
160
100
AcDbEntity
  8
_
  6
CONTINUOUS
 62
     3
100
AcDbLine
 10
1065.336243
 20
131.035217
 30
0.0
 11
1065.336243
 21
135.672058
 31
0.0
  0
LINE
  5
161
100
AcDbEntity
  8
_
  6
CONTINUOUS
 62
     3
100
AcDbLine
 10
1065.336243
 20
135.672058
 30
0.0
 11
1088.520447
 21
135.672058
 31
0.0
  0
LINE
  5
162
100
AcDbEntity
  8
_
  6
CONTINUOUS
 62
     3
100
AcDbLine
 10
1088.520447
 20
135.672058
 30
0.0
 11
1088.520447
 21
137.990478
 31
0.0
  0
LINE
  5
163
100
AcDbEntity
  8
_
  6
CONTINUOUS
 62
     3
100
AcDbLine
 10
1088.520447
 20
137.990478
 30
0.0
 11
1065.336243
 21
137.990478
 31
0.0
  0
LINE
  5
164
100
AcDbEntity
  8
_
  6
CONTINUOUS
 62
     3
100
AcDbLine
 10
1065.336243
 20
137.990478
 30
0.0
 11
1065.336243
 21
142.627319
 31
0.0
  0
LINE
  5
165
100
AcDbEntity
  8
_
  6
CONTINUOUS
 62
     3
100
AcDbLine
 10
1065.336243
 20
142.627319
 30
0.0
 11
1077.792755
 21
142.627319
 31
0.0
  0
LINE
  5
166
100
AcDbEntity
  8
_
  6
CONTINUOUS
 62
     3
100
AcDbLine
 10
1077.792755
 20
142.627319
 30
0.0
 11
1075.959412
 21
147.667145
 31
0.0
  0
LINE
  5
167
100
AcDbEntity
  8
_
  6
CONTINUOUS
 62
     3
100
AcDbLine
 10
1075.959412
 20
147.667145
 30
0.0
 11
1065.336243
 21
147.667145
 31
0.0
  0
LINE
  5
168
100
AcDbEntity
  8
_
  6
CONTINUOUS
 62
     3
100
AcDbLine
 10
1086.684967
 20
147.667145
 30
0.0
 11
1100.435425
 21
147.667145
 31
0.0
  0
LINE
  5
169
100
AcDbEntity
  8
_
  6
CONTINUOUS
 62
     3
100
AcDbLine
 10
1100.435425
 20
147.667145
 30
0.0
 11
1098.599945
 21
142.627319
 31
0.0
  0
LINE
  5
16A
100
AcDbEntity
  8
_
  6
CONTINUOUS
 62
     3
100
AcDbLine
 10
1098.599945
 20
142.627319
 30
0.0
 11
1088.520447
 21
142.627319
 31
0.0
  0
LINE
  5
16B
100
AcDbEntity
  8
_
  6
CONTINUOUS
 62
     3
100
AcDbLine
 10
1088.520447
 20
142.627319
 30
0.0
 11
1086.684967
 21
147.667145
 31
0.0
  0
LINE
  5
16C
100
AcDbEntity
  8
_
  6
CONTINUOUS
 62
     3
100
AcDbLine
 10
1149.256378
 20
158.351959
 30
0.0
 11
1145.989472
 21
145.248016
 31
0.0
  0
LINE
  5
16D
100
AcDbEntity
  8
_
  6
CONTINUOUS
 62
     3
100
AcDbLine
 10
1149.256378
 20
158.351959
 30
0.0
 11
1157.568146
 21
158.351959
 31
0.0
  0
LINE
  5
16E
100
AcDbEntity
  8
_
  6
CONTINUOUS
 62
     3
100
AcDbLine
 10
1157.568146
 20
158.351959
 30
0.0
 11
1156.310974
 21
153.311981
 31
0.0
  0
LINE
  5
16F
100
AcDbEntity
  8
_
  6
CONTINUOUS
 62
     3
100
AcDbLine
 10
1156.310974
 20
153.311981
 30
0.0
 11
1159.584137
 21
153.311981
 31
0.0
  0
LINE
  5
170
100
AcDbEntity
  8
_
  6
CONTINUOUS
 62
     3
100
AcDbLine
 10
1159.584137
 20
153.311981
 30
0.0
 11
1159.584137
 21
158.351959
 31
0.0
  0
LINE
  5
171
100
AcDbEntity
  8
_
  6
CONTINUOUS
 62
     3
100
AcDbLine
 10
1159.584137
 20
158.351959
 30
0.0
 11
1168.656708
 21
158.351959
 31
0.0
  0
LINE
  5
172
100
AcDbEntity
  8
_
  6
CONTINUOUS
 62
     3
100
AcDbLine
 10
1168.656708
 20
158.351959
 30
0.0
 11
1168.656708
 21
153.311981
 31
0.0
  0
LINE
  5
173
100
AcDbEntity
  8
_
  6
CONTINUOUS
 62
     3
100
AcDbLine
 10
1168.656708
 20
153.311981
 30
0.0
 11
1180.247742
 21
153.311981
 31
0.0
  0
LINE
  5
174
100
AcDbEntity
  8
_
  6
CONTINUOUS
 62
     3
100
AcDbLine
 10
1180.247742
 20
153.311981
 30
0.0
 11
1180.247742
 21
148.272003
 31
0.0
  0
LINE
  5
175
100
AcDbEntity
  8
_
  6
CONTINUOUS
 62
     3
100
AcDbLine
 10
1168.656708
 20
148.272003
 30
0.0
 11
1180.247742
 21
148.272003
 31
0.0
  0
LINE
  5
176
100
AcDbEntity
  8
_
  6
CONTINUOUS
 62
     3
100
AcDbLine
 10
1168.656708
 20
148.272003
 30
0.0
 11
1168.656708
 21
143.232025
 31
0.0
  0
LINE
  5
177
100
AcDbEntity
  8
_
  6
CONTINUOUS
 62
     3
100
AcDbLine
 10
1168.656708
 20
143.232025
 30
0.0
 11
1181.256653
 21
143.232025
 31
0.0
  0
LINE
  5
178
100
AcDbEntity
  8
_
  6
CONTINUOUS
 62
     3
100
AcDbLine
 10
1181.256653
 20
143.232025
 30
0.0
 11
1181.256653
 21
138.192047
 31
0.0
  0
LINE
  5
179
100
AcDbEntity
  8
_
  6
CONTINUOUS
 62
     3
100
AcDbLine
 10
1181.256653
 20
138.192047
 30
0.0
 11
1176.851593
 21
138.192047
 31
0.0
  0
LINE
  5
17A
100
AcDbEntity
  8
_
  6
CONTINUOUS
 62
     3
100
AcDbLine
 10
1176.851593
 20
138.192047
 30
0.0
 11
1181.256653
 21
114.0
 31
0.0
  0
LINE
  5
17B
100
AcDbEntity
  8
_
  6
CONTINUOUS
 62
     3
100
AcDbLine
 10
1181.256653
 20
114.0
 30
0.0
 11
1173.059784
 21
114.0
 31
0.0
  0
LINE
  5
17C
100
AcDbEntity
  8
_
  6
CONTINUOUS
 62
     3
100
AcDbLine
 10
1173.059784
 20
114.0
 30
0.0
 11
1168.656708
 21
138.191742
 31
0.0
  0
LINE
  5
17D
100
AcDbEntity
  8
_
  6
CONTINUOUS
 62
     3
100
AcDbLine
 10
1168.656708
 20
138.191742
 30
0.0
 11
1168.656708
 21
114.0
 31
0.0
  0
LINE
  5
17E
100
AcDbEntity
  8
_
  6
CONTINUOUS
 62
     3
100
AcDbLine
 10
1168.656708
 20
114.0
 30
0.0
 11
1159.584137
 21
114.0
 31
0.0
  0
LINE
  5
17F
100
AcDbEntity
  8
_
  6
CONTINUOUS
 62
     3
100
AcDbLine
 10
1159.584137
 20
114.0
 30
0.0
 11
1159.584137
 21
138.192047
 31
0.0
  0
LINE
  5
180
100
AcDbEntity
  8
_
  6
CONTINUOUS
 62
     3
100
AcDbLine
 10
1159.584137
 20
138.192047
 30
0.0
 11
1155.181061
 21
114.0
 31
0.0
  0
LINE
  5
181
100
AcDbEntity
  8
_
  6
CONTINUOUS
 62
     3
100
AcDbLine
 10
1155.181061
 20
114.0
 30
0.0
 11
1146.984039
 21
114.0
 31
0.0
  0
LINE
  5
182
100
AcDbEntity
  8
_
  6
CONTINUOUS
 62
     3
100
AcDbLine
 10
1146.984039
 20
114.0
 30
0.0
 11
1151.387115
 21
138.192047
 31
0.0
  0
LINE
  5
183
100
AcDbEntity
  8
_
  6
CONTINUOUS
 62
     3
100
AcDbLine
 10
1151.387115
 20
138.192047
 30
0.0
 11
1146.984039
 21
138.192047
 31
0.0
  0
LINE
  5
184
100
AcDbEntity
  8
_
  6
CONTINUOUS
 62
     3
100
AcDbLine
 10
1146.984039
 20
138.192047
 30
0.0
 11
1146.984039
 21
143.232025
 31
0.0
  0
LINE
  5
185
100
AcDbEntity
  8
_
  6
CONTINUOUS
 62
     3
100
AcDbLine
 10
1146.984039
 20
143.232025
 30
0.0
 11
1159.584137
 21
143.232025
 31
0.0
  0
LINE
  5
186
100
AcDbEntity
  8
_
  6
CONTINUOUS
 62
     3
100
AcDbLine
 10
1159.584137
 20
143.232025
 30
0.0
 11
1159.584137
 21
148.272003
 31
0.0
  0
LINE
  5
187
100
AcDbEntity
  8
_
  6
CONTINUOUS
 62
     3
100
AcDbLine
 10
1159.584137
 20
148.272003
 30
0.0
 11
1155.053955
 21
148.272003
 31
0.0
  0
LINE
  5
188
100
AcDbEntity
  8
_
  6
CONTINUOUS
 62
     3
100
AcDbLine
 10
1155.053955
 20
148.272003
 30
0.0
 11
1154.301239
 21
145.248016
 31
0.0
  0
LINE
  5
189
100
AcDbEntity
  8
_
  6
CONTINUOUS
 62
     3
100
AcDbLine
 10
1154.301239
 20
145.248016
 30
0.0
 11
1145.989472
 21
145.248016
 31
0.0
  0
LINE
  5
18A
100
AcDbEntity
  8
_
  6
CONTINUOUS
 62
     3
100
AcDbLine
 10
1123.799988
 20
153.311981
 30
0.0
 11
1123.799988
 21
148.272003
 31
0.0
  0
LINE
  5
18B
100
AcDbEntity
  8
_
  6
CONTINUOUS
 62
     3
100
AcDbLine
 10
1123.799988
 20
153.311981
 30
0.0
 11
1133.879639
 21
153.311981
 31
0.0
  0
LINE
  5
18C
100
AcDbEntity
  8
_
  6
CONTINUOUS
 62
     3
100
AcDbLine
 10
1133.879639
 20
153.311981
 30
0.0
 11
1133.879639
 21
158.351959
 31
0.0
  0
LINE
  5
18D
100
AcDbEntity
  8
_
  6
CONTINUOUS
 62
     3
100
AcDbLine
 10
1133.879639
 20
158.351959
 30
0.0
 11
1142.95221
 21
158.351959
 31
0.0
  0
LINE
  5
18E
100
AcDbEntity
  8
_
  6
CONTINUOUS
 62
     3
100
AcDbLine
 10
1142.95221
 20
158.351959
 30
0.0
 11
1142.95221
 21
153.311981
 31
0.0
  0
LINE
  5
18F
100
AcDbEntity
  8
_
  6
CONTINUOUS
 62
     3
100
AcDbLine
 10
1142.95221
 20
153.311981
 30
0.0
 11
1145.975128
 21
153.311981
 31
0.0
  0
LINE
  5
190
100
AcDbEntity
  8
_
  6
CONTINUOUS
 62
     3
100
AcDbLine
 10
1145.975128
 20
153.311981
 30
0.0
 11
1145.975128
 21
148.272003
 31
0.0
  0
LINE
  5
191
100
AcDbEntity
  8
_
  6
CONTINUOUS
 62
     3
100
AcDbLine
 10
1145.975128
 20
148.272003
 30
0.0
 11
1142.95221
 21
148.272003
 31
0.0
  0
LINE
  5
192
100
AcDbEntity
  8
_
  6
CONTINUOUS
 62
     3
100
AcDbLine
 10
1142.95221
 20
148.272003
 30
0.0
 11
1145.975128
 21
144.110016
 31
0.0
  0
LINE
  5
193
100
AcDbEntity
  8
_
  6
CONTINUOUS
 62
     3
100
AcDbLine
 10
1145.975128
 20
144.110016
 30
0.0
 11
1145.975128
 21
133.820709
 31
0.0
  0
LINE
  5
194
100
AcDbEntity
  8
_
  6
CONTINUOUS
 62
     3
100
AcDbLine
 10
1145.975128
 20
133.820709
 30
0.0
 11
1142.95221
 21
137.982849
 31
0.0
  0
LINE
  5
195
100
AcDbEntity
  8
_
  6
CONTINUOUS
 62
     3
100
AcDbLine
 10
1142.95221
 20
137.982849
 30
0.0
 11
1142.95221
 21
114.0
 31
0.0
  0
LINE
  5
196
100
AcDbEntity
  8
_
  6
CONTINUOUS
 62
     3
100
AcDbLine
 10
1142.95221
 20
114.0
 30
0.0
 11
1133.879639
 21
114.0
 31
0.0
  0
LINE
  5
197
100
AcDbEntity
  8
_
  6
CONTINUOUS
 62
     3
100
AcDbLine
 10
1133.879639
 20
114.0
 30
0.0
 11
1133.879639
 21
148.272003
 31
0.0
  0
LINE
  5
198
100
AcDbEntity
  8
_
  6
CONTINUOUS
 62
     3
100
AcDbLine
 10
1133.483826
 20
148.272003
 30
0.0
 11
1129.880615
 21
114.0
 31
0.0
  0
LINE
  5
199
100
AcDbEntity
  8
_
  6
CONTINUOUS
 62
     3
100
AcDbLine
 10
1129.880615
 20
114.0
 30
0.0
 11
1123.799988
 21
114.0
 31
0.0
  0
LINE
  5
19A
100
AcDbEntity
  8
_
  6
CONTINUOUS
 62
     3
100
AcDbLine
 10
1123.799988
 20
114.0
 30
0.0
 11
1127.403198
 21
148.272003
 31
0.0
  0
LINE
  5
19B
100
AcDbEntity
  8
_
  6
CONTINUOUS
 62
     3
100
AcDbLine
 10
1127.403198
 20
148.272003
 30
0.0
 11
1123.799988
 21
148.272003
 31
0.0
  0
LINE
  5
19C
100
AcDbEntity
  8
_
  6
CONTINUOUS
 62
     3
100
AcDbLine
 10
1186.295563
 20
142.22403
 30
0.0
 11
1186.295563
 21
136.176056
 31
0.0
  0
LINE
  5
19D
100
AcDbEntity
  8
_
  6
CONTINUOUS
 62
     3
100
AcDbLine
 10
1186.295563
 20
142.22403
 30
0.0
 11
1216.536347
 21
142.22403
 31
0.0
  0
LINE
  5
19E
100
AcDbEntity
  8
_
  6
CONTINUOUS
 62
     3
100
AcDbLine
 10
1216.536347
 20
142.22403
 30
0.0
 11
1216.536347
 21
136.176056
 31
0.0
  0
LINE
  5
19F
100
AcDbEntity
  8
_
  6
CONTINUOUS
 62
     3
100
AcDbLine
 10
1216.536347
 20
136.176056
 30
0.0
 11
1206.959167
 21
136.176056
 31
0.0
  0
LINE
  5
1A0
100
AcDbEntity
  8
_
  6
CONTINUOUS
 62
     3
100
AcDbLine
 10
1206.959167
 20
136.176056
 30
0.0
 11
1206.959167
 21
127.774109
 31
0.0
  0
LINE
  5
1A1
100
AcDbEntity
  8
_
  6
CONTINUOUS
 62
     3
100
AcDbLine
 10
1206.959167
 20
127.774109
 30
0.0
 11
1217.040802
 21
129.916596
 31
0.0
  0
LINE
  5
1A2
100
AcDbEntity
  8
_
  6
CONTINUOUS
 62
     3
100
AcDbLine
 10
1217.040802
 20
129.916596
 30
0.0
 11
1217.040802
 21
120.641998
 31
0.0
  0
LINE
  5
1A3
100
AcDbEntity
  8
_
  6
CONTINUOUS
 62
     3
100
AcDbLine
 10
1217.040802
 20
120.641998
 30
0.0
 11
1185.790955
 21
114.0
 31
0.0
  0
LINE
  5
1A4
100
AcDbEntity
  8
_
  6
CONTINUOUS
 62
     3
100
AcDbLine
 10
1185.790955
 20
114.0
 30
0.0
 11
1185.790955
 21
123.274597
 31
0.0
  0
LINE
  5
1A5
100
AcDbEntity
  8
_
  6
CONTINUOUS
 62
     3
100
AcDbLine
 10
1185.790955
 20
123.274597
 30
0.0
 11
1195.872589
 21
125.417236
 31
0.0
  0
LINE
  5
1A6
100
AcDbEntity
  8
_
  6
CONTINUOUS
 62
     3
100
AcDbLine
 10
1195.872589
 20
125.417236
 30
0.0
 11
1195.872589
 21
136.176056
 31
0.0
  0
LINE
  5
1A7
100
AcDbEntity
  8
_
  6
CONTINUOUS
 62
     3
100
AcDbLine
 10
1195.872589
 20
136.176056
 30
0.0
 11
1186.295563
 21
136.176056
 31
0.0
  0
LINE
  5
1A8
100
AcDbEntity
  8
_
  6
CONTINUOUS
 62
     3
100
AcDbLine
 10
1183.272644
 20
154.319977
 30
0.0
 11
1183.272644
 21
148.272003
 31
0.0
  0
LINE
  5
1A9
100
AcDbEntity
  8
_
  6
CONTINUOUS
 62
     3
100
AcDbLine
 10
1183.272644
 20
154.319977
 30
0.0
 11
1213.244873
 21
154.319977
 31
0.0
  0
LINE
  5
1AA
100
AcDbEntity
  8
_
  6
CONTINUOUS
 62
     3
100
AcDbLine
 10
1213.244873
 20
154.319977
 30
0.0
 11
1211.778503
 21
158.351959
 31
0.0
  0
LINE
  5
1AB
100
AcDbEntity
  8
_
  6
CONTINUOUS
 62
     3
100
AcDbLine
 10
1211.778503
 20
158.351959
 30
0.0
 11
1223.576599
 21
158.351959
 31
0.0
  0
LINE
  5
1AC
100
AcDbEntity
  8
_
  6
CONTINUOUS
 62
     3
100
AcDbLine
 10
1223.576599
 20
158.351959
 30
0.0
 11
1225.044952
 21
154.319977
 31
0.0
  0
LINE
  5
1AD
100
AcDbEntity
  8
_
  6
CONTINUOUS
 62
     3
100
AcDbLine
 10
1225.044952
 20
154.319977
 30
0.0
 11
1227.624908
 21
154.319977
 31
0.0
  0
LINE
  5
1AE
100
AcDbEntity
  8
_
  6
CONTINUOUS
 62
     3
100
AcDbLine
 10
1227.624908
 20
154.319977
 30
0.0
 11
1227.624908
 21
158.351959
 31
0.0
  0
LINE
  5
1AF
100
AcDbEntity
  8
_
  6
CONTINUOUS
 62
     3
100
AcDbLine
 10
1227.624908
 20
158.351959
 30
0.0
 11
1236.695496
 21
158.351959
 31
0.0
  0
LINE
  5
1B0
100
AcDbEntity
  8
_
  6
CONTINUOUS
 62
     3
100
AcDbLine
 10
1236.695496
 20
158.351959
 30
0.0
 11
1236.695496
 21
154.319977
 31
0.0
  0
LINE
  5
1B1
100
AcDbEntity
  8
_
  6
CONTINUOUS
 62
     3
100
AcDbLine
 10
1236.695496
 20
154.319977
 30
0.0
 11
1239.720398
 21
154.319977
 31
0.0
  0
LINE
  5
1B2
100
AcDbEntity
  8
_
  6
CONTINUOUS
 62
     3
100
AcDbLine
 10
1239.720398
 20
154.319977
 30
0.0
 11
1239.720398
 21
148.272003
 31
0.0
  0
LINE
  5
1B3
100
AcDbEntity
  8
_
  6
CONTINUOUS
 62
     3
100
AcDbLine
 10
1239.720398
 20
148.272003
 30
0.0
 11
1227.245422
 21
148.272003
 31
0.0
  0
LINE
  5
1B4
100
AcDbEntity
  8
_
  6
CONTINUOUS
 62
     3
100
AcDbLine
 10
1227.245422
 20
148.272003
 30
0.0
 11
1239.720398
 21
114.0
 31
0.0
  0
LINE
  5
1B5
100
AcDbEntity
  8
_
  6
CONTINUOUS
 62
     3
100
AcDbLine
 10
1239.720398
 20
114.0
 30
0.0
 11
1227.920166
 21
114.0
 31
0.0
  0
LINE
  5
1B6
100
AcDbEntity
  8
_
  6
CONTINUOUS
 62
     3
100
AcDbLine
 10
1227.920166
 20
114.0
 30
0.0
 11
1215.447327
 21
148.272003
 31
0.0
  0
LINE
  5
1B7
100
AcDbEntity
  8
_
  6
CONTINUOUS
 62
     3
100
AcDbLine
 10
1215.447327
 20
148.272003
 30
0.0
 11
1183.272644
 21
148.272003
 31
0.0
  0
LINE
  5
1B8
100
AcDbEntity
  8
_
  6
CONTINUOUS
 62
     3
100
AcDbLine
 10
1241.736389
 20
149.747833
 30
0.0
 11
1241.736389
 21
143.369965
 31
0.0
  0
LINE
  5
1B9
100
AcDbEntity
  8
_
  6
CONTINUOUS
 62
     3
100
AcDbLine
 10
1241.736389
 20
149.747833
 30
0.0
 11
1270.463654
 21
159.359955
 31
0.0
  0
LINE
  5
1BA
100
AcDbEntity
  8
_
  6
CONTINUOUS
 62
     3
100
AcDbLine
 10
1270.463654
 20
159.359955
 30
0.0
 11
1299.191071
 21
149.747528
 31
0.0
  0
LINE
  5
1BB
100
AcDbEntity
  8
_
  6
CONTINUOUS
 62
     3
100
AcDbLine
 10
1299.191071
 20
149.747528
 30
0.0
 11
1299.191071
 21
143.369965
 31
0.0
  0
LINE
  5
1BC
100
AcDbEntity
  8
_
  6
CONTINUOUS
 62
     3
100
AcDbLine
 10
1299.191071
 20
143.369965
 30
0.0
 11
1290.624939
 21
146.236786
 31
0.0
  0
LINE
  5
1BD
100
AcDbEntity
  8
_
  6
CONTINUOUS
 62
     3
100
AcDbLine
 10
1290.624939
 20
146.236786
 30
0.0
 11
1290.624939
 21
141.216034
 31
0.0
  0
LINE
  5
1BE
100
AcDbEntity
  8
_
  6
CONTINUOUS
 62
     3
100
AcDbLine
 10
1290.624939
 20
141.216034
 30
0.0
 11
1250.304504
 21
141.216034
 31
0.0
  0
LINE
  5
1BF
100
AcDbEntity
  8
_
  6
CONTINUOUS
 62
     3
100
AcDbLine
 10
1250.304504
 20
141.216034
 30
0.0
 11
1250.304504
 21
146.236786
 31
0.0
  0
LINE
  5
1C0
100
AcDbEntity
  8
_
  6
CONTINUOUS
 62
     3
100
AcDbLine
 10
1250.304504
 20
146.236786
 30
0.0
 11
1241.736389
 21
143.369965
 31
0.0
  0
LINE
  5
1C1
100
AcDbEntity
  8
_
  6
CONTINUOUS
 62
     3
100
AcDbLine
 10
1253.374573
 20
147.264008
 30
0.0
 11
1270.463654
 21
152.982239
 31
0.0
  0
LINE
  5
1C2
100
AcDbEntity
  8
_
  6
CONTINUOUS
 62
     3
100
AcDbLine
 10
1270.463654
 20
152.982239
 30
0.0
 11
1287.554871
 21
147.264008
 31
0.0
  0
LINE
  5
1C3
100
AcDbEntity
  8
_
  6
CONTINUOUS
 62
     3
100
AcDbLine
 10
1287.554871
 20
147.264008
 30
0.0
 11
1253.374573
 21
147.264008
 31
0.0
  0
LINE
  5
1C4
100
AcDbEntity
  8
_
  6
CONTINUOUS
 62
     3
100
AcDbLine
 10
1241.736389
 20
137.183899
 30
0.0
 11
1241.736389
 21
131.135925
 31
0.0
  0
LINE
  5
1C5
100
AcDbEntity
  8
_
  6
CONTINUOUS
 62
     3
100
AcDbLine
 10
1241.736389
 20
137.183899
 30
0.0
 11
1299.191071
 21
137.183899
 31
0.0
  0
LINE
  5
1C6
100
AcDbEntity
  8
_
  6
CONTINUOUS
 62
     3
100
AcDbLine
 10
1299.191071
 20
137.183899
 30
0.0
 11
1299.191071
 21
131.135925
 31
0.0
  0
LINE
  5
1C7
100
AcDbEntity
  8
_
  6
CONTINUOUS
 62
     3
100
AcDbLine
 10
1299.191071
 20
131.135925
 30
0.0
 11
1291.201111
 21
131.135925
 31
0.0
  0
LINE
  5
1C8
100
AcDbEntity
  8
_
  6
CONTINUOUS
 62
     3
100
AcDbLine
 10
1291.201111
 20
131.135925
 30
0.0
 11
1299.191071
 21
114.0
 31
0.0
  0
LINE
  5
1C9
100
AcDbEntity
  8
_
  6
CONTINUOUS
 62
     3
100
AcDbLine
 10
1299.191071
 20
114.0
 30
0.0
 11
1241.736389
 21
114.0
 31
0.0
  0
LINE
  5
1CA
100
AcDbEntity
  8
_
  6
CONTINUOUS
 62
     3
100
AcDbLine
 10
1241.736389
 20
114.0
 30
0.0
 11
1249.726196
 21
131.135925
 31
0.0
  0
LINE
  5
1CB
100
AcDbEntity
  8
_
  6
CONTINUOUS
 62
     3
100
AcDbLine
 10
1249.726196
 20
131.135925
 30
0.0
 11
1241.736389
 21
131.135925
 31
0.0
  0
LINE
  5
1CC
100
AcDbEntity
  8
_
  6
CONTINUOUS
 62
     3
100
AcDbLine
 10
1260.847565
 20
131.135925
 30
0.0
 11
1280.079742
 21
131.135925
 31
0.0
  0
LINE
  5
1CD
100
AcDbEntity
  8
_
  6
CONTINUOUS
 62
     3
100
AcDbLine
 10
1280.079742
 20
131.135925
 30
0.0
 11
1285.249725
 21
120.047974
 31
0.0
  0
LINE
  5
1CE
100
AcDbEntity
  8
_
  6
CONTINUOUS
 62
     3
100
AcDbLine
 10
1285.249725
 20
120.047974
 30
0.0
 11
1255.677582
 21
120.047974
 31
0.0
  0
LINE
  5
1CF
100
AcDbEntity
  8
_
  6
CONTINUOUS
 62
     3
100
AcDbLine
 10
1260.847565
 20
131.135925
 30
0.0
 11
1255.677582
 21
120.047974
 31
0.0
  0
LINE
  5
1D0
100
AcDbEntity
  8
_
  6
CONTINUOUS
 62
     3
100
AcDbLine
 10
1328.424927
 20
147.264008
 30
0.0
 11
1328.424927
 21
141.216034
 31
0.0
  0
LINE
  5
1D1
100
AcDbEntity
  8
_
  6
CONTINUOUS
 62
     3
100
AcDbLine
 10
1328.424927
 20
147.264008
 30
0.0
 11
1337.495514
 21
147.264008
 31
0.0
  0
LINE
  5
1D2
100
AcDbEntity
  8
_
  6
CONTINUOUS
 62
     3
100
AcDbLine
 10
1337.495514
 20
147.264008
 30
0.0
 11
1337.495514
 21
158.351959
 31
0.0
  0
LINE
  5
1D3
100
AcDbEntity
  8
_
  6
CONTINUOUS
 62
     3
100
AcDbLine
 10
1337.495514
 20
158.351959
 30
0.0
 11
1347.575012
 21
158.351959
 31
0.0
  0
LINE
  5
1D4
100
AcDbEntity
  8
_
  6
CONTINUOUS
 62
     3
100
AcDbLine
 10
1347.575012
 20
158.351959
 30
0.0
 11
1347.575012
 21
147.264008
 31
0.0
  0
LINE
  5
1D5
100
AcDbEntity
  8
_
  6
CONTINUOUS
 62
     3
100
AcDbLine
 10
1347.575012
 20
147.264008
 30
0.0
 11
1356.647736
 21
147.264008
 31
0.0
  0
LINE
  5
1D6
100
AcDbEntity
  8
_
  6
CONTINUOUS
 62
     3
100
AcDbLine
 10
1356.647736
 20
147.264008
 30
0.0
 11
1356.647736
 21
141.216034
 31
0.0
  0
LINE
  5
1D7
100
AcDbEntity
  8
_
  6
CONTINUOUS
 62
     3
100
AcDbLine
 10
1356.647736
 20
141.216034
 30
0.0
 11
1347.575012
 21
141.216034
 31
0.0
  0
LINE
  5
1D8
100
AcDbEntity
  8
_
  6
CONTINUOUS
 62
     3
100
AcDbLine
 10
1347.575012
 20
141.216034
 30
0.0
 11
1347.575012
 21
120.047974
 31
0.0
  0
LINE
  5
1D9
100
AcDbEntity
  8
_
  6
CONTINUOUS
 62
     3
100
AcDbLine
 10
1347.575012
 20
120.047974
 30
0.0
 11
1357.656647
 21
120.047974
 31
0.0
  0
LINE
  5
1DA
100
AcDbEntity
  8
_
  6
CONTINUOUS
 62
     3
100
AcDbLine
 10
1357.656647
 20
120.047974
 30
0.0
 11
1357.656647
 21
114.0
 31
0.0
  0
LINE
  5
1DB
100
AcDbEntity
  8
_
  6
CONTINUOUS
 62
     3
100
AcDbLine
 10
1357.656647
 20
114.0
 30
0.0
 11
1324.390961
 21
114.0
 31
0.0
  0
LINE
  5
1DC
100
AcDbEntity
  8
_
  6
CONTINUOUS
 62
     3
100
AcDbLine
 10
1324.390961
 20
114.0
 30
0.0
 11
1324.390961
 21
120.047974
 31
0.0
  0
LINE
  5
1DD
100
AcDbEntity
  8
_
  6
CONTINUOUS
 62
     3
100
AcDbLine
 10
1324.390961
 20
120.047974
 30
0.0
 11
1337.495514
 21
120.047974
 31
0.0
  0
LINE
  5
1DE
100
AcDbEntity
  8
_
  6
CONTINUOUS
 62
     3
100
AcDbLine
 10
1337.495514
 20
120.047974
 30
0.0
 11
1337.495514
 21
141.216034
 31
0.0
  0
LINE
  5
1DF
100
AcDbEntity
  8
_
  6
CONTINUOUS
 62
     3
100
AcDbLine
 10
1337.495514
 20
141.216034
 30
0.0
 11
1328.424927
 21
141.216034
 31
0.0
  0
LINE
  5
1E0
100
AcDbEntity
  8
_
  6
CONTINUOUS
 62
     3
100
AcDbLine
 10
1301.206909
 20
154.319977
 30
0.0
 11
1301.206909
 21
148.272003
 31
0.0
  0
LINE
  5
1E1
100
AcDbEntity
  8
_
  6
CONTINUOUS
 62
     3
100
AcDbLine
 10
1301.206909
 20
154.319977
 30
0.0
 11
1310.279633
 21
154.319977
 31
0.0
  0
LINE
  5
1E2
100
AcDbEntity
  8
_
  6
CONTINUOUS
 62
     3
100
AcDbLine
 10
1310.279633
 20
154.319977
 30
0.0
 11
1310.279633
 21
158.351959
 31
0.0
  0
LINE
  5
1E3
100
AcDbEntity
  8
_
  6
CONTINUOUS
 62
     3
100
AcDbLine
 10
1310.279633
 20
158.351959
 30
0.0
 11
1320.359131
 21
158.351959
 31
0.0
  0
LINE
  5
1E4
100
AcDbEntity
  8
_
  6
CONTINUOUS
 62
     3
100
AcDbLine
 10
1320.359131
 20
158.351959
 30
0.0
 11
1320.359131
 21
154.319977
 31
0.0
  0
LINE
  5
1E5
100
AcDbEntity
  8
_
  6
CONTINUOUS
 62
     3
100
AcDbLine
 10
1320.359131
 20
154.319977
 30
0.0
 11
1329.431854
 21
154.319977
 31
0.0
  0
LINE
  5
1E6
100
AcDbEntity
  8
_
  6
CONTINUOUS
 62
     3
100
AcDbLine
 10
1329.431854
 20
154.319977
 30
0.0
 11
1319.026123
 21
139.45578
 31
0.0
  0
LINE
  5
1E7
100
AcDbEntity
  8
_
  6
CONTINUOUS
 62
     3
100
AcDbLine
 10
1319.026123
 20
139.45578
 30
0.0
 11
1328.424927
 21
132.875885
 31
0.0
  0
LINE
  5
1E8
100
AcDbEntity
  8
_
  6
CONTINUOUS
 62
     3
100
AcDbLine
 10
1328.424927
 20
132.875885
 30
0.0
 11
1328.424927
 21
121.801209
 31
0.0
  0
LINE
  5
1E9
100
AcDbEntity
  8
_
  6
CONTINUOUS
 62
     3
100
AcDbLine
 10
1328.424927
 20
121.801209
 30
0.0
 11
1320.359131
 21
127.447723
 31
0.0
  0
LINE
  5
1EA
100
AcDbEntity
  8
_
  6
CONTINUOUS
 62
     3
100
AcDbLine
 10
1320.359131
 20
127.447723
 30
0.0
 11
1320.359131
 21
114.0
 31
0.0
  0
LINE
  5
1EB
100
AcDbEntity
  8
_
  6
CONTINUOUS
 62
     3
100
AcDbLine
 10
1320.359131
 20
114.0
 30
0.0
 11
1310.279633
 21
114.0
 31
0.0
  0
LINE
  5
1EC
100
AcDbEntity
  8
_
  6
CONTINUOUS
 62
     3
100
AcDbLine
 10
1310.279633
 20
114.0
 30
0.0
 11
1310.279633
 21
126.9599
 31
0.0
  0
LINE
  5
1ED
100
AcDbEntity
  8
_
  6
CONTINUOUS
 62
     3
100
AcDbLine
 10
1310.279633
 20
126.9599
 30
0.0
 11
1301.206909
 21
114.0
 31
0.0
  0
LINE
  5
1EE
100
AcDbEntity
  8
_
  6
CONTINUOUS
 62
     3
100
AcDbLine
 10
1301.206909
 20
114.0
 30
0.0
 11
1301.206909
 21
129.819397
 31
0.0
  0
LINE
  5
1EF
100
AcDbEntity
  8
_
  6
CONTINUOUS
 62
     3
100
AcDbLine
 10
1301.206909
 20
129.819397
 30
0.0
 11
1314.124848
 21
148.272003
 31
0.0
  0
LINE
  5
1F0
100
AcDbEntity
  8
_
  6
CONTINUOUS
 62
     3
100
AcDbLine
 10
1314.124848
 20
148.272003
 30
0.0
 11
1301.206909
 21
148.272003
 31
0.0
  0
ARC
  5
1F1
100
AcDbEntity
  8
_
  6
CONTINUOUS
 62
     2
100
AcDbCircle
 10
859.161011
 20
140.200409
 30
0.0
 40
6.300122
100
AcDbArc
 50
310.768311
 51
335.998779
  0
LINE
  5
1F2
100
AcDbEntity
  8
_
  6
CONTINUOUS
 62
     2
100
AcDbLine
 10
866.400238
 20
140.964111
 30
0.0
 11
864.919678
 21
137.639069
 31
0.0
  0
LINE
  5
1F3
100
AcDbEntity
  8
_
  6
CONTINUOUS
 62
     2
100
AcDbLine
 10
848.985077
 20
144.744019
 30
0.0
 11
872.218414
 21
144.744019
 31
0.0
  0
ARC
  5
1F4
100
AcDbEntity
  8
_
  6
CONTINUOUS
 62
     2
100
AcDbCircle
 10
952.299286
 20
132.144073
 30
0.0
 40
15.624008
100
AcDbArc
 50
270.000031
 51
324.00116
  0
ARC
  5
1F5
100
AcDbEntity
  8
_
  6
CONTINUOUS
 62
     2
100
AcDbCircle
 10
952.299286
 20
132.144073
 30
0.0
 40
13.10401
100
AcDbArc
 50
270.000031
 51
324.00116
  0
ARC
  5
1F6
100
AcDbEntity
  8
_
  6
CONTINUOUS
 62
     2
100
AcDbCircle
 10
799.565674
 20
132.144073
 30
0.0
 40
15.62398
100
AcDbArc
 50
270.000031
 51
333.99855
  0
ARC
  5
1F7
100
AcDbEntity
  8
_
  6
CONTINUOUS
 62
     2
100
AcDbCircle
 10
798.765503
 20
132.144073
 30
0.0
 40
10.583992
100
AcDbArc
 50
270.000031
 51
333.99855
  0
ARC
  5
1F8
100
AcDbEntity
  8
_
  6
CONTINUOUS
 62
     2
100
AcDbCircle
 10
799.165588
 20
132.144073
 30
0.0
 40
13.103991
100
AcDbArc
 50
270.000031
 51
333.99855
  0
LINE
  5
1F9
100
AcDbEntity
  8
_
  6
CONTINUOUS
 62
     2
100
AcDbLine
 10
772.84082
 20
156.032127
 30
0.0
 11
797.383972
 21
156.032127
 31
0.0
  0
LINE
  5
1FA
100
AcDbEntity
  8
_
  6
CONTINUOUS
 62
     2
100
AcDbLine
 10
772.84082
 20
153.712143
 30
0.0
 11
797.383972
 21
153.712143
 31
0.0
  0
LINE
  5
1FB
100
AcDbEntity
  8
_
  6
CONTINUOUS
 62
     2
100
AcDbLine
 10
772.84082
 20
151.392311
 30
0.0
 11
797.383972
 21
151.392311
 31
0.0
  0
LINE
  5
1FC
100
AcDbEntity
  8
_
  6
CONTINUOUS
 62
     2
100
AcDbLine
 10
772.84082
 20
144.136032
 30
0.0
 11
797.383972
 21
144.136032
 31
0.0
  0
LINE
  5
1FD
100
AcDbEntity
  8
_
  6
CONTINUOUS
 62
     2
100
AcDbLine
 10
772.84082
 20
141.615891
 30
0.0
 11
797.383972
 21
141.615891
 31
0.0
  0
LINE
  5
1FE
100
AcDbEntity
  8
_
  6
CONTINUOUS
 62
     2
100
AcDbLine
 10
772.84082
 20
139.296059
 30
0.0
 11
797.383972
 21
139.296059
 31
0.0
  0
LINE
  5
1FF
100
AcDbEntity
  8
_
  6
CONTINUOUS
 62
     2
100
AcDbLine
 10
772.84082
 20
121.559967
 30
0.0
 11
798.765503
 21
121.559967
 31
0.0
  0
LINE
  5
200
100
AcDbEntity
  8
_
  6
CONTINUOUS
 62
     2
100
AcDbLine
 10
772.84082
 20
119.039978
 30
0.0
 11
798.765503
 21
119.039978
 31
0.0
  0
LINE
  5
201
100
AcDbEntity
  8
_
  6
CONTINUOUS
 62
     2
100
AcDbLine
 10
772.84082
 20
116.519989
 30
0.0
 11
798.765503
 21
116.519989
 31
0.0
  0
LINE
  5
202
100
AcDbEntity
  8
_
  6
CONTINUOUS
 62
     2
100
AcDbLine
 10
808.277069
 20
127.504028
 30
0.0
 11
817.108246
 21
145.610365
 31
0.0
  0
LINE
  5
203
100
AcDbEntity
  8
_
  6
CONTINUOUS
 62
     2
100
AcDbLine
 10
810.941254
 20
126.399597
 30
0.0
 11
820.311676
 21
145.610375
 31
0.0
  0
LINE
  5
204
100
AcDbEntity
  8
_
  6
CONTINUOUS
 62
     2
100
AcDbLine
 10
813.605286
 20
125.294251
 30
0.0
 11
823.513123
 21
145.610346
 31
0.0
  0
LINE
  5
205
100
AcDbEntity
  8
_
  6
CONTINUOUS
 62
     2
100
AcDbLine
 10
810.136353
 20
155.695976
 30
0.0
 11
814.518372
 21
155.695976
 31
0.0
  0
LINE
  5
206
100
AcDbEntity
  8
_
  6
CONTINUOUS
 62
     2
100
AcDbLine
 10
810.136353
 20
152.839989
 30
0.0
 11
814.518372
 21
152.839989
 31
0.0
  0
LINE
  5
207
100
AcDbEntity
  8
_
  6
CONTINUOUS
 62
     2
100
AcDbLine
 10
821.224915
 20
155.695976
 30
0.0
 11
825.606934
 21
155.695976
 31
0.0
  0
LINE
  5
208
100
AcDbEntity
  8
_
  6
CONTINUOUS
 62
     2
100
AcDbLine
 10
821.224915
 20
152.839989
 30
0.0
 11
825.606934
 21
152.839989
 31
0.0
  0
LINE
  5
209
100
AcDbEntity
  8
_
  6
CONTINUOUS
 62
     2
100
AcDbLine
 10
832.313477
 20
142.224182
 30
0.0
 11
844.28064
 21
142.224182
 31
0.0
  0
LINE
  5
20A
100
AcDbEntity
  8
_
  6
CONTINUOUS
 62
     2
100
AcDbLine
 10
841.375366
 20
152.502684
 30
0.0
 11
842.605072
 21
144.744019
 31
0.0
  0
LINE
  5
20B
100
AcDbEntity
  8
_
  6
CONTINUOUS
 62
     2
100
AcDbLine
 10
847.188049
 20
115.817303
 30
0.0
 11
843.449036
 21
139.419044
 31
0.0
  0
ARC
  5
20C
100
AcDbEntity
  8
_
  6
CONTINUOUS
 62
     2
100
AcDbCircle
 10
858.960968
 20
140.200409
 30
0.0
 40
8.820121
100
AcDbArc
 50
272.671387
 51
335.998779
  0
ARC
  5
20D
100
AcDbEntity
  8
_
  6
CONTINUOUS
 62
     2
100
AcDbCircle
 10
858.760925
 20
140.200409
 30
0.0
 40
11.340113
100
AcDbArc
 50
267.367432
 51
335.998779
  0
LINE
  5
20E
100
AcDbEntity
  8
_
  6
CONTINUOUS
 62
     2
100
AcDbLine
 10
873.351685
 20
145.090527
 30
0.0
 11
869.12149
 21
135.588593
 31
0.0
  0
LINE
  5
20F
100
AcDbEntity
  8
_
  6
CONTINUOUS
 62
     2
100
AcDbLine
 10
853.090607
 20
115.817303
 30
0.0
 11
849.220368
 21
140.248818
 31
0.0
  0
LINE
  5
210
100
AcDbEntity
  8
_
  6
CONTINUOUS
 62
     2
100
AcDbLine
 10
850.339295
 20
115.817303
 30
0.0
 11
844.528442
 21
152.502674
 31
0.0
  0
LINE
  5
211
100
AcDbEntity
  8
_
  6
CONTINUOUS
 62
     2
100
AcDbLine
 10
847.279755
 20
152.502674
 30
0.0
 11
848.39563
 21
145.459465
 31
0.0
  0
LINE
  5
212
100
AcDbEntity
  8
_
  6
CONTINUOUS
 62
     2
100
AcDbLine
 10
832.313477
 20
144.744019
 30
0.0
 11
840.605103
 21
144.744019
 31
0.0
  0
LINE
  5
213
100
AcDbEntity
  8
_
  6
CONTINUOUS
 62
     2
100
AcDbLine
 10
869.669891
 20
142.570395
 30
0.0
 11
867.020508
 21
136.613525
 31
0.0
  0
LINE
  5
214
100
AcDbEntity
  8
_
  6
CONTINUOUS
 62
     2
100
AcDbLine
 10
848.107391
 20
142.224182
 30
0.0
 11
867.338196
 21
142.224182
 31
0.0
  0
ARC
  5
215
100
AcDbEntity
  8
_
  6
CONTINUOUS
 62
     2
100
AcDbCircle
 10
858.560883
 20
140.200409
 30
0.0
 40
13.860111
100
AcDbArc
 50
269.611328
 51
335.998779
  0
LINE
  5
216
100
AcDbEntity
  8
_
  6
CONTINUOUS
 62
     2
100
AcDbLine
 10
875.909821
 20
145.090555
 30
0.0
 11
871.222473
 21
134.563355
 31
0.0
  0
LINE
  5
217
100
AcDbEntity
  8
_
  6
CONTINUOUS
 62
     2
100
AcDbLine
 10
983.312622
 20
153.312134
 30
0.0
 11
962.880646
 21
125.182709
 31
0.0
  0
LINE
  5
218
100
AcDbEntity
  8
_
  6
CONTINUOUS
 62
     2
100
AcDbLine
 10
977.868134
 20
150.792297
 30
0.0
 11
960.342041
 21
126.664032
 31
0.0
  0
ARC
  5
219
100
AcDbEntity
  8
_
  6
CONTINUOUS
 62
     2
100
AcDbCircle
 10
952.999359
 20
131.744064
 30
0.0
 40
9.324021
100
AcDbArc
 50
270.000031
 51
324.00116
  0
LINE
  5
21A
100
AcDbEntity
  8
_
  6
CONTINUOUS
 62
     2
100
AcDbLine
 10
883.879486
 20
156.015591
 30
0.0
 11
928.263641
 21
156.015591
 31
0.0
  0
LINE
  5
21B
100
AcDbEntity
  8
_
  6
CONTINUOUS
 62
     2
100
AcDbLine
 10
883.879486
 20
153.395752
 30
0.0
 11
928.263641
 21
153.395752
 31
0.0
  0
LINE
  5
21C
100
AcDbEntity
  8
_
  6
CONTINUOUS
 62
     2
100
AcDbLine
 10
883.879486
 20
150.675911
 30
0.0
 11
928.263641
 21
150.675911
 31
0.0
  0
LINE
  5
21D
100
AcDbEntity
  8
_
  6
CONTINUOUS
 62
     2
100
AcDbLine
 10
879.847656
 20
121.644043
 30
0.0
 11
932.295471
 21
121.644043
 31
0.0
  0
LINE
  5
21E
100
AcDbEntity
  8
_
  6
CONTINUOUS
 62
     2
100
AcDbLine
 10
879.847656
 20
119.124054
 30
0.0
 11
932.295471
 21
119.124054
 31
0.0
  0
LINE
  5
21F
100
AcDbEntity
  8
_
  6
CONTINUOUS
 62
     2
100
AcDbLine
 10
879.847656
 20
116.403908
 30
0.0
 11
932.295471
 21
116.403908
 31
0.0
  0
LINE
  5
220
100
AcDbEntity
  8
_
  6
CONTINUOUS
 62
     2
100
AcDbLine
 10
943.352142
 20
155.932125
 30
0.0
 11
986.256805
 21
155.932125
 31
0.0
  0
LINE
  5
221
100
AcDbEntity
  8
_
  6
CONTINUOUS
 62
     2
100
AcDbLine
 10
988.856903
 20
155.832123
 30
0.0
 11
965.519043
 21
123.700623
 31
0.0
  0
LINE
  5
222
100
AcDbEntity
  8
_
  6
CONTINUOUS
 62
     2
100
AcDbLine
 10
943.352142
 20
153.312134
 30
0.0
 11
981.3125
 21
153.312134
 31
0.0
  0
LINE
  5
223
100
AcDbEntity
  8
_
  6
CONTINUOUS
 62
     2
100
AcDbLine
 10
952.299286
 20
121.659969
 30
0.0
 11
939.320313
 21
121.659969
 31
0.0
  0
LINE
  5
224
100
AcDbEntity
  8
_
  6
CONTINUOUS
 62
     2
100
AcDbLine
 10
952.299286
 20
119.039978
 30
0.0
 11
939.320313
 21
119.039978
 31
0.0
  0
LINE
  5
225
100
AcDbEntity
  8
_
  6
CONTINUOUS
 62
     2
100
AcDbLine
 10
952.299286
 20
116.419987
 30
0.0
 11
939.320313
 21
116.419987
 31
0.0
  0
LINE
  5
226
100
AcDbEntity
  8
_
  6
CONTINUOUS
 62
     2
100
AcDbLine
 10
972.431885
 20
129.737152
 30
0.0
 11
984.371582
 21
115.999998
 31
0.0
  0
LINE
  5
227
100
AcDbEntity
  8
_
  6
CONTINUOUS
 62
     2
100
AcDbLine
 10
973.953491
 20
131.530508
 30
0.0
 11
987.451721
 21
115.999998
 31
0.0
  0
LINE
  5
228
100
AcDbEntity
  8
_
  6
CONTINUOUS
 62
     2
100
AcDbLine
 10
975.473114
 20
133.322949
 30
0.0
 11
990.529419
 21
115.999998
 31
0.0
  0
LINE
  5
229
100
AcDbEntity
  8
_
  6
CONTINUOUS
 62
     2
100
AcDbLine
 10
976.992737
 20
135.115847
 30
0.0
 11
993.609253
 21
115.999998
 31
0.0
  0
LINE
  5
22A
100
AcDbEntity
  8
_
  6
CONTINUOUS
 62
     2
100
AcDbLine
 10
943.352142
 20
150.592293
 30
0.0
 11
975.367981
 21
150.592293
 31
0.0
  0
LINE
  5
22B
100
AcDbEntity
  8
_
  6
CONTINUOUS
 62
     2
100
AcDbLine
 10
1011.895538
 20
156.032127
 30
0.0
 11
1060.311371
 21
156.032127
 31
0.0
  0
LINE
  5
22C
100
AcDbEntity
  8
_
  6
CONTINUOUS
 62
     2
100
AcDbLine
 10
1011.895538
 20
153.512138
 30
0.0
 11
1060.311371
 21
153.512138
 31
0.0
  0
LINE
  5
22D
100
AcDbEntity
  8
_
  6
CONTINUOUS
 62
     2
100
AcDbLine
 10
1032.677399
 20
121.479916
 30
0.0
 11
1032.677399
 21
151.212219
 31
0.0
  0
LINE
  5
22E
100
AcDbEntity
  8
_
  6
CONTINUOUS
 62
     2
100
AcDbLine
 10
1035.195862
 20
121.479916
 30
0.0
 11
1035.195862
 21
151.212219
 31
0.0
  0
LINE
  5
22F
100
AcDbEntity
  8
_
  6
CONTINUOUS
 62
     2
100
AcDbLine
 10
1037.714172
 20
121.479916
 30
0.0
 11
1037.714172
 21
151.212219
 31
0.0
  0
LINE
  5
230
100
AcDbEntity
  8
_
  6
CONTINUOUS
 62
     2
100
AcDbLine
 10
1040.03244
 20
121.479916
 30
0.0
 11
1040.03244
 21
151.212219
 31
0.0
  0
LINE
  5
231
100
AcDbEntity
  8
_
  6
CONTINUOUS
 62
     2
100
AcDbLine
 10
1009.879547
 20
119.479918
 30
0.0
 11
1062.327362
 21
119.479918
 31
0.0
  0
LINE
  5
232
100
AcDbEntity
  8
_
  6
CONTINUOUS
 62
     2
100
AcDbLine
 10
1009.879547
 20
116.459927
 30
0.0
 11
1062.327362
 21
116.459927
 31
0.0
  0
LINE
  5
233
100
AcDbEntity
  8
_
  6
CONTINUOUS
 62
     2
100
AcDbLine
 10
1074.127594
 20
156.351961
 30
0.0
 11
1077.87088
 21
151.561502
 31
0.0
  0
LINE
  5
234
100
AcDbEntity
  8
_
  6
CONTINUOUS
 62
     2
100
AcDbLine
 10
1077.324768
 20
156.351961
 30
0.0
 11
1081.068054
 21
151.561502
 31
0.0
  0
LINE
  5
235
100
AcDbEntity
  8
_
  6
CONTINUOUS
 62
     2
100
AcDbLine
 10
1087.31134
 20
156.351961
 30
0.0
 11
1087.31134
 21
151.985563
 31
0.0
  0
LINE
  5
236
100
AcDbEntity
  8
_
  6
CONTINUOUS
 62
     2
100
AcDbLine
 10
1090.029846
 20
156.351961
 30
0.0
 11
1090.029846
 21
151.985563
 31
0.0
  0
LINE
  5
237
100
AcDbEntity
  8
_
  6
CONTINUOUS
 62
     2
100
AcDbLine
 10
1097.390991
 20
156.351961
 30
0.0
 11
1097.390991
 21
151.985563
 31
0.0
  0
LINE
  5
238
100
AcDbEntity
  8
_
  6
CONTINUOUS
 62
     2
100
AcDbLine
 10
1100.309387
 20
156.351961
 30
0.0
 11
1100.309387
 21
151.985563
 31
0.0
  0
LINE
  5
239
100
AcDbEntity
  8
_
  6
CONTINUOUS
 62
     2
100
AcDbLine
 10
1109.995667
 20
156.351961
 30
0.0
 11
1106.25238
 21
151.561502
 31
0.0
  0
LINE
  5
23A
100
AcDbEntity
  8
_
  6
CONTINUOUS
 62
     2
100
AcDbLine
 10
1113.392883
 20
156.351961
 30
0.0
 11
1109.649597
 21
151.561502
 31
0.0
  0
LINE
  5
23B
100
AcDbEntity
  8
_
  6
CONTINUOUS
 62
     2
100
AcDbLine
 10
1067.336212
 20
149.985565
 30
0.0
 11
1119.784027
 21
149.985565
 31
0.0
  0
LINE
  5
23C
100
AcDbEntity
  8
_
  6
CONTINUOUS
 62
     2
100
AcDbLine
 10
1080.431763
 20
142.188286
 30
0.0
 11
1078.277832
 21
148.106178
 31
0.0
  0
LINE
  5
23D
100
AcDbEntity
  8
_
  6
CONTINUOUS
 62
     2
100
AcDbLine
 10
1083.512207
 20
142.188286
 30
0.0
 11
1081.358276
 21
148.106178
 31
0.0
  0
LINE
  5
23E
100
AcDbEntity
  8
_
  6
CONTINUOUS
 62
     2
100
AcDbLine
 10
1086.392609
 20
142.188515
 30
0.0
 11
1084.241119
 21
148.105949
 31
0.0
  0
LINE
  5
23F
100
AcDbEntity
  8
_
  6
CONTINUOUS
 62
     2
100
AcDbLine
 10
1100.919434
 20
142.188066
 30
0.0
 11
1103.075653
 21
148.106398
 31
0.0
  0
LINE
  5
240
100
AcDbEntity
  8
_
  6
CONTINUOUS
 62
     2
100
AcDbLine
 10
1104.002014
 20
142.188066
 30
0.0
 11
1106.158234
 21
148.106398
 31
0.0
  0
LINE
  5
241
100
AcDbEntity
  8
_
  6
CONTINUOUS
 62
     2
100
AcDbLine
 10
1106.882416
 20
142.188066
 30
0.0
 11
1109.038635
 21
148.106398
 31
0.0
  0
LINE
  5
242
100
AcDbEntity
  8
_
  6
CONTINUOUS
 62
     2
100
AcDbLine
 10
1067.336212
 20
140.308899
 30
0.0
 11
1119.784027
 21
140.308899
 31
0.0
  0
LINE
  5
243
100
AcDbEntity
  8
_
  6
CONTINUOUS
 62
     2
100
AcDbLine
 10
1067.336212
 20
133.353638
 30
0.0
 11
1088.838745
 21
133.353638
 31
0.0
  0
LINE
  5
244
100
AcDbEntity
  8
_
  6
CONTINUOUS
 62
     2
100
AcDbLine
 10
1067.336212
 20
126.398377
 30
0.0
 11
1088.838745
 21
126.398377
 31
0.0
  0
LINE
  5
245
100
AcDbEntity
  8
_
  6
CONTINUOUS
 62
     2
100
AcDbLine
 10
1098.475586
 20
126.398377
 30
0.0
 11
1119.784027
 21
126.398377
 31
0.0
  0
LINE
  5
246
100
AcDbEntity
  8
_
  6
CONTINUOUS
 62
     2
100
AcDbLine
 10
1070.50882
 20
115.999998
 30
0.0
 11
1080.533234
 21
125.057539
 31
0.0
  0
LINE
  5
247
100
AcDbEntity
  8
_
  6
CONTINUOUS
 62
     2
100
AcDbLine
 10
1073.867737
 20
115.999998
 30
0.0
 11
1083.892456
 21
125.057558
 31
0.0
  0
LINE
  5
248
100
AcDbEntity
  8
_
  6
CONTINUOUS
 62
     2
100
AcDbLine
 10
1077.028748
 20
115.999998
 30
0.0
 11
1087.053467
 21
125.057558
 31
0.0
  0
LINE
  5
249
100
AcDbEntity
  8
_
  6
CONTINUOUS
 62
     2
100
AcDbLine
 10
1090.838715
 20
115.999998
 30
0.0
 11
1090.838715
 21
138.308901
 31
0.0
  0
LINE
  5
24A
100
AcDbEntity
  8
_
  6
CONTINUOUS
 62
     2
100
AcDbLine
 10
1093.757111
 20
115.999998
 30
0.0
 11
1093.757111
 21
138.308901
 31
0.0
  0
LINE
  5
24B
100
AcDbEntity
  8
_
  6
CONTINUOUS
 62
     2
100
AcDbLine
 10
1096.475616
 20
115.999998
 30
0.0
 11
1096.475616
 21
138.308901
 31
0.0
  0
LINE
  5
24C
100
AcDbEntity
  8
_
  6
CONTINUOUS
 62
     2
100
AcDbLine
 10
1110.171753
 20
115.999998
 30
0.0
 11
1100.147339
 21
125.057539
 31
0.0
  0
LINE
  5
24D
100
AcDbEntity
  8
_
  6
CONTINUOUS
 62
     2
100
AcDbLine
 10
1113.530823
 20
115.999998
 30
0.0
 11
1103.506104
 21
125.057558
 31
0.0
  0
LINE
  5
24E
100
AcDbEntity
  8
_
  6
CONTINUOUS
 62
     2
100
AcDbLine
 10
1116.891876
 20
115.999998
 30
0.0
 11
1106.867157
 21
125.057558
 31
0.0
  0
LINE
  5
24F
100
AcDbEntity
  8
_
  6
CONTINUOUS
 62
     2
100
AcDbLine
 10
1135.997864
 20
156.351961
 30
0.0
 11
1135.997864
 21
152.79199
 31
0.0
  0
LINE
  5
250
100
AcDbEntity
  8
_
  6
CONTINUOUS
 62
     2
100
AcDbLine
 10
1138.516174
 20
156.351961
 30
0.0
 11
1138.516174
 21
152.79199
 31
0.0
  0
LINE
  5
251
100
AcDbEntity
  8
_
  6
CONTINUOUS
 62
     2
100
AcDbLine
 10
1141.034637
 20
156.351961
 30
0.0
 11
1141.034637
 21
152.79199
 31
0.0
  0
LINE
  5
252
100
AcDbEntity
  8
_
  6
CONTINUOUS
 62
     2
100
AcDbLine
 10
1125.799957
 20
150.791992
 30
0.0
 11
1143.975159
 21
150.791992
 31
0.0
  0
LINE
  5
253
100
AcDbEntity
  8
_
  6
CONTINUOUS
 62
     2
100
AcDbLine
 10
1125.944153
 20
115.98905
 30
0.0
 11
1129.392029
 21
148.802942
 31
0.0
  0
LINE
  5
254
100
AcDbEntity
  8
_
  6
CONTINUOUS
 62
     2
100
AcDbLine
 10
1128.276764
 20
115.98905
 30
0.0
 11
1131.724792
 21
148.802942
 31
0.0
  0
LINE
  5
255
100
AcDbEntity
  8
_
  6
CONTINUOUS
 62
     2
100
AcDbLine
 10
1135.997864
 20
115.999998
 30
0.0
 11
1135.997864
 21
148.791994
 31
0.0
  0
LINE
  5
256
100
AcDbEntity
  8
_
  6
CONTINUOUS
 62
     2
100
AcDbLine
 10
1138.516174
 20
115.999998
 30
0.0
 11
1138.516174
 21
148.791994
 31
0.0
  0
LINE
  5
257
100
AcDbEntity
  8
_
  6
CONTINUOUS
 62
     2
100
AcDbLine
 10
1141.034637
 20
115.999998
 30
0.0
 11
1141.034637
 21
148.791994
 31
0.0
  0
LINE
  5
258
100
AcDbEntity
  8
_
  6
CONTINUOUS
 62
     2
100
AcDbLine
 10
1142.209259
 20
146.154245
 30
0.0
 11
1144.800354
 21
142.583841
 31
0.0
  0
LINE
  5
259
100
AcDbEntity
  8
_
  6
CONTINUOUS
 62
     2
100
AcDbLine
 10
1142.209259
 20
142.264246
 30
0.0
 11
1144.800354
 21
138.693842
 31
0.0
  0
LINE
  5
25A
100
AcDbEntity
  8
_
  6
CONTINUOUS
 62
     2
100
AcDbLine
 10
1148.469177
 20
147.188601
 30
0.0
 11
1150.768829
 21
156.411375
 31
0.0
  0
LINE
  5
25B
100
AcDbEntity
  8
_
  6
CONTINUOUS
 62
     2
100
AcDbLine
 10
1150.867401
 20
147.188686
 30
0.0
 11
1153.165222
 21
156.411289
 31
0.0
  0
LINE
  5
25C
100
AcDbEntity
  8
_
  6
CONTINUOUS
 62
     2
100
AcDbLine
 10
1152.963806
 20
147.188601
 30
0.0
 11
1155.263458
 21
156.411375
 31
0.0
  0
LINE
  5
25D
100
AcDbEntity
  8
_
  6
CONTINUOUS
 62
     2
100
AcDbLine
 10
1161.702362
 20
152.79199
 30
0.0
 11
1161.702362
 21
156.351961
 31
0.0
  0
LINE
  5
25E
100
AcDbEntity
  8
_
  6
CONTINUOUS
 62
     2
100
AcDbLine
 10
1164.420715
 20
152.79199
 30
0.0
 11
1164.420715
 21
156.351961
 31
0.0
  0
LINE
  5
25F
100
AcDbEntity
  8
_
  6
CONTINUOUS
 62
     2
100
AcDbLine
 10
1166.939179
 20
152.79199
 30
0.0
 11
1166.939179
 21
156.351961
 31
0.0
  0
LINE
  5
260
100
AcDbEntity
  8
_
  6
CONTINUOUS
 62
     2
100
AcDbLine
 10
1155.862213
 20
150.791992
 30
0.0
 11
1178.247772
 21
150.791992
 31
0.0
  0
LINE
  5
261
100
AcDbEntity
  8
_
  6
CONTINUOUS
 62
     2
100
AcDbLine
 10
1161.702362
 20
148.791994
 30
0.0
 11
1161.702362
 21
142.712034
 31
0.0
  0
LINE
  5
262
100
AcDbEntity
  8
_
  6
CONTINUOUS
 62
     2
100
AcDbLine
 10
1164.420715
 20
148.791994
 30
0.0
 11
1164.420715
 21
142.712034
 31
0.0
  0
LINE
  5
263
100
AcDbEntity
  8
_
  6
CONTINUOUS
 62
     2
100
AcDbLine
 10
1166.939179
 20
148.791994
 30
0.0
 11
1166.939179
 21
142.712034
 31
0.0
  0
LINE
  5
264
100
AcDbEntity
  8
_
  6
CONTINUOUS
 62
     2
100
AcDbLine
 10
1148.984009
 20
140.712036
 30
0.0
 11
1179.256683
 21
140.712036
 31
0.0
  0
LINE
  5
265
100
AcDbEntity
  8
_
  6
CONTINUOUS
 62
     2
100
AcDbLine
 10
1153.447968
 20
138.744387
 30
0.0
 11
1149.300781
 21
115.96765
 31
0.0
  0
LINE
  5
266
100
AcDbEntity
  8
_
  6
CONTINUOUS
 62
     2
100
AcDbLine
 10
1155.807282
 20
138.744387
 30
0.0
 11
1151.660248
 21
115.96765
 31
0.0
  0
LINE
  5
267
100
AcDbEntity
  8
_
  6
CONTINUOUS
 62
     2
100
AcDbLine
 10
1157.889191
 20
138.744415
 30
0.0
 11
1153.740021
 21
115.967621
 31
0.0
  0
LINE
  5
268
100
AcDbEntity
  8
_
  6
CONTINUOUS
 62
     2
100
AcDbLine
 10
1161.702362
 20
138.712038
 30
0.0
 11
1161.702362
 21
115.999998
 31
0.0
  0
LINE
  5
269
100
AcDbEntity
  8
_
  6
CONTINUOUS
 62
     2
100
AcDbLine
 10
1164.220673
 20
138.712038
 30
0.0
 11
1164.220673
 21
115.999998
 31
0.0
  0
LINE
  5
26A
100
AcDbEntity
  8
_
  6
CONTINUOUS
 62
     3
100
AcDbLine
 10
1166.939179
 20
138.712038
 30
0.0
 11
1166.939179
 21
115.999998
 31
0.0
  0
LINE
  5
26B
100
AcDbEntity
  8
_
  6
CONTINUOUS
 62
     2
100
AcDbLine
 10
1170.349518
 20
138.744415
 30
0.0
 11
1174.498688
 21
115.967621
 31
0.0
  0
LINE
  5
26C
100
AcDbEntity
  8
_
  6
CONTINUOUS
 62
     2
100
AcDbLine
 10
1172.510925
 20
138.744415
 30
0.0
 11
1176.660095
 21
115.967621
 31
0.0
  0
LINE
  5
26D
100
AcDbEntity
  8
_
  6
CONTINUOUS
 62
     2
100
AcDbLine
 10
1175.070282
 20
138.744415
 30
0.0
 11
1179.219452
 21
115.967621
 31
0.0
  0
LINE
  5
26E
100
AcDbEntity
  8
_
  6
CONTINUOUS
 62
     2
100
AcDbLine
 10
1185.272614
 20
152.400154
 30
0.0
 11
1213.824097
 21
152.400154
 31
0.0
  0
LINE
  5
26F
100
AcDbEntity
  8
_
  6
CONTINUOUS
 62
     2
100
AcDbLine
 10
1185.272614
 20
149.880165
 30
0.0
 11
1214.741303
 21
149.880165
 31
0.0
  0
LINE
  5
270
100
AcDbEntity
  8
_
  6
CONTINUOUS
 62
     2
100
AcDbLine
 10
1229.116608
 20
115.879387
 30
0.0
 11
1214.34198
 21
156.472572
 31
0.0
  0
LINE
  5
271
100
AcDbEntity
  8
_
  6
CONTINUOUS
 62
     2
100
AcDbLine
 10
1231.796967
 20
115.879396
 30
0.0
 11
1217.022949
 21
156.472563
 31
0.0
  0
LINE
  5
272
100
AcDbEntity
  8
_
  6
CONTINUOUS
 62
     2
100
AcDbLine
 10
1234.477326
 20
115.879396
 30
0.0
 11
1219.703308
 21
156.472563
 31
0.0
  0
LINE
  5
273
100
AcDbEntity
  8
_
  6
CONTINUOUS
 62
     2
100
AcDbLine
 10
1237.157684
 20
115.879358
 30
0.0
 11
1222.381378
 21
156.472591
 31
0.0
  0
LINE
  5
274
100
AcDbEntity
  8
_
  6
CONTINUOUS
 62
     2
100
AcDbLine
 10
1229.543091
 20
154.400152
 30
0.0
 11
1229.543091
 21
156.351961
 31
0.0
  0
LINE
  5
275
100
AcDbEntity
  8
_
  6
CONTINUOUS
 62
     2
100
AcDbLine
 10
1232.261597
 20
154.400152
 30
0.0
 11
1232.261597
 21
156.351961
 31
0.0
  0
LINE
  5
276
100
AcDbEntity
  8
_
  6
CONTINUOUS
 62
     2
100
AcDbLine
 10
1234.97995
 20
154.400152
 30
0.0
 11
1234.97995
 21
156.351961
 31
0.0
  0
LINE
  5
277
100
AcDbEntity
  8
_
  6
CONTINUOUS
 62
     2
100
AcDbLine
 10
1225.863739
 20
152.400154
 30
0.0
 11
1237.720429
 21
152.400154
 31
0.0
  0
LINE
  5
278
100
AcDbEntity
  8
_
  6
CONTINUOUS
 62
     2
100
AcDbLine
 10
1226.781098
 20
149.880165
 30
0.0
 11
1237.720429
 21
149.880165
 31
0.0
  0
LINE
  5
279
100
AcDbEntity
  8
_
  6
CONTINUOUS
 62
     2
100
AcDbLine
 10
1188.295532
 20
140.364098
 30
0.0
 11
1214.536377
 21
140.364098
 31
0.0
  0
LINE
  5
27A
100
AcDbEntity
  8
_
  6
CONTINUOUS
 62
     2
100
AcDbLine
 10
1188.295532
 20
137.843956
 30
0.0
 11
1214.536377
 21
137.843956
 31
0.0
  0
LINE
  5
27B
100
AcDbEntity
  8
_
  6
CONTINUOUS
 62
     2
100
AcDbLine
 10
1197.790924
 20
135.843958
 30
0.0
 11
1197.790924
 21
125.791153
 31
0.0
  0
LINE
  5
27C
100
AcDbEntity
  8
_
  6
CONTINUOUS
 62
     2
100
AcDbLine
 10
1200.309235
 20
135.843958
 30
0.0
 11
1200.309235
 21
126.326431
 31
0.0
  0
LINE
  5
27D
100
AcDbEntity
  8
_
  6
CONTINUOUS
 62
     2
100
AcDbLine
 10
1202.827545
 20
135.843958
 30
0.0
 11
1202.827545
 21
126.861719
 31
0.0
  0
LINE
  5
27E
100
AcDbEntity
  8
_
  6
CONTINUOUS
 62
     2
100
AcDbLine
 10
1205.346008
 20
135.843958
 30
0.0
 11
1205.346008
 21
127.397026
 31
0.0
  0
LINE
  5
27F
100
AcDbEntity
  8
_
  6
CONTINUOUS
 62
     2
100
AcDbLine
 10
1187.747284
 20
121.656317
 30
0.0
 11
1215.084473
 21
127.466997
 31
0.0
  0
LINE
  5
280
100
AcDbEntity
  8
_
  6
CONTINUOUS
 62
     2
100
AcDbLine
 10
1187.747284
 20
118.880028
 30
0.0
 11
1215.084473
 21
124.690851
 31
0.0
  0
LINE
  5
281
100
AcDbEntity
  8
_
  6
CONTINUOUS
 62
     2
100
AcDbLine
 10
1187.747284
 20
116.503729
 30
0.0
 11
1215.084473
 21
122.314409
 31
0.0
  0
LINE
  5
282
100
AcDbEntity
  8
_
  6
CONTINUOUS
 62
     2
100
AcDbLine
 10
1243.633057
 20
148.325943
 30
0.0
 11
1269.51532
 21
156.985401
 31
0.0
  0
LINE
  5
283
100
AcDbEntity
  8
_
  6
CONTINUOUS
 62
     2
100
AcDbLine
 10
1243.633057
 20
145.668625
 30
0.0
 11
1269.51532
 21
154.328236
 31
0.0
  0
LINE
  5
284
100
AcDbEntity
  8
_
  6
CONTINUOUS
 62
     2
100
AcDbLine
 10
1271.411987
 20
156.985392
 30
0.0
 11
1297.294403
 21
148.325304
 31
0.0
  0
LINE
  5
285
100
AcDbEntity
  8
_
  6
CONTINUOUS
 62
     2
100
AcDbLine
 10
1271.411987
 20
154.528231
 30
0.0
 11
1297.294403
 21
145.868143
 31
0.0
  0
LINE
  5
286
100
AcDbEntity
  8
_
  6
CONTINUOUS
 62
     2
100
AcDbLine
 10
1288.62497
 20
145.596107
 30
0.0
 11
1252.304474
 21
145.596107
 31
0.0
  0
LINE
  5
287
100
AcDbEntity
  8
_
  6
CONTINUOUS
 62
     2
100
AcDbLine
 10
1288.62497
 20
142.875961
 30
0.0
 11
1252.304474
 21
142.875961
 31
0.0
  0
LINE
  5
288
100
AcDbEntity
  8
_
  6
CONTINUOUS
 62
     2
100
AcDbLine
 10
1243.736359
 20
135.063919
 30
0.0
 11
1297.191101
 21
135.063919
 31
0.0
  0
LINE
  5
289
100
AcDbEntity
  8
_
  6
CONTINUOUS
 62
     2
100
AcDbLine
 10
1243.736359
 20
132.744087
 30
0.0
 11
1297.191101
 21
132.744087
 31
0.0
  0
LINE
  5
28A
100
AcDbEntity
  8
_
  6
CONTINUOUS
 62
     2
100
AcDbLine
 10
1252.013336
 20
130.931534
 30
0.0
 11
1246.911255
 21
119.99246
 31
0.0
  0
LINE
  5
28B
100
AcDbEntity
  8
_
  6
CONTINUOUS
 62
     2
100
AcDbLine
 10
1255.194336
 20
130.931543
 30
0.0
 11
1250.092102
 21
119.99246
 31
0.0
  0
LINE
  5
28C
100
AcDbEntity
  8
_
  6
CONTINUOUS
 62
     2
100
AcDbLine
 10
1258.375336
 20
130.931543
 30
0.0
 11
1253.273102
 21
119.99246
 31
0.0
  0
LINE
  5
28D
100
AcDbEntity
  8
_
  6
CONTINUOUS
 62
     2
100
AcDbLine
 10
1282.554108
 20
130.931667
 30
0.0
 11
1287.658325
 21
119.992336
 31
0.0
  0
LINE
  5
28E
100
AcDbEntity
  8
_
  6
CONTINUOUS
 62
     2
100
AcDbLine
 10
1285.737091
 20
130.931419
 30
0.0
 11
1290.837036
 21
119.992584
 31
0.0
  0
LINE
  5
28F
100
AcDbEntity
  8
_
  6
CONTINUOUS
 62
     2
100
AcDbLine
 10
1288.919922
 20
130.931314
 30
0.0
 11
1294.018189
 21
119.992689
 31
0.0
  0
LINE
  5
290
100
AcDbEntity
  8
_
  6
CONTINUOUS
 62
     2
100
AcDbLine
 10
1245.685364
 20
118.179916
 30
0.0
 11
1295.242096
 21
118.179916
 31
0.0
  0
LINE
  5
291
100
AcDbEntity
  8
_
  6
CONTINUOUS
 62
     2
100
AcDbLine
 10
1244.510284
 20
115.659927
 30
0.0
 11
1296.417175
 21
115.659927
 31
0.0
  0
LINE
  5
292
100
AcDbEntity
  8
_
  6
CONTINUOUS
 62
     2
100
AcDbLine
 10
1312.397858
 20
154.400152
 30
0.0
 11
1312.397858
 21
156.351961
 31
0.0
  0
LINE
  5
293
100
AcDbEntity
  8
_
  6
CONTINUOUS
 62
     2
100
AcDbLine
 10
1315.316254
 20
154.400152
 30
0.0
 11
1315.316254
 21
156.351961
 31
0.0
  0
LINE
  5
294
100
AcDbEntity
  8
_
  6
CONTINUOUS
 62
     2
100
AcDbLine
 10
1318.234802
 20
154.400152
 30
0.0
 11
1318.234802
 21
156.351961
 31
0.0
  0
LINE
  5
295
100
AcDbEntity
  8
_
  6
CONTINUOUS
 62
     2
100
AcDbLine
 10
1303.206879
 20
152.400154
 30
0.0
 11
1326.087891
 21
152.400154
 31
0.0
  0
LINE
  5
296
100
AcDbEntity
  8
_
  6
CONTINUOUS
 62
     2
100
AcDbLine
 10
1303.206879
 20
149.880165
 30
0.0
 11
1324.323822
 21
149.880165
 31
0.0
  0
LINE
  5
297
100
AcDbEntity
  8
_
  6
CONTINUOUS
 62
     2
100
AcDbLine
 10
1316.379181
 20
148.241676
 30
0.0
 11
1302.35376
 21
128.204722
 31
0.0
  0
LINE
  5
298
100
AcDbEntity
  8
_
  6
CONTINUOUS
 62
     2
100
AcDbLine
 10
1319.656616
 20
148.2418
 30
0.0
 11
1302.353912
 21
123.528513
 31
0.0
  0
LINE
  5
299
100
AcDbEntity
  8
_
  6
CONTINUOUS
 62
     2
100
AcDbLine
 10
1322.737976
 20
148.241772
 30
0.0
 11
1302.353912
 21
119.125732
 31
0.0
  0
LINE
  5
29A
100
AcDbEntity
  8
_
  6
CONTINUOUS
 62
     2
100
AcDbLine
 10
1317.929932
 20
137.88691
 30
0.0
 11
1326.786743
 21
131.684641
 31
0.0
  0
LINE
  5
29B
100
AcDbEntity
  8
_
  6
CONTINUOUS
 62
     2
100
AcDbLine
 10
1316.484467
 20
135.821995
 30
0.0
 11
1326.786591
 21
128.607992
 31
0.0
  0
LINE
  5
29C
100
AcDbEntity
  8
_
  6
CONTINUOUS
 62
     2
100
AcDbLine
 10
1314.945007
 20
133.623127
 30
0.0
 11
1326.786591
 21
125.331501
 31
0.0
  0
LINE
  5
29D
100
AcDbEntity
  8
_
  6
CONTINUOUS
 62
     2
100
AcDbLine
 10
1312.397858
 20
131.472229
 30
0.0
 11
1312.397858
 21
115.999998
 31
0.0
  0
LINE
  5
29E
100
AcDbEntity
  8
_
  6
CONTINUOUS
 62
     2
100
AcDbLine
 10
1315.316254
 20
131.363157
 30
0.0
 11
1315.316254
 21
115.999998
 31
0.0
  0
LINE
  5
29F
100
AcDbEntity
  8
_
  6
CONTINUOUS
 62
     2
100
AcDbLine
 10
1318.234802
 20
129.319567
 30
0.0
 11
1318.234802
 21
115.999998
 31
0.0
  0
LINE
  5
2A0
100
AcDbEntity
  8
_
  6
CONTINUOUS
 62
     2
100
AcDbLine
 10
1339.613739
 20
120.179915
 30
0.0
 11
1339.613739
 21
156.351961
 31
0.0
  0
LINE
  5
2A1
100
AcDbEntity
  8
_
  6
CONTINUOUS
 62
     2
100
AcDbLine
 10
1342.532135
 20
120.179915
 30
0.0
 11
1342.532135
 21
156.351961
 31
0.0
  0
LINE
  5
2A2
100
AcDbEntity
  8
_
  6
CONTINUOUS
 62
     2
100
AcDbLine
 10
1345.450684
 20
120.179915
 30
0.0
 11
1345.450684
 21
156.351961
 31
0.0
  0
LINE
  5
2A3
100
AcDbEntity
  8
_
  6
CONTINUOUS
 62
     2
100
AcDbLine
 10
1330.424896
 20
145.344032
 30
0.0
 11
1337.61377
 21
145.344032
 31
0.0
  0
LINE
  5
2A4
100
AcDbEntity
  8
_
  6
CONTINUOUS
 62
     2
100
AcDbLine
 10
1330.424896
 20
142.824196
 30
0.0
 11
1337.61377
 21
142.824196
 31
0.0
  0
LINE
  5
2A5
100
AcDbEntity
  8
_
  6
CONTINUOUS
 62
     2
100
AcDbLine
 10
1347.450653
 20
145.344032
 30
0.0
 11
1354.647766
 21
145.344032
 31
0.0
  0
LINE
  5
2A6
100
AcDbEntity
  8
_
  6
CONTINUOUS
 62
     2
100
AcDbLine
 10
1347.450653
 20
142.624191
 30
0.0
 11
1354.647766
 21
142.624191
 31
0.0
  0
LINE
  5
2A7
100
AcDbEntity
  8
_
  6
CONTINUOUS
 62
     2
100
AcDbLine
 10
1326.39093
 20
118.179916
 30
0.0
 11
1355.656677
 21
118.179916
 31
0.0
  0
LINE
  5
2A8
100
AcDbEntity
  8
_
  6
CONTINUOUS
 62
     2
100
AcDbLine
 10
1326.39093
 20
115.659927
 30
0.0
 11
1355.656677
 21
115.659927
 31
0.0
  0
LINE
  5
2A9
100
AcDbEntity
  8
_
  6
CONTINUOUS
 62
     2
100
AcDbLine
 10
1098.475586
 20
133.353638
 30
0.0
 11
1119.784027
 21
133.353638
 31
0.0
  0
TEXT
  5
2AA
100
AcDbEntity
  8
_
  6
CONTINUOUS
 62
     7
100
AcDbText
 10
1454.25
 20
100.75
 30
0.0
 40
70.0
  1
Ｕ０３３Ａ００１
 41
0.795
  7
EXCADSTD
 72
     5
 11
1984.25
 21
100.75
 31
0.0
100
AcDbText
  0
TEXT
  5
2AB
100
AcDbEntity
  8
_
  6
CONTINUOUS
 62
     2
100
AcDbText
 10
808.250003
 20
230.75
 30
0.0
 40
65.0
  1
簡易水洗小便器（洗浄弁式）
 41
0.599929
  7
EXCADSTD
 72
     5
 11
1411.749997
 21
230.75
 31
0.0
100
AcDbText
  0
TEXT
  5
2AC
100
AcDbEntity
  8
_
  6
CONTINUOUS
 62
     2
100
AcDbText
 10
1435.0
 20
211.75
 30
0.0
 40
65.0
  1
ＵＳ３３Ａ６
 41
0.818462
  7
EXCADSTD
 72
     5
 11
1815.0
 21
211.75
 31
0.0
100
AcDbText
  0
LINE
  5
2AD
100
AcDbEntity
  8
_
  6
CONTINUOUS
 62
     7
100
AcDbLine
 10
442.856751
 20
504.0
 30
0.0
 11
1162.145844
 21
504.0
 31
0.0
  0
LINE
  5
2AE
100
AcDbEntity
  8
_
  6
CONTINUOUS
 62
     7
100
AcDbLine
 10
1750.810394
 20
504.0
 30
0.0
 11
1750.810394
 21
1923.245606
 31
0.0
  0
LINE
  5
2AF
100
AcDbEntity
  8
_
  6
CONTINUOUS
 62
     7
100
AcDbLine
 10
1296.88858
 20
504.0
 30
0.0
 11
1750.810394
 21
504.0
 31
0.0
  0
TEXT
  5
2B0
100
AcDbEntity
  8
_
  6
CONTINUOUS
 62
     2
100
AcDbText
 10
1745.881714
 20
1802.004272
 30
0.0
 40
40.0
  1
Ｗ．Ｌ
 50
90.0
 41
0.805
  7
EXCADSTD
 72
     5
 11
1745.881714
 21
1917.004272
 31
0.0
100
AcDbText
  0
TEXT
  5
2B1
100
AcDbEntity
  8
_
  6
CONTINUOUS
 62
     2
100
AcDbText
 10
1040.0
 20
508.000153
 30
0.0
 40
40.0
  1
Ｆ．Ｌ
 41
0.833
  7
EXCADSTD
 72
     5
 11
1159.0
 21
508.000153
 31
0.0
100
AcDbText
  0
TEXT
  5
2B2
100
AcDbEntity
  8
_
  6
CONTINUOUS
 62
     2
100
AcDbText
 10
869.000001
 20
188.0
 30
0.0
 40
40.0
  1
（付属金具一式セット品）
 41
0.791
  7
EXCADSTD
 72
     5
 11
1320.999999
 21
188.0
 31
0.0
100
AcDbText
  0
TEXT
  5
2B3
100
AcDbEntity
  8
_
  6
CONTINUOUS
 62
     6
100
AcDbText
 10
182.044116
 20
96.950073
 30
0.0
 40
25.0
  1
１０
 41
0.75768
  7
EXCADSTD
 72
     5
 11
223.382775
 21
96.950073
 31
0.0
100
AcDbText
  0
TEXT
  5
2B4
100
AcDbEntity
  8
_
  6
CONTINUOUS
 62
     6
100
AcDbText
 10
234.244116
 20
96.950073
 30
0.0
 40
25.0
  1
１０
 41
0.75768
  7
EXCADSTD
 72
     5
 11
275.582775
 21
96.950073
 31
0.0
100
AcDbText
  0
TEXT
  5
2B5
100
AcDbEntity
  8
_
  6
CONTINUOUS
 62
     2
100
AcDbText
 10
209.0
 20
170.0
 30
0.0
 40
50.0
  1
神谷
 41
0.8568
  7
EXCADSTD
 72
     5
 11
302.4932
 21
170.0
 31
0.0
100
AcDbText
  0
TEXT
  5
2B6
100
AcDbEntity
  8
_
  6
CONTINUOUS
 62
     2
100
AcDbText
 10
634.0
 20
170.0
 30
0.0
 40
50.0
  1
市川
 41
0.8568
  7
EXCADSTD
 72
     5
 11
727.4932
 21
170.0
 31
0.0
100
AcDbText
  0
LINE
  5
2B7
100
AcDbEntity
  8
_2
  6
CONTINUOUS
 62
     6
100
AcDbLine
 10
650.810394
 20
1957.714233
 30
0.0
 11
650.810394
 21
2161.069336
 31
0.0
  0
LINE
  5
2B8
100
AcDbEntity
  8
_2
  6
CONTINUOUS
 62
     3
100
AcDbLine
 10
820.810394
 20
2135.0
 30
0.0
 11
975.810547
 21
2135.0
 31
0.0
  0
LINE
  5
2B9
100
AcDbEntity
  8
_2
  6
CONTINUOUS
 62
     3
100
AcDbLine
 10
680.810394
 20
1775.0
 30
0.0
 11
975.810547
 21
1775.0
 31
0.0
  0
LINE
  5
2BA
100
AcDbEntity
  8
_2
  6
CONTINUOUS
 62
     3
100
AcDbLine
 10
796.261291
 20
1970.0
 30
0.0
 11
905.810547
 21
1970.0
 31
0.0
  0
POLYLINE
  5
2BB
100
AcDbEntity
  8
_2
  6
CONTINUOUS
 62
     3
100
AcDb2dPolyline
 66
     1
 10
0.0
 20
0.0
 30
0.0
 70
   128
  0
VERTEX
  5
2BC
100
AcDbEntity
  8
_2
  6
CONTINUOUS
 62
     3
100
AcDbVertex
100
AcDb2dVertex
 10
964.869232
 20
2101.192627
 30
0.0
  0
VERTEX
  5
2BD
100
AcDbEntity
  8
_2
  6
CONTINUOUS
 62
     3
100
AcDbVertex
100
AcDb2dVertex
 10
955.810547
 20
2135.0
 30
0.0
  0
VERTEX
  5
2BE
100
AcDbEntity
  8
_2
  6
CONTINUOUS
 62
     3
100
AcDbVertex
100
AcDb2dVertex
 10
946.751862
 20
2101.192627
 30
0.0
  0
SEQEND
  5
2BF
100
AcDbEntity
  8
_2
  6
CONTINUOUS
 62
     3
  0
POLYLINE
  5
2C0
100
AcDbEntity
  8
_2
  6
CONTINUOUS
 62
     3
100
AcDb2dPolyline
 66
     1
 10
0.0
 20
0.0
 30
0.0
 70
   128
  0
VERTEX
  5
2C1
100
AcDbEntity
  8
_2
  6
CONTINUOUS
 62
     3
100
AcDbVertex
100
AcDb2dVertex
 10
946.751862
 20
1808.807373
 30
0.0
  0
VERTEX
  5
2C2
100
AcDbEntity
  8
_2
  6
CONTINUOUS
 62
     3
100
AcDbVertex
100
AcDb2dVertex
 10
955.810547
 20
1775.0
 30
0.0
  0
VERTEX
  5
2C3
100
AcDbEntity
  8
_2
  6
CONTINUOUS
 62
     3
100
AcDbVertex
100
AcDb2dVertex
 10
964.869232
 20
1808.807373
 30
0.0
  0
SEQEND
  5
2C4
100
AcDbEntity
  8
_2
  6
CONTINUOUS
 62
     3
  0
LINE
  5
2C5
100
AcDbEntity
  8
_2
  6
CONTINUOUS
 62
     3
100
AcDbLine
 10
955.810547
 20
2135.0
 30
0.0
 11
955.810547
 21
1775.0
 31
0.0
  0
POLYLINE
  5
2C6
100
AcDbEntity
  8
_2
  6
CONTINUOUS
 62
     3
100
AcDb2dPolyline
 66
     1
 10
0.0
 20
0.0
 30
0.0
 70
   128
  0
VERTEX
  5
2C7
100
AcDbEntity
  8
_2
  6
CONTINUOUS
 62
     3
100
AcDbVertex
100
AcDb2dVertex
 10
876.751862
 20
2003.807373
 30
0.0
  0
VERTEX
  5
2C8
100
AcDbEntity
  8
_2
  6
CONTINUOUS
 62
     3
100
AcDbVertex
100
AcDb2dVertex
 10
885.810547
 20
1970.0
 30
0.0
  0
VERTEX
  5
2C9
100
AcDbEntity
  8
_2
  6
CONTINUOUS
 62
     3
100
AcDbVertex
100
AcDb2dVertex
 10
894.869232
 20
2003.807373
 30
0.0
  0
SEQEND
  5
2CA
100
AcDbEntity
  8
_2
  6
CONTINUOUS
 62
     3
  0
POLYLINE
  5
2CB
100
AcDbEntity
  8
_2
  6
CONTINUOUS
 62
     3
100
AcDb2dPolyline
 66
     1
 10
0.0
 20
0.0
 30
0.0
 70
   128
  0
VERTEX
  5
2CC
100
AcDbEntity
  8
_2
  6
CONTINUOUS
 62
     3
100
AcDbVertex
100
AcDb2dVertex
 10
894.869232
 20
2101.192627
 30
0.0
  0
VERTEX
  5
2CD
100
AcDbEntity
  8
_2
  6
CONTINUOUS
 62
     3
100
AcDbVertex
100
AcDb2dVertex
 10
885.810547
 20
2135.0
 30
0.0
  0
VERTEX
  5
2CE
100
AcDbEntity
  8
_2
  6
CONTINUOUS
 62
     3
100
AcDbVertex
100
AcDb2dVertex
 10
876.751862
 20
2101.192627
 30
0.0
  0
SEQEND
  5
2CF
100
AcDbEntity
  8
_2
  6
CONTINUOUS
 62
     3
  0
LINE
  5
2D0
100
AcDbEntity
  8
_2
  6
CONTINUOUS
 62
     3
100
AcDbLine
 10
885.810547
 20
2135.0
 30
0.0
 11
885.810547
 21
1970.0
 31
0.0
  0
TEXT
  5
2D1
100
AcDbEntity
  8
_2
  6
CONTINUOUS
 62
     2
100
AcDbText
 10
882.310486
 20
1994.49997
 30
0.0
 40
40.0
  1
１６５
 50
90.0
 41
0.833
  7
EXCADSTD
 72
     5
 11
882.310486
 21
2113.499969
 31
0.0
100
AcDbText
  0
TEXT
  5
2D2
100
AcDbEntity
  8
_2
  6
CONTINUOUS
 62
     2
100
AcDbText
 10
952.310486
 20
1896.99997
 30
0.0
 40
40.0
  1
３６０
 50
90.0
 41
0.833
  7
EXCADSTD
 72
     5
 11
952.310486
 21
2015.999969
 31
0.0
100
AcDbText
  0
LINE
  5
2D3
100
AcDbEntity
  8
_2
  6
CONTINUOUS
 62
     6
100
AcDbLine
 10
650.810394
 20
1755.326386
 30
0.0
 11
650.810394
 21
1929.714203
 31
0.0
  0
LINE
  5
2D4
100
AcDbEntity
  8
_2
  6
CONTINUOUS
 62
     6
100
AcDbLine
 10
650.810394
 20
1939.714203
 30
0.0
 11
650.810394
 21
1947.714233
 31
0.0
  0
LINE
  5
2D5
100
AcDbEntity
  8
_2
  6
CONTINUOUS
 62
     3
100
AcDbLine
 10
810.810394
 20
1681.178131
 30
0.0
 11
810.810394
 21
1957.714233
 31
0.0
  0
LINE
  5
2D6
100
AcDbEntity
  8
_2
  6
CONTINUOUS
 62
     3
100
AcDbLine
 10
490.810394
 20
1681.178131
 30
0.0
 11
490.810394
 21
1957.714233
 31
0.0
  0
POLYLINE
  5
2D7
100
AcDbEntity
  8
_2
  6
CONTINUOUS
 62
     3
100
AcDb2dPolyline
 66
     1
 10
0.0
 20
0.0
 30
0.0
 70
   128
  0
VERTEX
  5
2D8
100
AcDbEntity
  8
_2
  6
CONTINUOUS
 62
     3
100
AcDbVertex
100
AcDb2dVertex
 10
524.617767
 20
1710.236816
 30
0.0
  0
VERTEX
  5
2D9
100
AcDbEntity
  8
_2
  6
CONTINUOUS
 62
     3
100
AcDbVertex
100
AcDb2dVertex
 10
490.810394
 20
1701.178131
 30
0.0
  0
VERTEX
  5
2DA
100
AcDbEntity
  8
_2
  6
CONTINUOUS
 62
     3
100
AcDbVertex
100
AcDb2dVertex
 10
524.617767
 20
1692.119446
 30
0.0
  0
SEQEND
  5
2DB
100
AcDbEntity
  8
_2
  6
CONTINUOUS
 62
     3
  0
POLYLINE
  5
2DC
100
AcDbEntity
  8
_2
  6
CONTINUOUS
 62
     3
100
AcDb2dPolyline
 66
     1
 10
0.0
 20
0.0
 30
0.0
 70
   128
  0
VERTEX
  5
2DD
100
AcDbEntity
  8
_2
  6
CONTINUOUS
 62
     3
100
AcDbVertex
100
AcDb2dVertex
 10
777.003021
 20
1692.119446
 30
0.0
  0
VERTEX
  5
2DE
100
AcDbEntity
  8
_2
  6
CONTINUOUS
 62
     3
100
AcDbVertex
100
AcDb2dVertex
 10
810.810394
 20
1701.178131
 30
0.0
  0
VERTEX
  5
2DF
100
AcDbEntity
  8
_2
  6
CONTINUOUS
 62
     3
100
AcDbVertex
100
AcDb2dVertex
 10
777.003021
 20
1710.236816
 30
0.0
  0
SEQEND
  5
2E0
100
AcDbEntity
  8
_2
  6
CONTINUOUS
 62
     3
  0
LINE
  5
2E1
100
AcDbEntity
  8
_2
  6
CONTINUOUS
 62
     3
100
AcDbLine
 10
490.810394
 20
1701.178131
 30
0.0
 11
810.810394
 21
1701.178131
 31
0.0
  0
TEXT
  5
2E2
100
AcDbEntity
  8
_2
  6
CONTINUOUS
 62
     2
100
AcDbText
 10
592.810364
 20
1704.67804
 30
0.0
 40
40.0
  1
３２０
 41
0.833
  7
EXCADSTD
 72
     5
 11
711.810364
 21
1704.67804
 31
0.0
100
AcDbText
  0
LINE
  5
2E3
100
AcDbEntity
  8
_2
  6
CONTINUOUS
 62
     6
100
AcDbLine
 10
650.810394
 20
407.860609
 30
0.0
 11
650.810394
 21
541.420959
 31
0.0
  0
LINE
  5
2E4
100
AcDbEntity
  8
_2
  6
CONTINUOUS
 62
     6
100
AcDbLine
 10
650.810394
 20
551.420959
 30
0.0
 11
650.810394
 21
559.42099
 31
0.0
  0
LINE
  5
2E5
100
AcDbEntity
  8
_2
  6
CONTINUOUS
 62
     6
100
AcDbLine
 10
650.810394
 20
569.42099
 30
0.0
 11
650.810394
 21
841.420959
 31
0.0
  0
LINE
  5
2E6
100
AcDbEntity
  8
_2
  6
CONTINUOUS
 62
     6
100
AcDbLine
 10
650.810394
 20
851.420959
 30
0.0
 11
650.810394
 21
859.42099
 31
0.0
  0
LINE
  5
2E7
100
AcDbEntity
  8
_2
  6
CONTINUOUS
 62
     6
100
AcDbLine
 10
650.810394
 20
869.42099
 30
0.0
 11
650.810394
 21
1141.42096
 31
0.0
  0
LINE
  5
2E8
100
AcDbEntity
  8
_2
  6
CONTINUOUS
 62
     6
100
AcDbLine
 10
650.810394
 20
1151.42096
 30
0.0
 11
650.810394
 21
1159.42099
 31
0.0
  0
LINE
  5
2E9
100
AcDbEntity
  8
_2
  6
CONTINUOUS
 62
     6
100
AcDbLine
 10
650.810394
 20
1169.42099
 30
0.0
 11
650.810394
 21
1441.42096
 31
0.0
  0
LINE
  5
2EA
100
AcDbEntity
  8
_2
  6
CONTINUOUS
 62
     6
100
AcDbLine
 10
650.810394
 20
1451.42096
 30
0.0
 11
650.810394
 21
1459.42099
 31
0.0
  0
LINE
  5
2EB
100
AcDbEntity
  8
_2
  6
CONTINUOUS
 62
     3
100
AcDbLine
 10
1675.810394
 20
1452.77594
 30
0.0
 11
1675.810394
 21
1699.959473
 31
0.0
  0
LINE
  5
2EC
100
AcDbEntity
  8
_2
  6
CONTINUOUS
 62
     6
100
AcDbLine
 10
1675.810394
 20
1434.77591
 30
0.0
 11
1675.810394
 21
1442.77594
 31
0.0
  0
LINE
  5
2ED
100
AcDbEntity
  8
_2
  6
CONTINUOUS
 62
     6
100
AcDbLine
 10
1675.810394
 20
1343.745789
 30
0.0
 11
1675.810394
 21
1424.77591
 31
0.0
  0
LINE
  5
2EE
100
AcDbEntity
  8
_2
  6
CONTINUOUS
 62
     6
100
AcDbLine
 10
650.810394
 20
1469.42099
 30
0.0
 11
650.810394
 21
1595.5
 31
0.0
  0
LINE
  5
2EF
100
AcDbEntity
  8
_2
  6
CONTINUOUS
 62
     3
100
AcDbLine
 10
729.0
 20
1354.0
 30
0.0
 11
905.810547
 21
1354.0
 31
0.0
  0
POLYLINE
  5
2F0
100
AcDbEntity
  8
_2
  6
CONTINUOUS
 62
     3
100
AcDb2dPolyline
 66
     1
 10
0.0
 20
0.0
 30
0.0
 70
   128
  0
VERTEX
  5
2F1
100
AcDbEntity
  8
_2
  6
CONTINUOUS
 62
     3
100
AcDbVertex
100
AcDb2dVertex
 10
1642.003021
 20
1670.900787
 30
0.0
  0
VERTEX
  5
2F2
100
AcDbEntity
  8
_2
  6
CONTINUOUS
 62
     3
100
AcDbVertex
100
AcDb2dVertex
 10
1675.810394
 20
1679.959473
 30
0.0
  0
VERTEX
  5
2F3
100
AcDbEntity
  8
_2
  6
CONTINUOUS
 62
     3
100
AcDbVertex
100
AcDb2dVertex
 10
1642.003021
 20
1689.018158
 30
0.0
  0
SEQEND
  5
2F4
100
AcDbEntity
  8
_2
  6
CONTINUOUS
 62
     3
  0
POLYLINE
  5
2F5
100
AcDbEntity
  8
_2
  6
CONTINUOUS
 62
     3
100
AcDb2dPolyline
 66
     1
 10
0.0
 20
0.0
 30
0.0
 70
   128
  0
VERTEX
  5
2F6
100
AcDbEntity
  8
_2
  6
CONTINUOUS
 62
     3
100
AcDbVertex
100
AcDb2dVertex
 10
1784.617767
 20
1689.018158
 30
0.0
  0
VERTEX
  5
2F7
100
AcDbEntity
  8
_2
  6
CONTINUOUS
 62
     3
100
AcDbVertex
100
AcDb2dVertex
 10
1750.810394
 20
1679.959473
 30
0.0
  0
VERTEX
  5
2F8
100
AcDbEntity
  8
_2
  6
CONTINUOUS
 62
     3
100
AcDbVertex
100
AcDb2dVertex
 10
1784.617767
 20
1670.900787
 30
0.0
  0
SEQEND
  5
2F9
100
AcDbEntity
  8
_2
  6
CONTINUOUS
 62
     3
  0
LINE
  5
2FA
100
AcDbEntity
  8
_2
  6
CONTINUOUS
 62
     3
100
AcDbLine
 10
1630.810394
 20
1679.959473
 30
0.0
 11
1795.810394
 21
1679.959473
 31
0.0
  0
TEXT
  5
2FB
100
AcDbEntity
  8
_2
  6
CONTINUOUS
 62
     2
100
AcDbText
 10
1675.310516
 20
1683.458923
 30
0.0
 40
40.0
  1
７５
 41
0.861
  7
EXCADSTD
 72
     5
 11
1750.471716
 21
1683.458923
 31
0.0
100
AcDbText
  0
LINE
  5
2FC
100
AcDbEntity
  8
_2
  6
CONTINUOUS
 62
     6
100
AcDbLine
 10
1750.668793
 20
1194.0
 30
0.0
 11
1750.810089
 21
1194.141296
 31
0.0
  0
LINE
  5
2FD
100
AcDbEntity
  8
_2
  6
CONTINUOUS
 62
     6
100
AcDbLine
 10
1290.999878
 20
398.413513
 30
0.0
 11
1494.861145
 21
398.413513
 31
0.0
  0
TEXT
  5
2FE
100
AcDbEntity
  8
_2
  6
CONTINUOUS
 62
     2
100
AcDbText
 10
1292.58368
 20
401.913574
 30
0.0
 40
40.0
  1
５０塩ビ管
 41
0.8106
  7
EXCADSTD
 72
     5
 11
1485.583679
 21
401.913574
 31
0.0
100
AcDbText
  0
LINE
  5
2FF
100
AcDbEntity
  8
_2
  6
CONTINUOUS
 62
     3
100
AcDbLine
 10
1310.110169
 20
779.0
 30
0.0
 11
1380.585938
 21
779.0
 31
0.0
  0
POLYLINE
  5
300
100
AcDbEntity
  8
_2
  6
CONTINUOUS
 62
     3
100
AcDb2dPolyline
 66
     1
 10
0.0
 20
0.0
 30
0.0
 70
   128
  0
VERTEX
  5
301
100
AcDbEntity
  8
_2
  6
CONTINUOUS
 62
     3
100
AcDbVertex
100
AcDb2dVertex
 10
1339.168854
 20
745.192627
 30
0.0
  0
VERTEX
  5
302
100
AcDbEntity
  8
_2
  6
CONTINUOUS
 62
     3
100
AcDbVertex
100
AcDb2dVertex
 10
1330.110169
 20
779.0
 30
0.0
  0
VERTEX
  5
303
100
AcDbEntity
  8
_2
  6
CONTINUOUS
 62
     3
100
AcDbVertex
100
AcDb2dVertex
 10
1321.051483
 20
745.192627
 30
0.0
  0
SEQEND
  5
304
100
AcDbEntity
  8
_2
  6
CONTINUOUS
 62
     3
  0
POLYLINE
  5
305
100
AcDbEntity
  8
_2
  6
CONTINUOUS
 62
     3
100
AcDb2dPolyline
 66
     1
 10
0.0
 20
0.0
 30
0.0
 70
   128
  0
VERTEX
  5
306
100
AcDbEntity
  8
_2
  6
CONTINUOUS
 62
     3
100
AcDbVertex
100
AcDb2dVertex
 10
1321.051483
 20
537.807373
 30
0.0
  0
VERTEX
  5
307
100
AcDbEntity
  8
_2
  6
CONTINUOUS
 62
     3
100
AcDbVertex
100
AcDb2dVertex
 10
1330.110169
 20
504.0
 30
0.0
  0
VERTEX
  5
308
100
AcDbEntity
  8
_2
  6
CONTINUOUS
 62
     3
100
AcDbVertex
100
AcDb2dVertex
 10
1339.168854
 20
537.807373
 30
0.0
  0
SEQEND
  5
309
100
AcDbEntity
  8
_2
  6
CONTINUOUS
 62
     3
  0
LINE
  5
30A
100
AcDbEntity
  8
_2
  6
CONTINUOUS
 62
     3
100
AcDbLine
 10
1330.110169
 20
779.0
 30
0.0
 11
1330.110169
 21
504.0
 31
0.0
  0
TEXT
  5
30B
100
AcDbEntity
  8
_2
  6
CONTINUOUS
 62
     2
100
AcDbText
 10
1326.609802
 20
583.49997
 30
0.0
 40
40.0
  1
２７５
 50
90.0
 41
0.833
  7
EXCADSTD
 72
     5
 11
1326.609802
 21
702.499969
 31
0.0
100
AcDbText
  0
LINE
  5
30C
100
AcDbEntity
  8
_2
  6
CONTINUOUS
 62
     7
100
AcDbLine
 10
490.810394
 20
2135.0
 30
0.0
 11
810.810394
 21
2135.0
 31
0.0
  0
ARC
  5
30D
100
AcDbEntity
  8
_2
  6
CONTINUOUS
 62
     7
100
AcDbCircle
 10
794.431696
 20
1978.17062
 30
0.0
 40
7.0
100
AcDbArc
 50
296.709079
 51
359.313856
  0
ARC
  5
30E
100
AcDbEntity
  8
_2
  6
CONTINUOUS
 62
     7
100
AcDbCircle
 10
786.310394
 20
1973.0
 30
0.0
 40
5.0
100
AcDbArc
 50
220.924071
 51
284.419041
  0
LINE
  5
30F
100
AcDbEntity
  8
_2
  6
CONTINUOUS
 62
     7
100
AcDbLine
 10
498.310394
 20
2135.0
 30
0.0
 11
500.189594
 21
1978.086794
 31
0.0
  0
ARC
  5
310
100
AcDbEntity
  8
_2
  6
CONTINUOUS
 62
     7
100
AcDbCircle
 10
507.189092
 20
1978.17062
 30
0.0
 40
7.0
100
AcDbArc
 50
180.686144
 51
243.290921
  0
ARC
  5
311
100
AcDbEntity
  8
_2
  6
CONTINUOUS
 62
     7
100
AcDbCircle
 10
526.515896
 20
2016.582528
 30
0.0
 40
50.0
100
AcDbArc
 50
243.290921
 51
255.580995
  0
ARC
  5
312
100
AcDbEntity
  8
_2
  6
CONTINUOUS
 62
     7
100
AcDbCircle
 10
515.310394
 20
1973.0
 30
0.0
 40
5.0
100
AcDbArc
 50
255.580959
 51
319.075929
  0
ARC
  5
313
100
AcDbEntity
  8
_2
  6
CONTINUOUS
 62
     7
100
AcDbCircle
 10
650.810394
 20
1420.0
 30
0.0
 40
580.0
100
AcDbArc
 50
81.10803
 51
98.891968
  0
ARC
  5
314
100
AcDbEntity
  8
_2
  6
CONTINUOUS
 62
     7
100
AcDbCircle
 10
571.978735
 20
1923.870588
 30
0.0
 40
70.0
100
AcDbArc
 50
98.891968
 51
139.075889
  0
ARC
  5
315
100
AcDbEntity
  8
_2
  6
CONTINUOUS
 62
     7
100
AcDbCircle
 10
801.60233
 20
1950.668532
 30
0.0
 40
7.0
100
AcDbArc
 50
298.591005
 51
359.313856
  0
ARC
  5
316
100
AcDbEntity
  8
_2
  6
CONTINUOUS
 62
     7
100
AcDbCircle
 10
542.794786
 20
1986.273106
 30
0.0
 40
250.0
100
AcDbArc
 50
309.448614
 51
344.422118
  0
LINE
  5
317
100
AcDbEntity
  8
_2
  6
CONTINUOUS
 62
     7
100
AcDbLine
 10
490.810394
 20
2135.0
 30
0.0
 11
493.018961
 21
1950.584706
 31
0.0
  0
ARC
  5
318
100
AcDbEntity
  8
_2
  6
CONTINUOUS
 62
     7
100
AcDbCircle
 10
479.478779
 20
1908.394171
 30
0.0
 40
40.0
100
AcDbArc
 50
15.577886
 51
64.086453
  0
ARC
  5
319
100
AcDbEntity
  8
_2
  6
CONTINUOUS
 62
     7
100
AcDbCircle
 10
758.826003
 20
1986.273106
 30
0.0
 40
250.0
100
AcDbArc
 50
195.577882
 51
230.551386
  0
ARC
  5
31A
100
AcDbEntity
  8
_2
  6
CONTINUOUS
 62
     7
100
AcDbCircle
 10
500.018459
 20
1950.668532
 30
0.0
 40
7.0
100
AcDbArc
 50
180.686144
 51
241.408995
  0
ARC
  5
31B
100
AcDbEntity
  8
_2
  6
CONTINUOUS
 62
     7
100
AcDbCircle
 10
650.810394
 20
1855.0
 30
0.0
 40
80.0
100
AcDbArc
 50
230.551386
 51
309.448614
  0
ARC
  5
31C
100
AcDbEntity
  8
_2
  6
CONTINUOUS
 62
     7
100
AcDbCircle
 10
650.810394
 20
1855.0
 30
0.0
 40
45.0
100
AcDbArc
 50
230.551386
 51
309.448614
  0
ARC
  5
31D
100
AcDbEntity
  8
_2
  6
CONTINUOUS
 62
     7
100
AcDbCircle
 10
650.810394
 20
1955.0
 30
0.0
 40
55.0
100
AcDbArc
 50
126.756162
 51
53.243838
  0
LINE
  5
31E
100
AcDbEntity
  8
_2
  6
CONTINUOUS
 62
     7
100
AcDbLine
 10
803.310394
 20
2135.0
 30
0.0
 11
801.431194
 21
1978.086794
 31
0.0
  0
LINE
  5
31F
100
AcDbEntity
  8
_2
  6
CONTINUOUS
 62
     7
100
AcDbLine
 10
810.810394
 20
2135.0
 30
0.0
 11
808.601828
 21
1950.584706
 31
0.0
  0
ARC
  5
320
100
AcDbEntity
  8
_2
  6
CONTINUOUS
 62
     7
100
AcDbCircle
 10
822.14201
 20
1908.394171
 30
0.0
 40
40.0
100
AcDbArc
 50
115.913542
 51
164.422114
  0
ARC
  5
321
100
AcDbEntity
  8
_2
  6
CONTINUOUS
 62
     7
100
AcDbCircle
 10
775.104892
 20
2016.582528
 30
0.0
 40
50.0
100
AcDbArc
 50
284.419
 51
296.709081
  0
ARC
  5
322
100
AcDbEntity
  8
_2
  6
CONTINUOUS
 62
     7
100
AcDbCircle
 10
729.642053
 20
1923.870588
 30
0.0
 40
70.0
100
AcDbArc
 50
40.924107
 51
81.108032
  0
LINE
  5
323
100
AcDbEntity
  8
_2
  6
CONTINUOUS
 62
     7
100
AcDbLine
 10
784.902627
 20
1964.663065
 30
0.0
 11
790.907284
 21
1941.168734
 31
0.0
  0
LINE
  5
324
100
AcDbEntity
  8
_2
  6
CONTINUOUS
 62
     7
100
AcDbLine
 10
802.19321
 20
1970.873698
 30
0.0
 11
806.393433
 21
1954.439549
 31
0.0
  0
ARC
  5
325
100
AcDbEntity
  8
_2
  6
CONTINUOUS
 62
     7
100
AcDbCircle
 10
1049.943573
 20
1896.690142
 30
0.0
 40
300.0
100
AcDbArc
 50
162.832109
 51
169.982585
  0
ARC
  5
326
100
AcDbEntity
  8
_2
  6
CONTINUOUS
 62
     7
100
AcDbCircle
 10
542.794786
 20
1986.273106
 30
0.0
 40
215.0
100
AcDbArc
 50
309.448614
 51
349.982585
  0
ARC
  5
327
100
AcDbEntity
  8
_2
  6
CONTINUOUS
 62
     7
100
AcDbCircle
 10
251.677216
 20
1896.690142
 30
0.0
 40
300.0
100
AcDbArc
 50
10.017415
 51
17.167891
  0
ARC
  5
328
100
AcDbEntity
  8
_2
  6
CONTINUOUS
 62
     7
100
AcDbCircle
 10
758.826003
 20
1986.273106
 30
0.0
 40
215.0
100
AcDbArc
 50
190.017415
 51
230.551386
  0
LINE
  5
329
100
AcDbEntity
  8
_2
  6
CONTINUOUS
 62
     7
100
AcDbLine
 10
516.718162
 20
1964.663065
 30
0.0
 11
510.713504
 21
1941.168734
 31
0.0
  0
LINE
  5
32A
100
AcDbEntity
  8
_2
  6
CONTINUOUS
 62
     7
100
AcDbLine
 10
499.427579
 20
1970.873698
 30
0.0
 11
495.227355
 21
1954.439549
 31
0.0
  0
LINE
  5
32B
100
AcDbEntity
  8
_2
  6
CONTINUOUS
 62
     7
100
AcDbLine
 10
805.810394
 20
1923.228735
 30
0.0
 11
805.810394
 21
1945.074589
 31
0.0
  0
ARC
  5
32C
100
AcDbEntity
  8
_2
  6
CONTINUOUS
 62
     7
100
AcDbCircle
 10
797.810394
 20
1923.228735
 30
0.0
 40
8.0
100
AcDbArc
 50
315.66369
 51
0.0
  0
ARC
  5
32D
100
AcDbEntity
  8
_2
  6
CONTINUOUS
 62
     7
100
AcDbCircle
 10
624.719899
 20
2092.354961
 30
0.0
 40
250.0
100
AcDbArc
 50
306.772414
 51
315.66369
  0
LINE
  5
32E
100
AcDbEntity
  8
_2
  6
CONTINUOUS
 62
     7
100
AcDbLine
 10
495.810394
 20
1923.228735
 30
0.0
 11
495.810394
 21
1945.074589
 31
0.0
  0
ARC
  5
32F
100
AcDbEntity
  8
_2
  6
CONTINUOUS
 62
     7
100
AcDbCircle
 10
503.810394
 20
1923.228735
 30
0.0
 40
8.0
100
AcDbArc
 50
180.0
 51
224.33631
  0
ARC
  5
330
100
AcDbEntity
  8
_2
  6
CONTINUOUS
 62
     7
100
AcDbCircle
 10
676.90089
 20
2092.354961
 30
0.0
 40
250.0
100
AcDbArc
 50
224.33631
 51
233.227586
  0
LINE
  5
331
100
AcDbEntity
  8
_2
  6
CONTINUOUS
 62
     6
100
AcDbLine
 10
569.543687
 20
1955.0
 30
0.0
 11
730.543687
 21
1955.0
 31
0.0
  0
ARC
  5
332
100
AcDbEntity
  8
_2
  6
CONTINUOUS
 62
     7
100
AcDbCircle
 10
650.810394
 20
1955.0
 30
0.0
 40
47.0
100
AcDbArc
 50
107.486452
 51
72.513548
  0
CIRCLE
  5
333
100
AcDbEntity
  8
_2
  6
CONTINUOUS
 62
     7
100
AcDbCircle
 10
650.810394
 20
1955.0
 30
0.0
 40
7.0
  0
LINE
  5
334
100
AcDbEntity
  8
_2
  6
CONTINUOUS
 62
     7
100
AcDbLine
 10
618.243709
 20
1354.0
 30
0.0
 11
683.377079
 21
1354.0
 31
0.0
  0
LINE
  5
335
100
AcDbEntity
  8
_2
  6
CONTINUOUS
 62
     7
100
AcDbLine
 10
618.243709
 20
1314.0
 30
0.0
 11
683.377079
 21
1314.0
 31
0.0
  0
LINE
  5
336
100
AcDbEntity
  8
_2
  6
CONTINUOUS
 62
     7
100
AcDbLine
 10
809.381267
 20
1009.38156
 30
0.0
 11
803.639583
 21
1331.530227
 31
0.0
  0
ARC
  5
337
100
AcDbEntity
  8
_2
  6
CONTINUOUS
 62
     7
100
AcDbCircle
 10
683.377079
 20
-446.0
 30
0.0
 40
1800.0
100
AcDbArc
 50
86.770875
 51
90.0
  0
ARC
  5
338
100
AcDbEntity
  8
_2
  6
CONTINUOUS
 62
     7
100
AcDbCircle
 10
783.642759
 20
1331.173822
 30
0.0
 40
20.0
100
AcDbArc
 50
1.02108
 51
86.770875
  0
ARC
  5
339
100
AcDbEntity
  8
_2
  6
CONTINUOUS
 62
     7
100
AcDbCircle
 10
768.62641
 20
1331.95741
 30
0.0
 40
20.0
100
AcDbArc
 50
1.02108
 51
87.25489
  0
LINE
  5
33A
100
AcDbEntity
  8
_2
  6
CONTINUOUS
 62
     7
100
AcDbLine
 10
788.623234
 20
1332.313815
 30
0.0
 11
794.383649
 21
1009.114256
 31
0.0
  0
LINE
  5
33B
100
AcDbEntity
  8
_2
  6
CONTINUOUS
 62
     7
100
AcDbLine
 10
764.196717
 20
1299.914686
 30
0.0
 11
769.387619
 21
1008.66875
 31
0.0
  0
ARC
  5
33C
100
AcDbEntity
  8
_2
  6
CONTINUOUS
 62
     7
100
AcDbCircle
 10
683.377079
 20
-446.0
 30
0.0
 40
1760.0
100
AcDbArc
 50
87.775115
 51
90.0
  0
ARC
  5
33D
100
AcDbEntity
  8
_2
  6
CONTINUOUS
 62
     7
100
AcDbCircle
 10
751.198781
 20
1299.683023
 30
0.0
 40
13.0
100
AcDbArc
 50
1.02108
 51
87.775115
  0
LINE
  5
33E
100
AcDbEntity
  8
_2
  6
CONTINUOUS
 62
     7
100
AcDbLine
 10
537.424072
 20
1299.914686
 30
0.0
 11
532.23317
 21
1008.66875
 31
0.0
  0
LINE
  5
33F
100
AcDbEntity
  8
_2
  6
CONTINUOUS
 62
     7
100
AcDbLine
 10
512.997554
 20
1332.313815
 30
0.0
 11
507.237139
 21
1009.114256
 31
0.0
  0
ARC
  5
340
100
AcDbEntity
  8
_2
  6
CONTINUOUS
 62
     7
100
AcDbCircle
 10
550.422008
 20
1299.683023
 30
0.0
 40
13.0
100
AcDbArc
 50
92.224885
 51
178.97892
  0
ARC
  5
341
100
AcDbEntity
  8
_2
  6
CONTINUOUS
 62
     7
100
AcDbCircle
 10
532.994378
 20
1331.95741
 30
0.0
 40
20.0
100
AcDbArc
 50
92.74511
 51
178.97892
  0
ARC
  5
342
100
AcDbEntity
  8
_2
  6
CONTINUOUS
 62
     7
100
AcDbCircle
 10
517.97803
 20
1331.173822
 30
0.0
 40
20.0
100
AcDbArc
 50
93.229125
 51
178.97892
  0
ARC
  5
343
100
AcDbEntity
  8
_2
  6
CONTINUOUS
 62
     7
100
AcDbCircle
 10
618.243709
 20
-446.0
 30
0.0
 40
1800.0
100
AcDbArc
 50
90.0
 51
93.229125
  0
LINE
  5
344
100
AcDbEntity
  8
_2
  6
CONTINUOUS
 62
     7
100
AcDbLine
 10
492.239521
 20
1009.38156
 30
0.0
 11
497.981206
 21
1331.530227
 31
0.0
  0
ARC
  5
345
100
AcDbEntity
  8
_2
  6
CONTINUOUS
 62
     7
100
AcDbCircle
 10
618.243709
 20
-446.0
 30
0.0
 40
1760.0
100
AcDbArc
 50
90.0
 51
92.224885
  0
LINE
  5
346
100
AcDbEntity
  8
_2
  6
CONTINUOUS
 62
     7
100
AcDbLine
 10
683.377079
 20
1294.0
 30
0.0
 11
618.243709
 21
1294.0
 31
0.0
  0
ARC
  5
347
100
AcDbEntity
  8
_2
  6
CONTINUOUS
 62
     7
100
AcDbCircle
 10
683.377079
 20
-446.0
 30
0.0
 40
1740.0
100
AcDbArc
 50
87.333182
 51
90.0
  0
ARC
  5
348
100
AcDbEntity
  8
_2
  6
CONTINUOUS
 62
     7
100
AcDbCircle
 10
618.243709
 20
-446.0
 30
0.0
 40
1740.0
100
AcDbArc
 50
90.0
 51
92.666818
  0
ARC
  5
349
100
AcDbEntity
  8
_2
  6
CONTINUOUS
 62
     7
100
AcDbCircle
 10
725.808312
 20
855.092991
 30
0.0
 40
70.0
100
AcDbArc
 50
279.289261
 51
0.039159
  0
ARC
  5
34A
100
AcDbEntity
  8
_2
  6
CONTINUOUS
 62
     7
100
AcDbCircle
 10
700.809985
 20
851.698179
 30
0.0
 40
70.0
100
AcDbArc
 50
276.17783
 51
0.01739
  0
ARC
  5
34B
100
AcDbEntity
  8
_2
  6
CONTINUOUS
 62
     7
100
AcDbCircle
 10
-8189.189606
 20
849.0
 30
0.0
 40
8985.0
100
AcDbArc
 50
0.039159
 51
1.021085
  0
ARC
  5
34C
100
AcDbEntity
  8
_2
  6
CONTINUOUS
 62
     7
100
AcDbCircle
 10
-8189.189606
 20
849.0
 30
0.0
 40
8960.0
100
AcDbArc
 50
0.01739
 51
1.021085
  0
ARC
  5
34D
100
AcDbEntity
  8
_2
  6
CONTINUOUS
 62
     7
100
AcDbCircle
 10
600.810804
 20
851.698179
 30
0.0
 40
70.0
100
AcDbArc
 50
179.98261
 51
263.82217
  0
ARC
  5
34E
100
AcDbEntity
  8
_2
  6
CONTINUOUS
 62
     7
100
AcDbCircle
 10
575.812476
 20
855.092991
 30
0.0
 40
70.0
100
AcDbArc
 50
179.960841
 51
260.710739
  0
ARC
  5
34F
100
AcDbEntity
  8
_2
  6
CONTINUOUS
 62
     7
100
AcDbCircle
 10
9490.810394
 20
849.0
 30
0.0
 40
8985.0
100
AcDbArc
 50
178.978915
 51
179.960841
  0
ARC
  5
350
100
AcDbEntity
  8
_2
  6
CONTINUOUS
 62
     7
100
AcDbCircle
 10
9490.810394
 20
849.0
 30
0.0
 40
8960.0
100
AcDbArc
 50
178.978915
 51
179.98261
  0
ARC
  5
351
100
AcDbEntity
  8
_2
  6
CONTINUOUS
 62
     7
100
AcDbCircle
 10
650.810394
 20
1313.616851
 30
0.0
 40
534.616851
100
AcDbArc
 50
260.710739
 51
279.289261
  0
ARC
  5
352
100
AcDbEntity
  8
_2
  6
CONTINUOUS
 62
     7
100
AcDbCircle
 10
525.46601
 20
771.190684
 30
0.0
 40
265.0
100
AcDbArc
 50
314.948649
 51
359.535758
  0
ARC
  5
353
100
AcDbEntity
  8
_2
  6
CONTINUOUS
 62
     7
100
AcDbCircle
 10
776.154778
 20
771.190684
 30
0.0
 40
265.0
100
AcDbArc
 50
180.464242
 51
225.051351
  0
ARC
  5
354
100
AcDbEntity
  8
_2
  6
CONTINUOUS
 62
     7
100
AcDbCircle
 10
650.810394
 20
649.0
 30
0.0
 40
90.0
100
AcDbArc
 50
226.57106
 51
313.42894
  0
ARC
  5
355
100
AcDbEntity
  8
_2
  6
CONTINUOUS
 62
     7
100
AcDbCircle
 10
-8189.189606
 20
849.0
 30
0.0
 40
9000.0
100
AcDbArc
 50
358.888452
 51
1.021085
  0
LINE
  5
356
100
AcDbEntity
  8
_2
  6
CONTINUOUS
 62
     7
100
AcDbLine
 10
805.810394
 20
504.0
 30
0.0
 11
809.116797
 21
674.409401
 31
0.0
  0
ARC
  5
357
100
AcDbEntity
  8
_2
  6
CONTINUOUS
 62
     7
100
AcDbCircle
 10
9490.810394
 20
849.0
 30
0.0
 40
9000.0
100
AcDbArc
 50
178.978915
 51
181.111548
  0
LINE
  5
358
100
AcDbEntity
  8
_2
  6
CONTINUOUS
 62
     7
100
AcDbLine
 10
495.810394
 20
504.0
 30
0.0
 11
492.503991
 21
674.409401
 31
0.0
  0
LINE
  5
359
100
AcDbEntity
  8
_2
  6
CONTINUOUS
 62
     6
100
AcDbLine
 10
664.310455
 20
1369.732117
 30
0.0
 11
664.310455
 21
1380.2677
 31
0.0
  0
ARC
  5
35A
100
AcDbEntity
  8
_2
  6
CONTINUOUS
 62
     6
100
AcDbCircle
 10
655.810089
 20
1374.999908
 30
0.0
 40
10.000286
100
AcDbArc
 50
31.787048
 51
36.869019
  0
LINE
  5
35B
100
AcDbEntity
  8
_2
  6
CONTINUOUS
 62
     6
100
AcDbLine
 10
637.810364
 20
1380.999969
 30
0.0
 11
663.810425
 21
1380.999969
 31
0.0
  0
ARC
  5
35C
100
AcDbEntity
  8
_2
  6
CONTINUOUS
 62
     6
100
AcDbCircle
 10
645.8107
 20
1374.999908
 30
0.0
 40
10.000305
100
AcDbArc
 50
143.130981
 51
148.212967
  0
LINE
  5
35D
100
AcDbEntity
  8
_2
  6
CONTINUOUS
 62
     6
100
AcDbLine
 10
637.310333
 20
1369.732117
 30
0.0
 11
637.310333
 21
1380.2677
 31
0.0
  0
ARC
  5
35E
100
AcDbEntity
  8
_2
  6
CONTINUOUS
 62
     6
100
AcDbCircle
 10
645.8107
 20
1374.999908
 30
0.0
 40
10.000286
100
AcDbArc
 50
211.787033
 51
216.869019
  0
LINE
  5
35F
100
AcDbEntity
  8
_2
  6
CONTINUOUS
 62
     6
100
AcDbLine
 10
637.810364
 20
1368.999847
 30
0.0
 11
663.810425
 21
1368.999847
 31
0.0
  0
ARC
  5
360
100
AcDbEntity
  8
_2
  6
CONTINUOUS
 62
     6
100
AcDbCircle
 10
655.810089
 20
1374.999908
 30
0.0
 40
10.000305
100
AcDbArc
 50
323.130981
 51
328.212952
  0
POLYLINE
  5
361
100
AcDbEntity
  8
_2
  6
CONTINUOUS
 62
     6
100
AcDb2dPolyline
 66
     1
 10
0.0
 20
0.0
 30
0.0
 70
   128
  0
VERTEX
  5
362
100
AcDbEntity
  8
_2
  6
CONTINUOUS
 62
     6
100
AcDbVertex
100
AcDb2dVertex
 10
663.222504
 20
1375.000214
 30
0.0
  0
VERTEX
  5
363
100
AcDbEntity
  8
_2
  6
CONTINUOUS
 62
     6
100
AcDbVertex
100
AcDb2dVertex
 10
663.200836
 20
1375.459351
 30
0.0
  0
VERTEX
  5
364
100
AcDbEntity
  8
_2
  6
CONTINUOUS
 62
     6
100
AcDbVertex
100
AcDb2dVertex
 10
663.136444
 20
1375.915283
 30
0.0
  0
VERTEX
  5
365
100
AcDbEntity
  8
_2
  6
CONTINUOUS
 62
     6
100
AcDbVertex
100
AcDb2dVertex
 10
663.02948
 20
1376.363587
 30
0.0
  0
VERTEX
  5
366
100
AcDbEntity
  8
_2
  6
CONTINUOUS
 62
     6
100
AcDbVertex
100
AcDb2dVertex
 10
662.880859
 20
1376.801819
 30
0.0
  0
VERTEX
  5
367
100
AcDbEntity
  8
_2
  6
CONTINUOUS
 62
     6
100
AcDbVertex
100
AcDb2dVertex
 10
662.691956
 20
1377.226624
 30
0.0
  0
VERTEX
  5
368
100
AcDbEntity
  8
_2
  6
CONTINUOUS
 62
     6
100
AcDbVertex
100
AcDb2dVertex
 10
662.463989
 20
1377.634033
 30
0.0
  0
VERTEX
  5
369
100
AcDbEntity
  8
_2
  6
CONTINUOUS
 62
     6
100
AcDbVertex
100
AcDb2dVertex
 10
662.198486
 20
1378.021607
 30
0.0
  0
VERTEX
  5
36A
100
AcDbEntity
  8
_2
  6
CONTINUOUS
 62
     6
100
AcDbVertex
100
AcDb2dVertex
 10
661.897888
 20
1378.386444
 30
0.0
  0
VERTEX
  5
36B
100
AcDbEntity
  8
_2
  6
CONTINUOUS
 62
     6
100
AcDbVertex
100
AcDb2dVertex
 10
661.564179
 20
1378.725037
 30
0.0
  0
VERTEX
  5
36C
100
AcDbEntity
  8
_2
  6
CONTINUOUS
 62
     6
100
AcDbVertex
100
AcDb2dVertex
 10
661.199951
 20
1379.035553
 30
0.0
  0
VERTEX
  5
36D
100
AcDbEntity
  8
_2
  6
CONTINUOUS
 62
     6
100
AcDbVertex
100
AcDb2dVertex
 10
660.808106
 20
1379.315247
 30
0.0
  0
VERTEX
  5
36E
100
AcDbEntity
  8
_2
  6
CONTINUOUS
 62
     6
100
AcDbVertex
100
AcDb2dVertex
 10
660.39154
 20
1379.562134
 30
0.0
  0
VERTEX
  5
36F
100
AcDbEntity
  8
_2
  6
CONTINUOUS
 62
     6
100
AcDbVertex
100
AcDb2dVertex
 10
659.953461
 20
1379.774384
 30
0.0
  0
VERTEX
  5
370
100
AcDbEntity
  8
_2
  6
CONTINUOUS
 62
     6
100
AcDbVertex
100
AcDb2dVertex
 10
659.49707
 20
1379.950317
 30
0.0
  0
VERTEX
  5
371
100
AcDbEntity
  8
_2
  6
CONTINUOUS
 62
     6
100
AcDbVertex
100
AcDb2dVertex
 10
659.026032
 20
1380.088257
 30
0.0
  0
VERTEX
  5
372
100
AcDbEntity
  8
_2
  6
CONTINUOUS
 62
     6
100
AcDbVertex
100
AcDb2dVertex
 10
658.543854
 20
1380.187744
 30
0.0
  0
VERTEX
  5
373
100
AcDbEntity
  8
_2
  6
CONTINUOUS
 62
     6
100
AcDbVertex
100
AcDb2dVertex
 10
658.054047
 20
1380.247711
 30
0.0
  0
VERTEX
  5
374
100
AcDbEntity
  8
_2
  6
CONTINUOUS
 62
     6
100
AcDbVertex
100
AcDb2dVertex
 10
657.560577
 20
1380.267853
 30
0.0
  0
VERTEX
  5
375
100
AcDbEntity
  8
_2
  6
CONTINUOUS
 62
     6
100
AcDbVertex
100
AcDb2dVertex
 10
657.067108
 20
1380.247864
 30
0.0
  0
VERTEX
  5
376
100
AcDbEntity
  8
_2
  6
CONTINUOUS
 62
     6
100
AcDbVertex
100
AcDb2dVertex
 10
656.577301
 20
1380.187897
 30
0.0
  0
VERTEX
  5
377
100
AcDbEntity
  8
_2
  6
CONTINUOUS
 62
     6
100
AcDbVertex
100
AcDb2dVertex
 10
656.095123
 20
1380.088257
 30
0.0
  0
VERTEX
  5
378
100
AcDbEntity
  8
_2
  6
CONTINUOUS
 62
     6
100
AcDbVertex
100
AcDb2dVertex
 10
655.624085
 20
1379.950012
 30
0.0
  0
VERTEX
  5
379
100
AcDbEntity
  8
_2
  6
CONTINUOUS
 62
     6
100
AcDbVertex
100
AcDb2dVertex
 10
655.167694
 20
1379.774078
 30
0.0
  0
VERTEX
  5
37A
100
AcDbEntity
  8
_2
  6
CONTINUOUS
 62
     6
100
AcDbVertex
100
AcDb2dVertex
 10
654.729462
 20
1379.562134
 30
0.0
  0
VERTEX
  5
37B
100
AcDbEntity
  8
_2
  6
CONTINUOUS
 62
     6
100
AcDbVertex
100
AcDb2dVertex
 10
654.312897
 20
1379.315247
 30
0.0
  0
VERTEX
  5
37C
100
AcDbEntity
  8
_2
  6
CONTINUOUS
 62
     6
100
AcDbVertex
100
AcDb2dVertex
 10
653.921051
 20
1379.035553
 30
0.0
  0
VERTEX
  5
37D
100
AcDbEntity
  8
_2
  6
CONTINUOUS
 62
     6
100
AcDbVertex
100
AcDb2dVertex
 10
653.556824
 20
1378.725037
 30
0.0
  0
VERTEX
  5
37E
100
AcDbEntity
  8
_2
  6
CONTINUOUS
 62
     6
100
AcDbVertex
100
AcDb2dVertex
 10
653.223114
 20
1378.386292
 30
0.0
  0
VERTEX
  5
37F
100
AcDbEntity
  8
_2
  6
CONTINUOUS
 62
     6
100
AcDbVertex
100
AcDb2dVertex
 10
652.922516
 20
1378.021759
 30
0.0
  0
VERTEX
  5
380
100
AcDbEntity
  8
_2
  6
CONTINUOUS
 62
     6
100
AcDbVertex
100
AcDb2dVertex
 10
652.657165
 20
1377.634033
 30
0.0
  0
VERTEX
  5
381
100
AcDbEntity
  8
_2
  6
CONTINUOUS
 62
     6
100
AcDbVertex
100
AcDb2dVertex
 10
652.429199
 20
1377.226471
 30
0.0
  0
VERTEX
  5
382
100
AcDbEntity
  8
_2
  6
CONTINUOUS
 62
     6
100
AcDbVertex
100
AcDb2dVertex
 10
652.240143
 20
1376.801972
 30
0.0
  0
VERTEX
  5
383
100
AcDbEntity
  8
_2
  6
CONTINUOUS
 62
     6
100
AcDbVertex
100
AcDb2dVertex
 10
652.091522
 20
1376.363587
 30
0.0
  0
VERTEX
  5
384
100
AcDbEntity
  8
_2
  6
CONTINUOUS
 62
     6
100
AcDbVertex
100
AcDb2dVertex
 10
651.984711
 20
1375.914978
 30
0.0
  0
VERTEX
  5
385
100
AcDbEntity
  8
_2
  6
CONTINUOUS
 62
     6
100
AcDbVertex
100
AcDb2dVertex
 10
651.920166
 20
1375.459351
 30
0.0
  0
VERTEX
  5
386
100
AcDbEntity
  8
_2
  6
CONTINUOUS
 62
     6
100
AcDbVertex
100
AcDb2dVertex
 10
651.898651
 20
1375.000214
 30
0.0
  0
VERTEX
  5
387
100
AcDbEntity
  8
_2
  6
CONTINUOUS
 62
     6
100
AcDbVertex
100
AcDb2dVertex
 10
651.920319
 20
1374.541229
 30
0.0
  0
VERTEX
  5
388
100
AcDbEntity
  8
_2
  6
CONTINUOUS
 62
     6
100
AcDbVertex
100
AcDb2dVertex
 10
651.984711
 20
1374.085754
 30
0.0
  0
VERTEX
  5
389
100
AcDbEntity
  8
_2
  6
CONTINUOUS
 62
     6
100
AcDbVertex
100
AcDb2dVertex
 10
652.091522
 20
1373.636536
 30
0.0
  0
VERTEX
  5
38A
100
AcDbEntity
  8
_2
  6
CONTINUOUS
 62
     6
100
AcDbVertex
100
AcDb2dVertex
 10
652.240143
 20
1373.198303
 30
0.0
  0
VERTEX
  5
38B
100
AcDbEntity
  8
_2
  6
CONTINUOUS
 62
     6
100
AcDbVertex
100
AcDb2dVertex
 10
652.429047
 20
1372.773499
 30
0.0
  0
VERTEX
  5
38C
100
AcDbEntity
  8
_2
  6
CONTINUOUS
 62
     6
100
AcDbVertex
100
AcDb2dVertex
 10
652.657165
 20
1372.365936
 30
0.0
  0
VERTEX
  5
38D
100
AcDbEntity
  8
_2
  6
CONTINUOUS
 62
     6
100
AcDbVertex
100
AcDb2dVertex
 10
652.922669
 20
1371.978363
 30
0.0
  0
VERTEX
  5
38E
100
AcDbEntity
  8
_2
  6
CONTINUOUS
 62
     6
100
AcDbVertex
100
AcDb2dVertex
 10
653.223267
 20
1371.613525
 30
0.0
  0
VERTEX
  5
38F
100
AcDbEntity
  8
_2
  6
CONTINUOUS
 62
     6
100
AcDbVertex
100
AcDb2dVertex
 10
653.556824
 20
1371.275085
 30
0.0
  0
VERTEX
  5
390
100
AcDbEntity
  8
_2
  6
CONTINUOUS
 62
     6
100
AcDbVertex
100
AcDb2dVertex
 10
653.921051
 20
1370.964569
 30
0.0
  0
VERTEX
  5
391
100
AcDbEntity
  8
_2
  6
CONTINUOUS
 62
     6
100
AcDbVertex
100
AcDb2dVertex
 10
654.312897
 20
1370.684875
 30
0.0
  0
VERTEX
  5
392
100
AcDbEntity
  8
_2
  6
CONTINUOUS
 62
     6
100
AcDbVertex
100
AcDb2dVertex
 10
654.729462
 20
1370.437988
 30
0.0
  0
VERTEX
  5
393
100
AcDbEntity
  8
_2
  6
CONTINUOUS
 62
     6
100
AcDbVertex
100
AcDb2dVertex
 10
655.167541
 20
1370.225739
 30
0.0
  0
VERTEX
  5
394
100
AcDbEntity
  8
_2
  6
CONTINUOUS
 62
     6
100
AcDbVertex
100
AcDb2dVertex
 10
655.623932
 20
1370.049805
 30
0.0
  0
VERTEX
  5
395
100
AcDbEntity
  8
_2
  6
CONTINUOUS
 62
     6
100
AcDbVertex
100
AcDb2dVertex
 10
656.095123
 20
1369.911713
 30
0.0
  0
VERTEX
  5
396
100
AcDbEntity
  8
_2
  6
CONTINUOUS
 62
     6
100
AcDbVertex
100
AcDb2dVertex
 10
656.577454
 20
1369.812225
 30
0.0
  0
VERTEX
  5
397
100
AcDbEntity
  8
_2
  6
CONTINUOUS
 62
     6
100
AcDbVertex
100
AcDb2dVertex
 10
657.067108
 20
1369.752258
 30
0.0
  0
VERTEX
  5
398
100
AcDbEntity
  8
_2
  6
CONTINUOUS
 62
     6
100
AcDbVertex
100
AcDb2dVertex
 10
657.560577
 20
1369.731964
 30
0.0
  0
VERTEX
  5
399
100
AcDbEntity
  8
_2
  6
CONTINUOUS
 62
     6
100
AcDbVertex
100
AcDb2dVertex
 10
658.054047
 20
1369.751953
 30
0.0
  0
VERTEX
  5
39A
100
AcDbEntity
  8
_2
  6
CONTINUOUS
 62
     6
100
AcDbVertex
100
AcDb2dVertex
 10
658.543854
 20
1369.81192
 30
0.0
  0
VERTEX
  5
39B
100
AcDbEntity
  8
_2
  6
CONTINUOUS
 62
     6
100
AcDbVertex
100
AcDb2dVertex
 10
659.026032
 20
1369.911713
 30
0.0
  0
VERTEX
  5
39C
100
AcDbEntity
  8
_2
  6
CONTINUOUS
 62
     6
100
AcDbVertex
100
AcDb2dVertex
 10
659.49707
 20
1370.049957
 30
0.0
  0
VERTEX
  5
39D
100
AcDbEntity
  8
_2
  6
CONTINUOUS
 62
     6
100
AcDbVertex
100
AcDb2dVertex
 10
659.953461
 20
1370.225891
 30
0.0
  0
SEQEND
  5
39E
100
AcDbEntity
  8
_2
  6
CONTINUOUS
 62
     6
  0
POLYLINE
  5
39F
100
AcDbEntity
  8
_2
  6
CONTINUOUS
 62
     6
100
AcDb2dPolyline
 66
     1
 10
0.0
 20
0.0
 30
0.0
 70
   128
  0
VERTEX
  5
3A0
100
AcDbEntity
  8
_2
  6
CONTINUOUS
 62
     6
100
AcDbVertex
100
AcDb2dVertex
 10
659.953461
 20
1370.225891
 30
0.0
  0
VERTEX
  5
3A1
100
AcDbEntity
  8
_2
  6
CONTINUOUS
 62
     6
100
AcDbVertex
100
AcDb2dVertex
 10
660.39154
 20
1370.437988
 30
0.0
  0
VERTEX
  5
3A2
100
AcDbEntity
  8
_2
  6
CONTINUOUS
 62
     6
100
AcDbVertex
100
AcDb2dVertex
 10
660.808106
 20
1370.684875
 30
0.0
  0
VERTEX
  5
3A3
100
AcDbEntity
  8
_2
  6
CONTINUOUS
 62
     6
100
AcDbVertex
100
AcDb2dVertex
 10
661.199951
 20
1370.964569
 30
0.0
  0
VERTEX
  5
3A4
100
AcDbEntity
  8
_2
  6
CONTINUOUS
 62
     6
100
AcDbVertex
100
AcDb2dVertex
 10
661.564179
 20
1371.275085
 30
0.0
  0
VERTEX
  5
3A5
100
AcDbEntity
  8
_2
  6
CONTINUOUS
 62
     6
100
AcDbVertex
100
AcDb2dVertex
 10
661.897888
 20
1371.613831
 30
0.0
  0
VERTEX
  5
3A6
100
AcDbEntity
  8
_2
  6
CONTINUOUS
 62
     6
100
AcDbVertex
100
AcDb2dVertex
 10
662.198486
 20
1371.978363
 30
0.0
  0
VERTEX
  5
3A7
100
AcDbEntity
  8
_2
  6
CONTINUOUS
 62
     6
100
AcDbVertex
100
AcDb2dVertex
 10
662.463989
 20
1372.365936
 30
0.0
  0
VERTEX
  5
3A8
100
AcDbEntity
  8
_2
  6
CONTINUOUS
 62
     6
100
AcDbVertex
100
AcDb2dVertex
 10
662.691956
 20
1372.773499
 30
0.0
  0
VERTEX
  5
3A9
100
AcDbEntity
  8
_2
  6
CONTINUOUS
 62
     6
100
AcDbVertex
100
AcDb2dVertex
 10
662.881012
 20
1373.197998
 30
0.0
  0
VERTEX
  5
3AA
100
AcDbEntity
  8
_2
  6
CONTINUOUS
 62
     6
100
AcDbVertex
100
AcDb2dVertex
 10
663.02948
 20
1373.636536
 30
0.0
  0
SEQEND
  5
3AB
100
AcDbEntity
  8
_2
  6
CONTINUOUS
 62
     6
  0
POLYLINE
  5
3AC
100
AcDbEntity
  8
_2
  6
CONTINUOUS
 62
     6
100
AcDb2dPolyline
 66
     1
 10
0.0
 20
0.0
 30
0.0
 70
   128
  0
VERTEX
  5
3AD
100
AcDbEntity
  8
_2
  6
CONTINUOUS
 62
     6
100
AcDbVertex
100
AcDb2dVertex
 10
663.02948
 20
1373.636536
 30
0.0
  0
VERTEX
  5
3AE
100
AcDbEntity
  8
_2
  6
CONTINUOUS
 62
     6
100
AcDbVertex
100
AcDb2dVertex
 10
663.136291
 20
1374.085144
 30
0.0
  0
VERTEX
  5
3AF
100
AcDbEntity
  8
_2
  6
CONTINUOUS
 62
     6
100
AcDbVertex
100
AcDb2dVertex
 10
663.200836
 20
1374.540771
 30
0.0
  0
VERTEX
  5
3B0
100
AcDbEntity
  8
_2
  6
CONTINUOUS
 62
     6
100
AcDbVertex
100
AcDb2dVertex
 10
663.222351
 20
1374.999603
 30
0.0
  0
SEQEND
  5
3B1
100
AcDbEntity
  8
_2
  6
CONTINUOUS
 62
     6
  0
POLYLINE
  5
3B2
100
AcDbEntity
  8
_2
  6
CONTINUOUS
 62
     6
100
AcDb2dPolyline
 66
     1
 10
0.0
 20
0.0
 30
0.0
 70
   128
  0
VERTEX
  5
3B3
100
AcDbEntity
  8
_2
  6
CONTINUOUS
 62
     6
100
AcDbVertex
100
AcDb2dVertex
 10
649.722748
 20
1375.000214
 30
0.0
  0
VERTEX
  5
3B4
100
AcDbEntity
  8
_2
  6
CONTINUOUS
 62
     6
100
AcDbVertex
100
AcDb2dVertex
 10
649.70108
 20
1375.459351
 30
0.0
  0
VERTEX
  5
3B5
100
AcDbEntity
  8
_2
  6
CONTINUOUS
 62
     6
100
AcDbVertex
100
AcDb2dVertex
 10
649.636688
 20
1375.915283
 30
0.0
  0
VERTEX
  5
3B6
100
AcDbEntity
  8
_2
  6
CONTINUOUS
 62
     6
100
AcDbVertex
100
AcDb2dVertex
 10
649.529877
 20
1376.363587
 30
0.0
  0
VERTEX
  5
3B7
100
AcDbEntity
  8
_2
  6
CONTINUOUS
 62
     6
100
AcDbVertex
100
AcDb2dVertex
 10
649.381256
 20
1376.801819
 30
0.0
  0
VERTEX
  5
3B8
100
AcDbEntity
  8
_2
  6
CONTINUOUS
 62
     6
100
AcDbVertex
100
AcDb2dVertex
 10
649.192352
 20
1377.226624
 30
0.0
  0
VERTEX
  5
3B9
100
AcDbEntity
  8
_2
  6
CONTINUOUS
 62
     6
100
AcDbVertex
100
AcDb2dVertex
 10
648.964233
 20
1377.634033
 30
0.0
  0
VERTEX
  5
3BA
100
AcDbEntity
  8
_2
  6
CONTINUOUS
 62
     6
100
AcDbVertex
100
AcDb2dVertex
 10
648.698731
 20
1378.021607
 30
0.0
  0
VERTEX
  5
3BB
100
AcDbEntity
  8
_2
  6
CONTINUOUS
 62
     6
100
AcDbVertex
100
AcDb2dVertex
 10
648.39798
 20
1378.386444
 30
0.0
  0
VERTEX
  5
3BC
100
AcDbEntity
  8
_2
  6
CONTINUOUS
 62
     6
100
AcDbVertex
100
AcDb2dVertex
 10
648.06427
 20
1378.725037
 30
0.0
  0
VERTEX
  5
3BD
100
AcDbEntity
  8
_2
  6
CONTINUOUS
 62
     6
100
AcDbVertex
100
AcDb2dVertex
 10
647.700043
 20
1379.035553
 30
0.0
  0
VERTEX
  5
3BE
100
AcDbEntity
  8
_2
  6
CONTINUOUS
 62
     6
100
AcDbVertex
100
AcDb2dVertex
 10
647.308197
 20
1379.315247
 30
0.0
  0
VERTEX
  5
3BF
100
AcDbEntity
  8
_2
  6
CONTINUOUS
 62
     6
100
AcDbVertex
100
AcDb2dVertex
 10
646.891632
 20
1379.562134
 30
0.0
  0
VERTEX
  5
3C0
100
AcDbEntity
  8
_2
  6
CONTINUOUS
 62
     6
100
AcDbVertex
100
AcDb2dVertex
 10
646.4534
 20
1379.774384
 30
0.0
  0
VERTEX
  5
3C1
100
AcDbEntity
  8
_2
  6
CONTINUOUS
 62
     6
100
AcDbVertex
100
AcDb2dVertex
 10
645.997009
 20
1379.950317
 30
0.0
  0
VERTEX
  5
3C2
100
AcDbEntity
  8
_2
  6
CONTINUOUS
 62
     6
100
AcDbVertex
100
AcDb2dVertex
 10
645.525971
 20
1380.088257
 30
0.0
  0
VERTEX
  5
3C3
100
AcDbEntity
  8
_2
  6
CONTINUOUS
 62
     6
100
AcDbVertex
100
AcDb2dVertex
 10
645.04364
 20
1380.187744
 30
0.0
  0
VERTEX
  5
3C4
100
AcDbEntity
  8
_2
  6
CONTINUOUS
 62
     6
100
AcDbVertex
100
AcDb2dVertex
 10
644.553986
 20
1380.247711
 30
0.0
  0
VERTEX
  5
3C5
100
AcDbEntity
  8
_2
  6
CONTINUOUS
 62
     6
100
AcDbVertex
100
AcDb2dVertex
 10
644.060364
 20
1380.267853
 30
0.0
  0
VERTEX
  5
3C6
100
AcDbEntity
  8
_2
  6
CONTINUOUS
 62
     6
100
AcDbVertex
100
AcDb2dVertex
 10
643.566894
 20
1380.247864
 30
0.0
  0
VERTEX
  5
3C7
100
AcDbEntity
  8
_2
  6
CONTINUOUS
 62
     6
100
AcDbVertex
100
AcDb2dVertex
 10
643.077087
 20
1380.187897
 30
0.0
  0
VERTEX
  5
3C8
100
AcDbEntity
  8
_2
  6
CONTINUOUS
 62
     6
100
AcDbVertex
100
AcDb2dVertex
 10
642.59491
 20
1380.088257
 30
0.0
  0
VERTEX
  5
3C9
100
AcDbEntity
  8
_2
  6
CONTINUOUS
 62
     6
100
AcDbVertex
100
AcDb2dVertex
 10
642.123871
 20
1379.950012
 30
0.0
  0
VERTEX
  5
3CA
100
AcDbEntity
  8
_2
  6
CONTINUOUS
 62
     6
100
AcDbVertex
100
AcDb2dVertex
 10
641.667481
 20
1379.774078
 30
0.0
  0
VERTEX
  5
3CB
100
AcDbEntity
  8
_2
  6
CONTINUOUS
 62
     6
100
AcDbVertex
100
AcDb2dVertex
 10
641.229096
 20
1379.562134
 30
0.0
  0
VERTEX
  5
3CC
100
AcDbEntity
  8
_2
  6
CONTINUOUS
 62
     6
100
AcDbVertex
100
AcDb2dVertex
 10
640.81253
 20
1379.315247
 30
0.0
  0
VERTEX
  5
3CD
100
AcDbEntity
  8
_2
  6
CONTINUOUS
 62
     6
100
AcDbVertex
100
AcDb2dVertex
 10
640.420685
 20
1379.035553
 30
0.0
  0
VERTEX
  5
3CE
100
AcDbEntity
  8
_2
  6
CONTINUOUS
 62
     6
100
AcDbVertex
100
AcDb2dVertex
 10
640.056457
 20
1378.725037
 30
0.0
  0
VERTEX
  5
3CF
100
AcDbEntity
  8
_2
  6
CONTINUOUS
 62
     6
100
AcDbVertex
100
AcDb2dVertex
 10
639.722748
 20
1378.386292
 30
0.0
  0
VERTEX
  5
3D0
100
AcDbEntity
  8
_2
  6
CONTINUOUS
 62
     6
100
AcDbVertex
100
AcDb2dVertex
 10
639.421997
 20
1378.021759
 30
0.0
  0
VERTEX
  5
3D1
100
AcDbEntity
  8
_2
  6
CONTINUOUS
 62
     6
100
AcDbVertex
100
AcDb2dVertex
 10
639.156647
 20
1377.634033
 30
0.0
  0
VERTEX
  5
3D2
100
AcDbEntity
  8
_2
  6
CONTINUOUS
 62
     6
100
AcDbVertex
100
AcDb2dVertex
 10
638.92868
 20
1377.226471
 30
0.0
  0
VERTEX
  5
3D3
100
AcDbEntity
  8
_2
  6
CONTINUOUS
 62
     6
100
AcDbVertex
100
AcDb2dVertex
 10
638.739624
 20
1376.801972
 30
0.0
  0
VERTEX
  5
3D4
100
AcDbEntity
  8
_2
  6
CONTINUOUS
 62
     6
100
AcDbVertex
100
AcDb2dVertex
 10
638.591003
 20
1376.363587
 30
0.0
  0
VERTEX
  5
3D5
100
AcDbEntity
  8
_2
  6
CONTINUOUS
 62
     6
100
AcDbVertex
100
AcDb2dVertex
 10
638.484192
 20
1375.914978
 30
0.0
  0
VERTEX
  5
3D6
100
AcDbEntity
  8
_2
  6
CONTINUOUS
 62
     6
100
AcDbVertex
100
AcDb2dVertex
 10
638.419647
 20
1375.459351
 30
0.0
  0
VERTEX
  5
3D7
100
AcDbEntity
  8
_2
  6
CONTINUOUS
 62
     6
100
AcDbVertex
100
AcDb2dVertex
 10
638.398132
 20
1375.000214
 30
0.0
  0
VERTEX
  5
3D8
100
AcDbEntity
  8
_2
  6
CONTINUOUS
 62
     6
100
AcDbVertex
100
AcDb2dVertex
 10
638.4198
 20
1374.541229
 30
0.0
  0
VERTEX
  5
3D9
100
AcDbEntity
  8
_2
  6
CONTINUOUS
 62
     6
100
AcDbVertex
100
AcDb2dVertex
 10
638.484192
 20
1374.085754
 30
0.0
  0
VERTEX
  5
3DA
100
AcDbEntity
  8
_2
  6
CONTINUOUS
 62
     6
100
AcDbVertex
100
AcDb2dVertex
 10
638.591003
 20
1373.636536
 30
0.0
  0
VERTEX
  5
3DB
100
AcDbEntity
  8
_2
  6
CONTINUOUS
 62
     6
100
AcDbVertex
100
AcDb2dVertex
 10
638.739624
 20
1373.198303
 30
0.0
  0
VERTEX
  5
3DC
100
AcDbEntity
  8
_2
  6
CONTINUOUS
 62
     6
100
AcDbVertex
100
AcDb2dVertex
 10
638.928528
 20
1372.773499
 30
0.0
  0
VERTEX
  5
3DD
100
AcDbEntity
  8
_2
  6
CONTINUOUS
 62
     6
100
AcDbVertex
100
AcDb2dVertex
 10
639.156647
 20
1372.365936
 30
0.0
  0
VERTEX
  5
3DE
100
AcDbEntity
  8
_2
  6
CONTINUOUS
 62
     6
100
AcDbVertex
100
AcDb2dVertex
 10
639.42215
 20
1371.978363
 30
0.0
  0
VERTEX
  5
3DF
100
AcDbEntity
  8
_2
  6
CONTINUOUS
 62
     6
100
AcDbVertex
100
AcDb2dVertex
 10
639.7229
 20
1371.613525
 30
0.0
  0
VERTEX
  5
3E0
100
AcDbEntity
  8
_2
  6
CONTINUOUS
 62
     6
100
AcDbVertex
100
AcDb2dVertex
 10
640.056457
 20
1371.275085
 30
0.0
  0
VERTEX
  5
3E1
100
AcDbEntity
  8
_2
  6
CONTINUOUS
 62
     6
100
AcDbVertex
100
AcDb2dVertex
 10
640.420685
 20
1370.964569
 30
0.0
  0
VERTEX
  5
3E2
100
AcDbEntity
  8
_2
  6
CONTINUOUS
 62
     6
100
AcDbVertex
100
AcDb2dVertex
 10
640.81253
 20
1370.684875
 30
0.0
  0
VERTEX
  5
3E3
100
AcDbEntity
  8
_2
  6
CONTINUOUS
 62
     6
100
AcDbVertex
100
AcDb2dVertex
 10
641.229096
 20
1370.437988
 30
0.0
  0
VERTEX
  5
3E4
100
AcDbEntity
  8
_2
  6
CONTINUOUS
 62
     6
100
AcDbVertex
100
AcDb2dVertex
 10
641.667328
 20
1370.225739
 30
0.0
  0
VERTEX
  5
3E5
100
AcDbEntity
  8
_2
  6
CONTINUOUS
 62
     6
100
AcDbVertex
100
AcDb2dVertex
 10
642.123718
 20
1370.049805
 30
0.0
  0
VERTEX
  5
3E6
100
AcDbEntity
  8
_2
  6
CONTINUOUS
 62
     6
100
AcDbVertex
100
AcDb2dVertex
 10
642.59491
 20
1369.911713
 30
0.0
  0
VERTEX
  5
3E7
100
AcDbEntity
  8
_2
  6
CONTINUOUS
 62
     6
100
AcDbVertex
100
AcDb2dVertex
 10
643.07724
 20
1369.812225
 30
0.0
  0
VERTEX
  5
3E8
100
AcDbEntity
  8
_2
  6
CONTINUOUS
 62
     6
100
AcDbVertex
100
AcDb2dVertex
 10
643.566894
 20
1369.752258
 30
0.0
  0
VERTEX
  5
3E9
100
AcDbEntity
  8
_2
  6
CONTINUOUS
 62
     6
100
AcDbVertex
100
AcDb2dVertex
 10
644.060364
 20
1369.731964
 30
0.0
  0
VERTEX
  5
3EA
100
AcDbEntity
  8
_2
  6
CONTINUOUS
 62
     6
100
AcDbVertex
100
AcDb2dVertex
 10
644.553833
 20
1369.751953
 30
0.0
  0
VERTEX
  5
3EB
100
AcDbEntity
  8
_2
  6
CONTINUOUS
 62
     6
100
AcDbVertex
100
AcDb2dVertex
 10
645.04364
 20
1369.81192
 30
0.0
  0
VERTEX
  5
3EC
100
AcDbEntity
  8
_2
  6
CONTINUOUS
 62
     6
100
AcDbVertex
100
AcDb2dVertex
 10
645.525971
 20
1369.911713
 30
0.0
  0
VERTEX
  5
3ED
100
AcDbEntity
  8
_2
  6
CONTINUOUS
 62
     6
100
AcDbVertex
100
AcDb2dVertex
 10
645.997009
 20
1370.049957
 30
0.0
  0
VERTEX
  5
3EE
100
AcDbEntity
  8
_2
  6
CONTINUOUS
 62
     6
100
AcDbVertex
100
AcDb2dVertex
 10
646.4534
 20
1370.225891
 30
0.0
  0
SEQEND
  5
3EF
100
AcDbEntity
  8
_2
  6
CONTINUOUS
 62
     6
  0
POLYLINE
  5
3F0
100
AcDbEntity
  8
_2
  6
CONTINUOUS
 62
     6
100
AcDb2dPolyline
 66
     1
 10
0.0
 20
0.0
 30
0.0
 70
   128
  0
VERTEX
  5
3F1
100
AcDbEntity
  8
_2
  6
CONTINUOUS
 62
     6
100
AcDbVertex
100
AcDb2dVertex
 10
646.4534
 20
1370.225891
 30
0.0
  0
VERTEX
  5
3F2
100
AcDbEntity
  8
_2
  6
CONTINUOUS
 62
     6
100
AcDbVertex
100
AcDb2dVertex
 10
646.891632
 20
1370.437988
 30
0.0
  0
VERTEX
  5
3F3
100
AcDbEntity
  8
_2
  6
CONTINUOUS
 62
     6
100
AcDbVertex
100
AcDb2dVertex
 10
647.308197
 20
1370.684875
 30
0.0
  0
VERTEX
  5
3F4
100
AcDbEntity
  8
_2
  6
CONTINUOUS
 62
     6
100
AcDbVertex
100
AcDb2dVertex
 10
647.700043
 20
1370.964569
 30
0.0
  0
VERTEX
  5
3F5
100
AcDbEntity
  8
_2
  6
CONTINUOUS
 62
     6
100
AcDbVertex
100
AcDb2dVertex
 10
648.06427
 20
1371.275085
 30
0.0
  0
VERTEX
  5
3F6
100
AcDbEntity
  8
_2
  6
CONTINUOUS
 62
     6
100
AcDbVertex
100
AcDb2dVertex
 10
648.39798
 20
1371.613831
 30
0.0
  0
VERTEX
  5
3F7
100
AcDbEntity
  8
_2
  6
CONTINUOUS
 62
     6
100
AcDbVertex
100
AcDb2dVertex
 10
648.698731
 20
1371.978363
 30
0.0
  0
VERTEX
  5
3F8
100
AcDbEntity
  8
_2
  6
CONTINUOUS
 62
     6
100
AcDbVertex
100
AcDb2dVertex
 10
648.964233
 20
1372.365936
 30
0.0
  0
VERTEX
  5
3F9
100
AcDbEntity
  8
_2
  6
CONTINUOUS
 62
     6
100
AcDbVertex
100
AcDb2dVertex
 10
649.1922
 20
1372.773499
 30
0.0
  0
VERTEX
  5
3FA
100
AcDbEntity
  8
_2
  6
CONTINUOUS
 62
     6
100
AcDbVertex
100
AcDb2dVertex
 10
649.381256
 20
1373.197998
 30
0.0
  0
VERTEX
  5
3FB
100
AcDbEntity
  8
_2
  6
CONTINUOUS
 62
     6
100
AcDbVertex
100
AcDb2dVertex
 10
649.529877
 20
1373.636536
 30
0.0
  0
SEQEND
  5
3FC
100
AcDbEntity
  8
_2
  6
CONTINUOUS
 62
     6
  0
POLYLINE
  5
3FD
100
AcDbEntity
  8
_2
  6
CONTINUOUS
 62
     6
100
AcDb2dPolyline
 66
     1
 10
0.0
 20
0.0
 30
0.0
 70
   128
  0
VERTEX
  5
3FE
100
AcDbEntity
  8
_2
  6
CONTINUOUS
 62
     6
100
AcDbVertex
100
AcDb2dVertex
 10
649.529877
 20
1373.636536
 30
0.0
  0
VERTEX
  5
3FF
100
AcDbEntity
  8
_2
  6
CONTINUOUS
 62
     6
100
AcDbVertex
100
AcDb2dVertex
 10
649.636688
 20
1374.085144
 30
0.0
  0
VERTEX
  5
400
100
AcDbEntity
  8
_2
  6
CONTINUOUS
 62
     6
100
AcDbVertex
100
AcDb2dVertex
 10
649.701233
 20
1374.540771
 30
0.0
  0
VERTEX
  5
401
100
AcDbEntity
  8
_2
  6
CONTINUOUS
 62
     6
100
AcDbVertex
100
AcDb2dVertex
 10
649.722748
 20
1374.999603
 30
0.0
  0
SEQEND
  5
402
100
AcDbEntity
  8
_2
  6
CONTINUOUS
 62
     6
  0
LINE
  5
403
100
AcDbEntity
  8
_2
  6
CONTINUOUS
 62
     6
100
AcDbLine
 10
663.310394
 20
1365.499939
 30
0.0
 11
663.310394
 21
1368.999847
 31
0.0
  0
LINE
  5
404
100
AcDbEntity
  8
_2
  6
CONTINUOUS
 62
     6
100
AcDbLine
 10
638.310394
 20
1365.499939
 30
0.0
 11
638.310394
 21
1368.999847
 31
0.0
  0
LINE
  5
405
100
AcDbEntity
  8
_2
  6
CONTINUOUS
 62
     6
100
AcDbLine
 10
664.310455
 20
1364.0
 30
0.0
 11
664.310455
 21
1359.0
 31
0.0
  0
LINE
  5
406
100
AcDbEntity
  8
_2
  6
CONTINUOUS
 62
     6
100
AcDbLine
 10
663.222504
 20
1365.499939
 30
0.0
 11
664.310455
 21
1364.0
 31
0.0
  0
LINE
  5
407
100
AcDbEntity
  8
_2
  6
CONTINUOUS
 62
     6
100
AcDbLine
 10
638.39798
 20
1365.499939
 30
0.0
 11
663.222504
 21
1365.499939
 31
0.0
  0
LINE
  5
408
100
AcDbEntity
  8
_2
  6
CONTINUOUS
 62
     6
100
AcDbLine
 10
637.310333
 20
1364.0
 30
0.0
 11
638.39798
 21
1365.499939
 31
0.0
  0
LINE
  5
409
100
AcDbEntity
  8
_2
  6
CONTINUOUS
 62
     6
100
AcDbLine
 10
637.310333
 20
1364.0
 30
0.0
 11
637.310333
 21
1359.0
 31
0.0
  0
LINE
  5
40A
100
AcDbEntity
  8
_2
  6
CONTINUOUS
 62
     6
100
AcDbLine
 10
663.222504
 20
1364.0
 30
0.0
 11
663.222504
 21
1359.0
 31
0.0
  0
LINE
  5
40B
100
AcDbEntity
  8
_2
  6
CONTINUOUS
 62
     6
100
AcDbLine
 10
651.898498
 20
1364.0
 30
0.0
 11
651.898498
 21
1359.0
 31
0.0
  0
LINE
  5
40C
100
AcDbEntity
  8
_2
  6
CONTINUOUS
 62
     6
100
AcDbLine
 10
649.722748
 20
1364.0
 30
0.0
 11
649.722748
 21
1359.0
 31
0.0
  0
LINE
  5
40D
100
AcDbEntity
  8
_2
  6
CONTINUOUS
 62
     6
100
AcDbLine
 10
638.39798
 20
1364.0
 30
0.0
 11
638.39798
 21
1359.0
 31
0.0
  0
LINE
  5
40E
100
AcDbEntity
  8
_2
  6
CONTINUOUS
 62
     6
100
AcDbLine
 10
663.222504
 20
1364.0
 30
0.0
 11
664.310455
 21
1364.0
 31
0.0
  0
ARC
  5
40F
100
AcDbEntity
  8
_2
  6
CONTINUOUS
 62
     6
100
AcDbCircle
 10
657.560577
 20
1354.063477
 30
0.0
 40
11.436434
100
AcDbArc
 50
60.325043
 51
119.675568
  0
LINE
  5
410
100
AcDbEntity
  8
_2
  6
CONTINUOUS
 62
     6
100
AcDbLine
 10
649.722748
 20
1364.0
 30
0.0
 11
651.898498
 21
1364.0
 31
0.0
  0
ARC
  5
411
100
AcDbEntity
  8
_2
  6
CONTINUOUS
 62
     6
100
AcDbCircle
 10
644.060364
 20
1354.061951
 30
0.0
 40
11.437979
100
AcDbArc
 50
60.326843
 51
119.673157
  0
LINE
  5
412
100
AcDbEntity
  8
_2
  6
CONTINUOUS
 62
     6
100
AcDbLine
 10
637.310333
 20
1364.0
 30
0.0
 11
638.39798
 21
1364.0
 31
0.0
  0
LINE
  5
413
100
AcDbEntity
  8
_2
  6
CONTINUOUS
 62
     6
100
AcDbLine
 10
670.810394
 20
1359.0
 30
0.0
 11
670.810394
 21
1354.0
 31
0.0
  0
LINE
  5
414
100
AcDbEntity
  8
_2
  6
CONTINUOUS
 62
     6
100
AcDbLine
 10
630.810394
 20
1359.0
 30
0.0
 11
670.810394
 21
1359.0
 31
0.0
  0
LINE
  5
415
100
AcDbEntity
  8
_2
  6
CONTINUOUS
 62
     6
100
AcDbLine
 10
630.810394
 20
1359.0
 30
0.0
 11
630.810394
 21
1354.0
 31
0.0
  0
LINE
  5
416
100
AcDbEntity
  8
_2
  6
CONTINUOUS
 62
     6
100
AcDbLine
 10
620.810394
 20
488.338391
 30
0.0
 11
620.810394
 21
504.0
 31
0.0
  0
LINE
  5
417
100
AcDbEntity
  8
_2
  6
CONTINUOUS
 62
     6
100
AcDbLine
 10
680.810394
 20
488.338391
 30
0.0
 11
680.810394
 21
504.0
 31
0.0
  0
LINE
  5
418
100
AcDbEntity
  8
_2
  6
CONTINUOUS
 62
     6
100
AcDbLine
 10
680.810394
 20
476.338391
 30
0.0
 11
680.810394
 21
480.338391
 31
0.0
  0
LINE
  5
419
100
AcDbEntity
  8
_2
  6
CONTINUOUS
 62
     6
100
AcDbLine
 10
680.810394
 20
428.338391
 30
0.0
 11
680.810394
 21
456.338391
 31
0.0
  0
LINE
  5
41A
100
AcDbEntity
  8
_2
  6
CONTINUOUS
 62
     6
100
AcDbLine
 10
680.810394
 20
464.338391
 30
0.0
 11
680.810394
 21
468.338391
 31
0.0
  0
LINE
  5
41B
100
AcDbEntity
  8
_2
  6
CONTINUOUS
 62
     6
100
AcDbLine
 10
620.810394
 20
476.338391
 30
0.0
 11
620.810394
 21
480.338391
 31
0.0
  0
LINE
  5
41C
100
AcDbEntity
  8
_2
  6
CONTINUOUS
 62
     6
100
AcDbLine
 10
620.810394
 20
426.338391
 30
0.0
 11
620.810394
 21
456.338391
 31
0.0
  0
LINE
  5
41D
100
AcDbEntity
  8
_2
  6
CONTINUOUS
 62
     6
100
AcDbLine
 10
620.810394
 20
464.338391
 30
0.0
 11
620.810394
 21
468.338391
 31
0.0
  0
POLYLINE
  5
41E
100
AcDbEntity
  8
_2
  6
CONTINUOUS
 62
     6
100
AcDb2dPolyline
 66
     1
 10
0.0
 20
0.0
 30
0.0
 70
   128
  0
VERTEX
  5
41F
100
AcDbEntity
  8
_2
  6
CONTINUOUS
 62
     6
100
AcDbVertex
100
AcDb2dVertex
 10
620.810394
 20
426.338391
 30
0.0
  0
VERTEX
  5
420
100
AcDbEntity
  8
_2
  6
CONTINUOUS
 62
     6
100
AcDbVertex
100
AcDb2dVertex
 10
620.951725
 20
426.501466
 30
0.0
  0
VERTEX
  5
421
100
AcDbEntity
  8
_2
  6
CONTINUOUS
 62
     6
100
AcDbVertex
100
AcDb2dVertex
 10
621.354667
 20
426.951906
 30
0.0
  0
VERTEX
  5
422
100
AcDbEntity
  8
_2
  6
CONTINUOUS
 62
     6
100
AcDbVertex
100
AcDb2dVertex
 10
621.987645
 20
427.631537
 30
0.0
  0
VERTEX
  5
423
100
AcDbEntity
  8
_2
  6
CONTINUOUS
 62
     6
100
AcDbVertex
100
AcDb2dVertex
 10
622.819083
 20
428.482182
 30
0.0
  0
VERTEX
  5
424
100
AcDbEntity
  8
_2
  6
CONTINUOUS
 62
     6
100
AcDbVertex
100
AcDb2dVertex
 10
623.817405
 20
429.445667
 30
0.0
  0
VERTEX
  5
425
100
AcDbEntity
  8
_2
  6
CONTINUOUS
 62
     6
100
AcDbVertex
100
AcDb2dVertex
 10
624.951037
 20
430.463817
 30
0.0
  0
VERTEX
  5
426
100
AcDbEntity
  8
_2
  6
CONTINUOUS
 62
     6
100
AcDbVertex
100
AcDb2dVertex
 10
626.188402
 20
431.478455
 30
0.0
  0
VERTEX
  5
427
100
AcDbEntity
  8
_2
  6
CONTINUOUS
 62
     6
100
AcDbVertex
100
AcDb2dVertex
 10
627.497925
 20
432.431407
 30
0.0
  0
VERTEX
  5
428
100
AcDbEntity
  8
_2
  6
CONTINUOUS
 62
     6
100
AcDbVertex
100
AcDb2dVertex
 10
628.848031
 20
433.264497
 30
0.0
  0
VERTEX
  5
429
100
AcDbEntity
  8
_2
  6
CONTINUOUS
 62
     6
100
AcDbVertex
100
AcDb2dVertex
 10
630.207143
 20
433.919551
 30
0.0
  0
VERTEX
  5
42A
100
AcDbEntity
  8
_2
  6
CONTINUOUS
 62
     6
100
AcDbVertex
100
AcDb2dVertex
 10
631.543686
 20
434.338391
 30
0.0
  0
VERTEX
  5
42B
100
AcDbEntity
  8
_2
  6
CONTINUOUS
 62
     6
100
AcDbVertex
100
AcDb2dVertex
 10
633.045114
 20
434.476432
 30
0.0
  0
VERTEX
  5
42C
100
AcDbEntity
  8
_2
  6
CONTINUOUS
 62
     6
100
AcDbVertex
100
AcDb2dVertex
 10
634.479589
 20
434.273896
 30
0.0
  0
VERTEX
  5
42D
100
AcDbEntity
  8
_2
  6
CONTINUOUS
 62
     6
100
AcDbVertex
100
AcDb2dVertex
 10
635.854182
 20
433.792681
 30
0.0
  0
VERTEX
  5
42E
100
AcDbEntity
  8
_2
  6
CONTINUOUS
 62
     6
100
AcDbVertex
100
AcDb2dVertex
 10
637.175964
 20
433.094688
 30
0.0
  0
VERTEX
  5
42F
100
AcDbEntity
  8
_2
  6
CONTINUOUS
 62
     6
100
AcDbVertex
100
AcDb2dVertex
 10
638.452006
 20
432.241813
 30
0.0
  0
VERTEX
  5
430
100
AcDbEntity
  8
_2
  6
CONTINUOUS
 62
     6
100
AcDbVertex
100
AcDb2dVertex
 10
639.689378
 20
431.295957
 30
0.0
  0
VERTEX
  5
431
100
AcDbEntity
  8
_2
  6
CONTINUOUS
 62
     6
100
AcDbVertex
100
AcDb2dVertex
 10
640.895153
 20
430.319016
 30
0.0
  0
VERTEX
  5
432
100
AcDbEntity
  8
_2
  6
CONTINUOUS
 62
     6
100
AcDbVertex
100
AcDb2dVertex
 10
642.0764
 20
429.372891
 30
0.0
  0
VERTEX
  5
433
100
AcDbEntity
  8
_2
  6
CONTINUOUS
 62
     6
100
AcDbVertex
100
AcDb2dVertex
 10
643.24019
 20
428.519479
 30
0.0
  0
VERTEX
  5
434
100
AcDbEntity
  8
_2
  6
CONTINUOUS
 62
     6
100
AcDbVertex
100
AcDb2dVertex
 10
644.393596
 20
427.82068
 30
0.0
  0
VERTEX
  5
435
100
AcDbEntity
  8
_2
  6
CONTINUOUS
 62
     6
100
AcDbVertex
100
AcDb2dVertex
 10
645.543686
 20
427.338391
 30
0.0
  0
VERTEX
  5
436
100
AcDbEntity
  8
_2
  6
CONTINUOUS
 62
     6
100
AcDbVertex
100
AcDb2dVertex
 10
646.850681
 20
427.107563
 30
0.0
  0
VERTEX
  5
437
100
AcDbEntity
  8
_2
  6
CONTINUOUS
 62
     6
100
AcDbVertex
100
AcDb2dVertex
 10
648.17321
 20
427.178617
 30
0.0
  0
VERTEX
  5
438
100
AcDbEntity
  8
_2
  6
CONTINUOUS
 62
     6
100
AcDbVertex
100
AcDb2dVertex
 10
649.521991
 20
427.496618
 30
0.0
  0
VERTEX
  5
439
100
AcDbEntity
  8
_2
  6
CONTINUOUS
 62
     6
100
AcDbVertex
100
AcDb2dVertex
 10
650.907746
 20
428.00663
 30
0.0
  0
VERTEX
  5
43A
100
AcDbEntity
  8
_2
  6
CONTINUOUS
 62
     6
100
AcDbVertex
100
AcDb2dVertex
 10
652.341192
 20
428.653717
 30
0.0
  0
VERTEX
  5
43B
100
AcDbEntity
  8
_2
  6
CONTINUOUS
 62
     6
100
AcDbVertex
100
AcDb2dVertex
 10
653.833049
 20
429.382942
 30
0.0
  0
VERTEX
  5
43C
100
AcDbEntity
  8
_2
  6
CONTINUOUS
 62
     6
100
AcDbVertex
100
AcDb2dVertex
 10
655.394038
 20
430.13937
 30
0.0
  0
VERTEX
  5
43D
100
AcDbEntity
  8
_2
  6
CONTINUOUS
 62
     6
100
AcDbVertex
100
AcDb2dVertex
 10
657.034876
 20
430.868065
 30
0.0
  0
VERTEX
  5
43E
100
AcDbEntity
  8
_2
  6
CONTINUOUS
 62
     6
100
AcDbVertex
100
AcDb2dVertex
 10
658.766284
 20
431.514091
 30
0.0
  0
VERTEX
  5
43F
100
AcDbEntity
  8
_2
  6
CONTINUOUS
 62
     6
100
AcDbVertex
100
AcDb2dVertex
 10
660.598981
 20
432.022512
 30
0.0
  0
VERTEX
  5
440
100
AcDbEntity
  8
_2
  6
CONTINUOUS
 62
     6
100
AcDbVertex
100
AcDb2dVertex
 10
662.543687
 20
432.338391
 30
0.0
  0
VERTEX
  5
441
100
AcDbEntity
  8
_2
  6
CONTINUOUS
 62
     6
100
AcDbVertex
100
AcDb2dVertex
 10
664.717124
 20
432.420785
 30
0.0
  0
VERTEX
  5
442
100
AcDbEntity
  8
_2
  6
CONTINUOUS
 62
     6
100
AcDbVertex
100
AcDb2dVertex
 10
666.967424
 20
432.274184
 30
0.0
  0
VERTEX
  5
443
100
AcDbEntity
  8
_2
  6
CONTINUOUS
 62
     6
100
AcDbVertex
100
AcDb2dVertex
 10
669.234776
 20
431.945183
 30
0.0
  0
VERTEX
  5
444
100
AcDbEntity
  8
_2
  6
CONTINUOUS
 62
     6
100
AcDbVertex
100
AcDb2dVertex
 10
671.459371
 20
431.480379
 30
0.0
  0
VERTEX
  5
445
100
AcDbEntity
  8
_2
  6
CONTINUOUS
 62
     6
100
AcDbVertex
100
AcDb2dVertex
 10
673.581401
 20
430.92637
 30
0.0
  0
VERTEX
  5
446
100
AcDbEntity
  8
_2
  6
CONTINUOUS
 62
     6
100
AcDbVertex
100
AcDb2dVertex
 10
675.541056
 20
430.329751
 30
0.0
  0
VERTEX
  5
447
100
AcDbEntity
  8
_2
  6
CONTINUOUS
 62
     6
100
AcDbVertex
100
AcDb2dVertex
 10
677.278527
 20
429.737119
 30
0.0
  0
VERTEX
  5
448
100
AcDbEntity
  8
_2
  6
CONTINUOUS
 62
     6
100
AcDbVertex
100
AcDb2dVertex
 10
678.734005
 20
429.19507
 30
0.0
  0
VERTEX
  5
449
100
AcDbEntity
  8
_2
  6
CONTINUOUS
 62
     6
100
AcDbVertex
100
AcDb2dVertex
 10
679.847682
 20
428.750202
 30
0.0
  0
VERTEX
  5
44A
100
AcDbEntity
  8
_2
  6
CONTINUOUS
 62
     6
100
AcDbVertex
100
AcDb2dVertex
 10
680.559748
 20
428.44911
 30
0.0
  0
VERTEX
  5
44B
100
AcDbEntity
  8
_2
  6
CONTINUOUS
 62
     6
100
AcDbVertex
100
AcDb2dVertex
 10
680.810394
 20
428.338391
 30
0.0
  0
SEQEND
  5
44C
100
AcDbEntity
  8
_2
  6
CONTINUOUS
 62
     6
  0
LINE
  5
44D
100
AcDbEntity
  8
_2
  6
CONTINUOUS
 62
     7
100
AcDbLine
 10
1460.810394
 20
504.0
 30
0.0
 11
1460.810394
 21
554.318655
 31
0.0
  0
ARC
  5
44E
100
AcDbEntity
  8
_2
  6
CONTINUOUS
 62
     7
100
AcDbCircle
 10
1966.184388
 20
843.599942
 30
0.0
 40
580.0
100
AcDbArc
 50
187.291819
 51
208.930475
  0
ARC
  5
44F
100
AcDbEntity
  8
_2
  6
CONTINUOUS
 62
     7
100
AcDbCircle
 10
1442.810394
 20
554.318655
 30
0.0
 40
18.0
100
AcDbArc
 50
0.0
 51
28.930475
  0
ARC
  5
450
100
AcDbEntity
  8
_2
  6
CONTINUOUS
 62
     7
100
AcDbCircle
 10
1499.97935
 20
848.324043
 30
0.0
 40
53.0
100
AcDbArc
 50
285.718067
 51
356.297787
  0
ARC
  5
451
100
AcDbEntity
  8
_2
  6
CONTINUOUS
 62
     7
100
AcDbCircle
 10
1623.810394
 20
1346.0
 30
0.0
 40
8.0
100
AcDbArc
 50
90.0
 51
104.792162
  0
LINE
  5
452
100
AcDbEntity
  8
_2
  6
CONTINUOUS
 62
     7
100
AcDbLine
 10
1623.810394
 20
1354.0
 30
0.0
 11
1750.810394
 21
1354.0
 31
0.0
  0
ARC
  5
453
100
AcDbEntity
  8
_2
  6
CONTINUOUS
 62
     7
100
AcDbCircle
 10
1634.377793
 20
1054.0
 30
0.0
 40
300.0
100
AcDbArc
 50
92.409025
 51
96.134885
  0
ARC
  5
454
100
AcDbEntity
  8
_2
  6
CONTINUOUS
 62
     7
100
AcDbCircle
 10
1398.810394
 20
771.0
 30
0.0
 40
8.0
100
AcDbArc
 50
92.247872
 51
187.291831
  0
ARC
  5
455
100
AcDbEntity
  8
_2
  6
CONTINUOUS
 62
     7
100
AcDbCircle
 10
1378.885263
 20
1278.609091
 30
0.0
 40
500.0
100
AcDbArc
 50
272.247872
 51
285.718067
  0
LINE
  5
456
100
AcDbEntity
  8
_2
  6
CONTINUOUS
 62
     7
100
AcDbLine
 10
1584.49608
 20
1333.687874
 30
0.0
 11
1552.868745
 21
844.901788
 31
0.0
  0
ARC
  5
457
100
AcDbEntity
  8
_2
  6
CONTINUOUS
 62
     7
100
AcDbCircle
 10
1604.454343
 20
1332.396457
 30
0.0
 40
20.0
100
AcDbArc
 50
96.134885
 51
176.297787
  0
LINE
  5
458
100
AcDbEntity
  8
_2
  6
EXLTYPE3
 62
     6
100
AcDbLine
 10
1570.810394
 20
427.860609
 30
0.0
 11
1570.810394
 21
652.958087
 31
0.0
  0
ARC
  5
459
100
AcDbEntity
  8
_2
  6
CONTINUOUS
 62
     7
100
AcDbCircle
 10
1609.496886
 20
1332.892346
 30
0.0
 40
20.0
100
AcDbArc
 50
95.098049
 51
176.297787
  0
LINE
  5
45A
100
AcDbEntity
  8
_2
  6
CONTINUOUS
 62
     7
100
AcDbLine
 10
1589.538623
 20
1334.183763
 30
0.0
 11
1535.79996
 21
503.677146
 31
0.0
  0
ARC
  5
45B
100
AcDbEntity
  8
_2
  6
CONTINUOUS
 62
     7
100
AcDbCircle
 10
1046.629405
 20
832.327016
 30
0.0
 40
496.239407
100
AcDbArc
 50
327.442686
 51
356.529736
  0
ARC
  5
45C
100
AcDbEntity
  8
_2
  6
CONTINUOUS
 62
     6
100
AcDbCircle
 10
1680.810089
 20
1374.995636
 30
0.0
 40
10.000305
100
AcDbArc
 50
323.130981
 51
36.869019
  0
LINE
  5
45D
100
AcDbEntity
  8
_2
  6
CONTINUOUS
 62
     6
100
AcDbLine
 10
1662.810364
 20
1380.995697
 30
0.0
 11
1688.810425
 21
1380.995697
 31
0.0
  0
ARC
  5
45E
100
AcDbEntity
  8
_2
  6
CONTINUOUS
 62
     6
100
AcDbCircle
 10
1670.8107
 20
1374.995636
 30
0.0
 40
10.000305
100
AcDbArc
 50
143.130981
 51
216.869019
  0
LINE
  5
45F
100
AcDbEntity
  8
_2
  6
CONTINUOUS
 62
     6
100
AcDbLine
 10
1662.810364
 20
1368.995575
 30
0.0
 11
1688.810425
 21
1368.995575
 31
0.0
  0
POLYLINE
  5
460
100
AcDbEntity
  8
_2
  6
CONTINUOUS
 62
     6
100
AcDb2dPolyline
 66
     1
 10
0.0
 20
0.0
 30
0.0
 70
   128
  0
VERTEX
  5
461
100
AcDbEntity
  8
_2
  6
CONTINUOUS
 62
     6
100
AcDbVertex
100
AcDb2dVertex
 10
1690.771027
 20
1374.995941
 30
0.0
  0
VERTEX
  5
462
100
AcDbEntity
  8
_2
  6
CONTINUOUS
 62
     6
100
AcDbVertex
100
AcDb2dVertex
 10
1690.758514
 20
1375.455078
 30
0.0
  0
VERTEX
  5
463
100
AcDbEntity
  8
_2
  6
CONTINUOUS
 62
     6
100
AcDbVertex
100
AcDb2dVertex
 10
1690.721283
 20
1375.911011
 30
0.0
  0
VERTEX
  5
464
100
AcDbEntity
  8
_2
  6
CONTINUOUS
 62
     6
100
AcDbVertex
100
AcDb2dVertex
 10
1690.65979
 20
1376.359314
 30
0.0
  0
VERTEX
  5
465
100
AcDbEntity
  8
_2
  6
CONTINUOUS
 62
     6
100
AcDbVertex
100
AcDb2dVertex
 10
1690.574036
 20
1376.797546
 30
0.0
  0
VERTEX
  5
466
100
AcDbEntity
  8
_2
  6
CONTINUOUS
 62
     6
100
AcDbVertex
100
AcDb2dVertex
 10
1690.464935
 20
1377.222351
 30
0.0
  0
VERTEX
  5
467
100
AcDbEntity
  8
_2
  6
CONTINUOUS
 62
     6
100
AcDbVertex
100
AcDb2dVertex
 10
1690.333252
 20
1377.629761
 30
0.0
  0
VERTEX
  5
468
100
AcDbEntity
  8
_2
  6
CONTINUOUS
 62
     6
100
AcDbVertex
100
AcDb2dVertex
 10
1690.180054
 20
1378.017334
 30
0.0
  0
VERTEX
  5
469
100
AcDbEntity
  8
_2
  6
CONTINUOUS
 62
     6
100
AcDbVertex
100
AcDb2dVertex
 10
1690.006561
 20
1378.382172
 30
0.0
  0
VERTEX
  5
46A
100
AcDbEntity
  8
_2
  6
CONTINUOUS
 62
     6
100
AcDbVertex
100
AcDb2dVertex
 10
1689.813538
 20
1378.720764
 30
0.0
  0
VERTEX
  5
46B
100
AcDbEntity
  8
_2
  6
CONTINUOUS
 62
     6
100
AcDbVertex
100
AcDb2dVertex
 10
1689.603272
 20
1379.03128
 30
0.0
  0
VERTEX
  5
46C
100
AcDbEntity
  8
_2
  6
CONTINUOUS
 62
     6
100
AcDbVertex
100
AcDb2dVertex
 10
1689.377136
 20
1379.310974
 30
0.0
  0
VERTEX
  5
46D
100
AcDbEntity
  8
_2
  6
CONTINUOUS
 62
     6
100
AcDbVertex
100
AcDb2dVertex
 10
1689.136505
 20
1379.557861
 30
0.0
  0
VERTEX
  5
46E
100
AcDbEntity
  8
_2
  6
CONTINUOUS
 62
     6
100
AcDbVertex
100
AcDb2dVertex
 10
1688.883514
 20
1379.770111
 30
0.0
  0
VERTEX
  5
46F
100
AcDbEntity
  8
_2
  6
CONTINUOUS
 62
     6
100
AcDbVertex
100
AcDb2dVertex
 10
1688.620148
 20
1379.946045
 30
0.0
  0
VERTEX
  5
470
100
AcDbEntity
  8
_2
  6
CONTINUOUS
 62
     6
100
AcDbVertex
100
AcDb2dVertex
 10
1688.347931
 20
1380.083984
 30
0.0
  0
VERTEX
  5
471
100
AcDbEntity
  8
_2
  6
CONTINUOUS
 62
     6
100
AcDbVertex
100
AcDb2dVertex
 10
1688.069458
 20
1380.183472
 30
0.0
  0
VERTEX
  5
472
100
AcDbEntity
  8
_2
  6
CONTINUOUS
 62
     6
100
AcDbVertex
100
AcDb2dVertex
 10
1687.786865
 20
1380.243439
 30
0.0
  0
VERTEX
  5
473
100
AcDbEntity
  8
_2
  6
CONTINUOUS
 62
     6
100
AcDbVertex
100
AcDb2dVertex
 10
1687.501526
 20
1380.26358
 30
0.0
  0
VERTEX
  5
474
100
AcDbEntity
  8
_2
  6
CONTINUOUS
 62
     6
100
AcDbVertex
100
AcDb2dVertex
 10
1687.216492
 20
1380.243591
 30
0.0
  0
VERTEX
  5
475
100
AcDbEntity
  8
_2
  6
CONTINUOUS
 62
     6
100
AcDbVertex
100
AcDb2dVertex
 10
1686.933594
 20
1380.183624
 30
0.0
  0
VERTEX
  5
476
100
AcDbEntity
  8
_2
  6
CONTINUOUS
 62
     6
100
AcDbVertex
100
AcDb2dVertex
 10
1686.655426
 20
1380.083984
 30
0.0
  0
VERTEX
  5
477
100
AcDbEntity
  8
_2
  6
CONTINUOUS
 62
     6
100
AcDbVertex
100
AcDb2dVertex
 10
1686.383362
 20
1379.94574
 30
0.0
  0
VERTEX
  5
478
100
AcDbEntity
  8
_2
  6
CONTINUOUS
 62
     6
100
AcDbVertex
100
AcDb2dVertex
 10
1686.119843
 20
1379.769806
 30
0.0
  0
VERTEX
  5
479
100
AcDbEntity
  8
_2
  6
CONTINUOUS
 62
     6
100
AcDbVertex
100
AcDb2dVertex
 10
1685.867004
 20
1379.557861
 30
0.0
  0
VERTEX
  5
47A
100
AcDbEntity
  8
_2
  6
CONTINUOUS
 62
     6
100
AcDbVertex
100
AcDb2dVertex
 10
1685.626526
 20
1379.310974
 30
0.0
  0
VERTEX
  5
47B
100
AcDbEntity
  8
_2
  6
CONTINUOUS
 62
     6
100
AcDbVertex
100
AcDb2dVertex
 10
1685.400086
 20
1379.03128
 30
0.0
  0
VERTEX
  5
47C
100
AcDbEntity
  8
_2
  6
CONTINUOUS
 62
     6
100
AcDbVertex
100
AcDb2dVertex
 10
1685.189819
 20
1378.720764
 30
0.0
  0
VERTEX
  5
47D
100
AcDbEntity
  8
_2
  6
CONTINUOUS
 62
     6
100
AcDbVertex
100
AcDb2dVertex
 10
1684.997101
 20
1378.382019
 30
0.0
  0
VERTEX
  5
47E
100
AcDbEntity
  8
_2
  6
CONTINUOUS
 62
     6
100
AcDbVertex
100
AcDb2dVertex
 10
1684.823456
 20
1378.017487
 30
0.0
  0
VERTEX
  5
47F
100
AcDbEntity
  8
_2
  6
CONTINUOUS
 62
     6
100
AcDbVertex
100
AcDb2dVertex
 10
1684.670258
 20
1377.629761
 30
0.0
  0
VERTEX
  5
480
100
AcDbEntity
  8
_2
  6
CONTINUOUS
 62
     6
100
AcDbVertex
100
AcDb2dVertex
 10
1684.538574
 20
1377.222198
 30
0.0
  0
VERTEX
  5
481
100
AcDbEntity
  8
_2
  6
CONTINUOUS
 62
     6
100
AcDbVertex
100
AcDb2dVertex
 10
1684.429321
 20
1376.797699
 30
0.0
  0
VERTEX
  5
482
100
AcDbEntity
  8
_2
  6
CONTINUOUS
 62
     6
100
AcDbVertex
100
AcDb2dVertex
 10
1684.343872
 20
1376.359314
 30
0.0
  0
VERTEX
  5
483
100
AcDbEntity
  8
_2
  6
CONTINUOUS
 62
     6
100
AcDbVertex
100
AcDb2dVertex
 10
1684.282227
 20
1375.910706
 30
0.0
  0
VERTEX
  5
484
100
AcDbEntity
  8
_2
  6
CONTINUOUS
 62
     6
100
AcDbVertex
100
AcDb2dVertex
 10
1684.245148
 20
1375.455078
 30
0.0
  0
VERTEX
  5
485
100
AcDbEntity
  8
_2
  6
CONTINUOUS
 62
     6
100
AcDbVertex
100
AcDb2dVertex
 10
1684.232483
 20
1374.995941
 30
0.0
  0
VERTEX
  5
486
100
AcDbEntity
  8
_2
  6
CONTINUOUS
 62
     6
100
AcDbVertex
100
AcDb2dVertex
 10
1684.244995
 20
1374.536957
 30
0.0
  0
VERTEX
  5
487
100
AcDbEntity
  8
_2
  6
CONTINUOUS
 62
     6
100
AcDbVertex
100
AcDb2dVertex
 10
1684.282379
 20
1374.081482
 30
0.0
  0
VERTEX
  5
488
100
AcDbEntity
  8
_2
  6
CONTINUOUS
 62
     6
100
AcDbVertex
100
AcDb2dVertex
 10
1684.343872
 20
1373.632263
 30
0.0
  0
VERTEX
  5
489
100
AcDbEntity
  8
_2
  6
CONTINUOUS
 62
     6
100
AcDbVertex
100
AcDb2dVertex
 10
1684.429627
 20
1373.194031
 30
0.0
  0
VERTEX
  5
48A
100
AcDbEntity
  8
_2
  6
CONTINUOUS
 62
     6
100
AcDbVertex
100
AcDb2dVertex
 10
1684.538879
 20
1372.769226
 30
0.0
  0
VERTEX
  5
48B
100
AcDbEntity
  8
_2
  6
CONTINUOUS
 62
     6
100
AcDbVertex
100
AcDb2dVertex
 10
1684.670258
 20
1372.361664
 30
0.0
  0
VERTEX
  5
48C
100
AcDbEntity
  8
_2
  6
CONTINUOUS
 62
     6
100
AcDbVertex
100
AcDb2dVertex
 10
1684.823456
 20
1371.974091
 30
0.0
  0
VERTEX
  5
48D
100
AcDbEntity
  8
_2
  6
CONTINUOUS
 62
     6
100
AcDbVertex
100
AcDb2dVertex
 10
1684.997101
 20
1371.609253
 30
0.0
  0
VERTEX
  5
48E
100
AcDbEntity
  8
_2
  6
CONTINUOUS
 62
     6
100
AcDbVertex
100
AcDb2dVertex
 10
1685.189819
 20
1371.270813
 30
0.0
  0
VERTEX
  5
48F
100
AcDbEntity
  8
_2
  6
CONTINUOUS
 62
     6
100
AcDbVertex
100
AcDb2dVertex
 10
1685.400086
 20
1370.960297
 30
0.0
  0
VERTEX
  5
490
100
AcDbEntity
  8
_2
  6
CONTINUOUS
 62
     6
100
AcDbVertex
100
AcDb2dVertex
 10
1685.626373
 20
1370.680603
 30
0.0
  0
VERTEX
  5
491
100
AcDbEntity
  8
_2
  6
CONTINUOUS
 62
     6
100
AcDbVertex
100
AcDb2dVertex
 10
1685.867004
 20
1370.433716
 30
0.0
  0
VERTEX
  5
492
100
AcDbEntity
  8
_2
  6
CONTINUOUS
 62
     6
100
AcDbVertex
100
AcDb2dVertex
 10
1686.119995
 20
1370.221466
 30
0.0
  0
VERTEX
  5
493
100
AcDbEntity
  8
_2
  6
CONTINUOUS
 62
     6
100
AcDbVertex
100
AcDb2dVertex
 10
1686.383514
 20
1370.045532
 30
0.0
  0
VERTEX
  5
494
100
AcDbEntity
  8
_2
  6
CONTINUOUS
 62
     6
100
AcDbVertex
100
AcDb2dVertex
 10
1686.655426
 20
1369.90744
 30
0.0
  0
VERTEX
  5
495
100
AcDbEntity
  8
_2
  6
CONTINUOUS
 62
     6
100
AcDbVertex
100
AcDb2dVertex
 10
1686.933899
 20
1369.807953
 30
0.0
  0
VERTEX
  5
496
100
AcDbEntity
  8
_2
  6
CONTINUOUS
 62
     6
100
AcDbVertex
100
AcDb2dVertex
 10
1687.216644
 20
1369.747986
 30
0.0
  0
VERTEX
  5
497
100
AcDbEntity
  8
_2
  6
CONTINUOUS
 62
     6
100
AcDbVertex
100
AcDb2dVertex
 10
1687.501526
 20
1369.727692
 30
0.0
  0
VERTEX
  5
498
100
AcDbEntity
  8
_2
  6
CONTINUOUS
 62
     6
100
AcDbVertex
100
AcDb2dVertex
 10
1687.786408
 20
1369.747681
 30
0.0
  0
VERTEX
  5
499
100
AcDbEntity
  8
_2
  6
CONTINUOUS
 62
     6
100
AcDbVertex
100
AcDb2dVertex
 10
1688.069
 20
1369.807648
 30
0.0
  0
VERTEX
  5
49A
100
AcDbEntity
  8
_2
  6
CONTINUOUS
 62
     6
100
AcDbVertex
100
AcDb2dVertex
 10
1688.347931
 20
1369.90744
 30
0.0
  0
VERTEX
  5
49B
100
AcDbEntity
  8
_2
  6
CONTINUOUS
 62
     6
100
AcDbVertex
100
AcDb2dVertex
 10
1688.619995
 20
1370.045685
 30
0.0
  0
VERTEX
  5
49C
100
AcDbEntity
  8
_2
  6
CONTINUOUS
 62
     6
100
AcDbVertex
100
AcDb2dVertex
 10
1688.883667
 20
1370.221619
 30
0.0
  0
SEQEND
  5
49D
100
AcDbEntity
  8
_2
  6
CONTINUOUS
 62
     6
  0
POLYLINE
  5
49E
100
AcDbEntity
  8
_2
  6
CONTINUOUS
 62
     6
100
AcDb2dPolyline
 66
     1
 10
0.0
 20
0.0
 30
0.0
 70
   128
  0
VERTEX
  5
49F
100
AcDbEntity
  8
_2
  6
CONTINUOUS
 62
     6
100
AcDbVertex
100
AcDb2dVertex
 10
1688.883667
 20
1370.221619
 30
0.0
  0
VERTEX
  5
4A0
100
AcDbEntity
  8
_2
  6
CONTINUOUS
 62
     6
100
AcDbVertex
100
AcDb2dVertex
 10
1689.136505
 20
1370.433716
 30
0.0
  0
VERTEX
  5
4A1
100
AcDbEntity
  8
_2
  6
CONTINUOUS
 62
     6
100
AcDbVertex
100
AcDb2dVertex
 10
1689.377136
 20
1370.680603
 30
0.0
  0
VERTEX
  5
4A2
100
AcDbEntity
  8
_2
  6
CONTINUOUS
 62
     6
100
AcDbVertex
100
AcDb2dVertex
 10
1689.603424
 20
1370.960297
 30
0.0
  0
VERTEX
  5
4A3
100
AcDbEntity
  8
_2
  6
CONTINUOUS
 62
     6
100
AcDbVertex
100
AcDb2dVertex
 10
1689.813538
 20
1371.270813
 30
0.0
  0
VERTEX
  5
4A4
100
AcDbEntity
  8
_2
  6
CONTINUOUS
 62
     6
100
AcDbVertex
100
AcDb2dVertex
 10
1690.006256
 20
1371.609558
 30
0.0
  0
VERTEX
  5
4A5
100
AcDbEntity
  8
_2
  6
CONTINUOUS
 62
     6
100
AcDbVertex
100
AcDb2dVertex
 10
1690.180054
 20
1371.974091
 30
0.0
  0
VERTEX
  5
4A6
100
AcDbEntity
  8
_2
  6
CONTINUOUS
 62
     6
100
AcDbVertex
100
AcDb2dVertex
 10
1690.333252
 20
1372.361664
 30
0.0
  0
VERTEX
  5
4A7
100
AcDbEntity
  8
_2
  6
CONTINUOUS
 62
     6
100
AcDbVertex
100
AcDb2dVertex
 10
1690.464935
 20
1372.769226
 30
0.0
  0
VERTEX
  5
4A8
100
AcDbEntity
  8
_2
  6
CONTINUOUS
 62
     6
100
AcDbVertex
100
AcDb2dVertex
 10
1690.574341
 20
1373.193726
 30
0.0
  0
VERTEX
  5
4A9
100
AcDbEntity
  8
_2
  6
CONTINUOUS
 62
     6
100
AcDbVertex
100
AcDb2dVertex
 10
1690.65979
 20
1373.632263
 30
0.0
  0
SEQEND
  5
4AA
100
AcDbEntity
  8
_2
  6
CONTINUOUS
 62
     6
  0
POLYLINE
  5
4AB
100
AcDbEntity
  8
_2
  6
CONTINUOUS
 62
     6
100
AcDb2dPolyline
 66
     1
 10
0.0
 20
0.0
 30
0.0
 70
   128
  0
VERTEX
  5
4AC
100
AcDbEntity
  8
_2
  6
CONTINUOUS
 62
     6
100
AcDbVertex
100
AcDb2dVertex
 10
1690.65979
 20
1373.632263
 30
0.0
  0
VERTEX
  5
4AD
100
AcDbEntity
  8
_2
  6
CONTINUOUS
 62
     6
100
AcDbVertex
100
AcDb2dVertex
 10
1690.721435
 20
1374.080872
 30
0.0
  0
VERTEX
  5
4AE
100
AcDbEntity
  8
_2
  6
CONTINUOUS
 62
     6
100
AcDbVertex
100
AcDb2dVertex
 10
1690.758667
 20
1374.536499
 30
0.0
  0
VERTEX
  5
4AF
100
AcDbEntity
  8
_2
  6
CONTINUOUS
 62
     6
100
AcDbVertex
100
AcDb2dVertex
 10
1690.771179
 20
1374.995331
 30
0.0
  0
SEQEND
  5
4B0
100
AcDbEntity
  8
_2
  6
CONTINUOUS
 62
     6
  0
POLYLINE
  5
4B1
100
AcDbEntity
  8
_2
  6
CONTINUOUS
 62
     6
100
AcDb2dPolyline
 66
     1
 10
0.0
 20
0.0
 30
0.0
 70
   128
  0
VERTEX
  5
4B2
100
AcDbEntity
  8
_2
  6
CONTINUOUS
 62
     6
100
AcDbVertex
100
AcDb2dVertex
 10
1682.348633
 20
1374.995941
 30
0.0
  0
VERTEX
  5
4B3
100
AcDbEntity
  8
_2
  6
CONTINUOUS
 62
     6
100
AcDbVertex
100
AcDb2dVertex
 10
1682.323761
 20
1375.455078
 30
0.0
  0
VERTEX
  5
4B4
100
AcDbEntity
  8
_2
  6
CONTINUOUS
 62
     6
100
AcDbVertex
100
AcDb2dVertex
 10
1682.249298
 20
1375.911011
 30
0.0
  0
VERTEX
  5
4B5
100
AcDbEntity
  8
_2
  6
CONTINUOUS
 62
     6
100
AcDbVertex
100
AcDb2dVertex
 10
1682.12616
 20
1376.359314
 30
0.0
  0
VERTEX
  5
4B6
100
AcDbEntity
  8
_2
  6
CONTINUOUS
 62
     6
100
AcDbVertex
100
AcDb2dVertex
 10
1681.954651
 20
1376.797546
 30
0.0
  0
VERTEX
  5
4B7
100
AcDbEntity
  8
_2
  6
CONTINUOUS
 62
     6
100
AcDbVertex
100
AcDb2dVertex
 10
1681.73645
 20
1377.222351
 30
0.0
  0
VERTEX
  5
4B8
100
AcDbEntity
  8
_2
  6
CONTINUOUS
 62
     6
100
AcDbVertex
100
AcDb2dVertex
 10
1681.472931
 20
1377.629761
 30
0.0
  0
VERTEX
  5
4B9
100
AcDbEntity
  8
_2
  6
CONTINUOUS
 62
     6
100
AcDbVertex
100
AcDb2dVertex
 10
1681.166382
 20
1378.017334
 30
0.0
  0
VERTEX
  5
4BA
100
AcDbEntity
  8
_2
  6
CONTINUOUS
 62
     6
100
AcDbVertex
100
AcDb2dVertex
 10
1680.819244
 20
1378.382172
 30
0.0
  0
VERTEX
  5
4BB
100
AcDbEntity
  8
_2
  6
CONTINUOUS
 62
     6
100
AcDbVertex
100
AcDb2dVertex
 10
1680.433655
 20
1378.720764
 30
0.0
  0
VERTEX
  5
4BC
100
AcDbEntity
  8
_2
  6
CONTINUOUS
 62
     6
100
AcDbVertex
100
AcDb2dVertex
 10
1680.01297
 20
1379.03128
 30
0.0
  0
VERTEX
  5
4BD
100
AcDbEntity
  8
_2
  6
CONTINUOUS
 62
     6
100
AcDbVertex
100
AcDb2dVertex
 10
1679.560394
 20
1379.310974
 30
0.0
  0
VERTEX
  5
4BE
100
AcDbEntity
  8
_2
  6
CONTINUOUS
 62
     6
100
AcDbVertex
100
AcDb2dVertex
 10
1679.079895
 20
1379.557861
 30
0.0
  0
VERTEX
  5
4BF
100
AcDbEntity
  8
_2
  6
CONTINUOUS
 62
     6
100
AcDbVertex
100
AcDb2dVertex
 10
1678.574066
 20
1379.770111
 30
0.0
  0
VERTEX
  5
4C0
100
AcDbEntity
  8
_2
  6
CONTINUOUS
 62
     6
100
AcDbVertex
100
AcDb2dVertex
 10
1678.04718
 20
1379.946045
 30
0.0
  0
VERTEX
  5
4C1
100
AcDbEntity
  8
_2
  6
CONTINUOUS
 62
     6
100
AcDbVertex
100
AcDb2dVertex
 10
1677.502594
 20
1380.083984
 30
0.0
  0
VERTEX
  5
4C2
100
AcDbEntity
  8
_2
  6
CONTINUOUS
 62
     6
100
AcDbVertex
100
AcDb2dVertex
 10
1676.945648
 20
1380.183472
 30
0.0
  0
VERTEX
  5
4C3
100
AcDbEntity
  8
_2
  6
CONTINUOUS
 62
     6
100
AcDbVertex
100
AcDb2dVertex
 10
1676.380005
 20
1380.243439
 30
0.0
  0
VERTEX
  5
4C4
100
AcDbEntity
  8
_2
  6
CONTINUOUS
 62
     6
100
AcDbVertex
100
AcDb2dVertex
 10
1675.810547
 20
1380.26358
 30
0.0
  0
VERTEX
  5
4C5
100
AcDbEntity
  8
_2
  6
CONTINUOUS
 62
     6
100
AcDbVertex
100
AcDb2dVertex
 10
1675.240631
 20
1380.243591
 30
0.0
  0
VERTEX
  5
4C6
100
AcDbEntity
  8
_2
  6
CONTINUOUS
 62
     6
100
AcDbVertex
100
AcDb2dVertex
 10
1674.67514
 20
1380.183624
 30
0.0
  0
VERTEX
  5
4C7
100
AcDbEntity
  8
_2
  6
CONTINUOUS
 62
     6
100
AcDbVertex
100
AcDb2dVertex
 10
1674.1185
 20
1380.083984
 30
0.0
  0
VERTEX
  5
4C8
100
AcDbEntity
  8
_2
  6
CONTINUOUS
 62
     6
100
AcDbVertex
100
AcDb2dVertex
 10
1673.574524
 20
1379.94574
 30
0.0
  0
VERTEX
  5
4C9
100
AcDbEntity
  8
_2
  6
CONTINUOUS
 62
     6
100
AcDbVertex
100
AcDb2dVertex
 10
1673.047791
 20
1379.769806
 30
0.0
  0
VERTEX
  5
4CA
100
AcDbEntity
  8
_2
  6
CONTINUOUS
 62
     6
100
AcDbVertex
100
AcDb2dVertex
 10
1672.541199
 20
1379.557861
 30
0.0
  0
VERTEX
  5
4CB
100
AcDbEntity
  8
_2
  6
CONTINUOUS
 62
     6
100
AcDbVertex
100
AcDb2dVertex
 10
1672.060089
 20
1379.310974
 30
0.0
  0
VERTEX
  5
4CC
100
AcDbEntity
  8
_2
  6
CONTINUOUS
 62
     6
100
AcDbVertex
100
AcDb2dVertex
 10
1671.607513
 20
1379.03128
 30
0.0
  0
VERTEX
  5
4CD
100
AcDbEntity
  8
_2
  6
CONTINUOUS
 62
     6
100
AcDbVertex
100
AcDb2dVertex
 10
1671.187439
 20
1378.720764
 30
0.0
  0
VERTEX
  5
4CE
100
AcDbEntity
  8
_2
  6
CONTINUOUS
 62
     6
100
AcDbVertex
100
AcDb2dVertex
 10
1670.802154
 20
1378.382019
 30
0.0
  0
VERTEX
  5
4CF
100
AcDbEntity
  8
_2
  6
CONTINUOUS
 62
     6
100
AcDbVertex
100
AcDb2dVertex
 10
1670.45517
 20
1378.017487
 30
0.0
  0
VERTEX
  5
4D0
100
AcDbEntity
  8
_2
  6
CONTINUOUS
 62
     6
100
AcDbVertex
100
AcDb2dVertex
 10
1670.148163
 20
1377.629761
 30
0.0
  0
VERTEX
  5
4D1
100
AcDbEntity
  8
_2
  6
CONTINUOUS
 62
     6
100
AcDbVertex
100
AcDb2dVertex
 10
1669.884796
 20
1377.222198
 30
0.0
  0
VERTEX
  5
4D2
100
AcDbEntity
  8
_2
  6
CONTINUOUS
 62
     6
100
AcDbVertex
100
AcDb2dVertex
 10
1669.666596
 20
1376.797699
 30
0.0
  0
VERTEX
  5
4D3
100
AcDbEntity
  8
_2
  6
CONTINUOUS
 62
     6
100
AcDbVertex
100
AcDb2dVertex
 10
1669.495087
 20
1376.359314
 30
0.0
  0
VERTEX
  5
4D4
100
AcDbEntity
  8
_2
  6
CONTINUOUS
 62
     6
100
AcDbVertex
100
AcDb2dVertex
 10
1669.371643
 20
1375.910706
 30
0.0
  0
VERTEX
  5
4D5
100
AcDbEntity
  8
_2
  6
CONTINUOUS
 62
     6
100
AcDbVertex
100
AcDb2dVertex
 10
1669.29718
 20
1375.455078
 30
0.0
  0
VERTEX
  5
4D6
100
AcDbEntity
  8
_2
  6
CONTINUOUS
 62
     6
100
AcDbVertex
100
AcDb2dVertex
 10
1669.272308
 20
1374.995941
 30
0.0
  0
VERTEX
  5
4D7
100
AcDbEntity
  8
_2
  6
CONTINUOUS
 62
     6
100
AcDbVertex
100
AcDb2dVertex
 10
1669.29718
 20
1374.536957
 30
0.0
  0
VERTEX
  5
4D8
100
AcDbEntity
  8
_2
  6
CONTINUOUS
 62
     6
100
AcDbVertex
100
AcDb2dVertex
 10
1669.371643
 20
1374.081482
 30
0.0
  0
VERTEX
  5
4D9
100
AcDbEntity
  8
_2
  6
CONTINUOUS
 62
     6
100
AcDbVertex
100
AcDb2dVertex
 10
1669.495087
 20
1373.632263
 30
0.0
  0
VERTEX
  5
4DA
100
AcDbEntity
  8
_2
  6
CONTINUOUS
 62
     6
100
AcDbVertex
100
AcDb2dVertex
 10
1669.666596
 20
1373.194031
 30
0.0
  0
VERTEX
  5
4DB
100
AcDbEntity
  8
_2
  6
CONTINUOUS
 62
     6
100
AcDbVertex
100
AcDb2dVertex
 10
1669.884796
 20
1372.769226
 30
0.0
  0
VERTEX
  5
4DC
100
AcDbEntity
  8
_2
  6
CONTINUOUS
 62
     6
100
AcDbVertex
100
AcDb2dVertex
 10
1670.148163
 20
1372.361664
 30
0.0
  0
VERTEX
  5
4DD
100
AcDbEntity
  8
_2
  6
CONTINUOUS
 62
     6
100
AcDbVertex
100
AcDb2dVertex
 10
1670.454712
 20
1371.974091
 30
0.0
  0
VERTEX
  5
4DE
100
AcDbEntity
  8
_2
  6
CONTINUOUS
 62
     6
100
AcDbVertex
100
AcDb2dVertex
 10
1670.801849
 20
1371.609253
 30
0.0
  0
VERTEX
  5
4DF
100
AcDbEntity
  8
_2
  6
CONTINUOUS
 62
     6
100
AcDbVertex
100
AcDb2dVertex
 10
1671.187439
 20
1371.270813
 30
0.0
  0
VERTEX
  5
4E0
100
AcDbEntity
  8
_2
  6
CONTINUOUS
 62
     6
100
AcDbVertex
100
AcDb2dVertex
 10
1671.608124
 20
1370.960297
 30
0.0
  0
VERTEX
  5
4E1
100
AcDbEntity
  8
_2
  6
CONTINUOUS
 62
     6
100
AcDbVertex
100
AcDb2dVertex
 10
1672.0607
 20
1370.680603
 30
0.0
  0
VERTEX
  5
4E2
100
AcDbEntity
  8
_2
  6
CONTINUOUS
 62
     6
100
AcDbVertex
100
AcDb2dVertex
 10
1672.541199
 20
1370.433716
 30
0.0
  0
VERTEX
  5
4E3
100
AcDbEntity
  8
_2
  6
CONTINUOUS
 62
     6
100
AcDbVertex
100
AcDb2dVertex
 10
1673.047028
 20
1370.221466
 30
0.0
  0
VERTEX
  5
4E4
100
AcDbEntity
  8
_2
  6
CONTINUOUS
 62
     6
100
AcDbVertex
100
AcDb2dVertex
 10
1673.573914
 20
1370.045532
 30
0.0
  0
VERTEX
  5
4E5
100
AcDbEntity
  8
_2
  6
CONTINUOUS
 62
     6
100
AcDbVertex
100
AcDb2dVertex
 10
1674.1185
 20
1369.90744
 30
0.0
  0
VERTEX
  5
4E6
100
AcDbEntity
  8
_2
  6
CONTINUOUS
 62
     6
100
AcDbVertex
100
AcDb2dVertex
 10
1674.675446
 20
1369.807953
 30
0.0
  0
VERTEX
  5
4E7
100
AcDbEntity
  8
_2
  6
CONTINUOUS
 62
     6
100
AcDbVertex
100
AcDb2dVertex
 10
1675.241089
 20
1369.747986
 30
0.0
  0
VERTEX
  5
4E8
100
AcDbEntity
  8
_2
  6
CONTINUOUS
 62
     6
100
AcDbVertex
100
AcDb2dVertex
 10
1675.810547
 20
1369.727692
 30
0.0
  0
VERTEX
  5
4E9
100
AcDbEntity
  8
_2
  6
CONTINUOUS
 62
     6
100
AcDbVertex
100
AcDb2dVertex
 10
1676.380463
 20
1369.747681
 30
0.0
  0
VERTEX
  5
4EA
100
AcDbEntity
  8
_2
  6
CONTINUOUS
 62
     6
100
AcDbVertex
100
AcDb2dVertex
 10
1676.945953
 20
1369.807648
 30
0.0
  0
VERTEX
  5
4EB
100
AcDbEntity
  8
_2
  6
CONTINUOUS
 62
     6
100
AcDbVertex
100
AcDb2dVertex
 10
1677.502594
 20
1369.90744
 30
0.0
  0
VERTEX
  5
4EC
100
AcDbEntity
  8
_2
  6
CONTINUOUS
 62
     6
100
AcDbVertex
100
AcDb2dVertex
 10
1678.04657
 20
1370.045685
 30
0.0
  0
VERTEX
  5
4ED
100
AcDbEntity
  8
_2
  6
CONTINUOUS
 62
     6
100
AcDbVertex
100
AcDb2dVertex
 10
1678.573303
 20
1370.221619
 30
0.0
  0
SEQEND
  5
4EE
100
AcDbEntity
  8
_2
  6
CONTINUOUS
 62
     6
  0
POLYLINE
  5
4EF
100
AcDbEntity
  8
_2
  6
CONTINUOUS
 62
     6
100
AcDb2dPolyline
 66
     1
 10
0.0
 20
0.0
 30
0.0
 70
   128
  0
VERTEX
  5
4F0
100
AcDbEntity
  8
_2
  6
CONTINUOUS
 62
     6
100
AcDbVertex
100
AcDb2dVertex
 10
1678.573303
 20
1370.221619
 30
0.0
  0
VERTEX
  5
4F1
100
AcDbEntity
  8
_2
  6
CONTINUOUS
 62
     6
100
AcDbVertex
100
AcDb2dVertex
 10
1679.079895
 20
1370.433716
 30
0.0
  0
VERTEX
  5
4F2
100
AcDbEntity
  8
_2
  6
CONTINUOUS
 62
     6
100
AcDbVertex
100
AcDb2dVertex
 10
1679.561005
 20
1370.680603
 30
0.0
  0
VERTEX
  5
4F3
100
AcDbEntity
  8
_2
  6
CONTINUOUS
 62
     6
100
AcDbVertex
100
AcDb2dVertex
 10
1680.01358
 20
1370.960297
 30
0.0
  0
VERTEX
  5
4F4
100
AcDbEntity
  8
_2
  6
CONTINUOUS
 62
     6
100
AcDbVertex
100
AcDb2dVertex
 10
1680.433655
 20
1371.270813
 30
0.0
  0
VERTEX
  5
4F5
100
AcDbEntity
  8
_2
  6
CONTINUOUS
 62
     6
100
AcDbVertex
100
AcDb2dVertex
 10
1680.818939
 20
1371.609558
 30
0.0
  0
VERTEX
  5
4F6
100
AcDbEntity
  8
_2
  6
CONTINUOUS
 62
     6
100
AcDbVertex
100
AcDb2dVertex
 10
1681.165924
 20
1371.974091
 30
0.0
  0
VERTEX
  5
4F7
100
AcDbEntity
  8
_2
  6
CONTINUOUS
 62
     6
100
AcDbVertex
100
AcDb2dVertex
 10
1681.472931
 20
1372.361664
 30
0.0
  0
VERTEX
  5
4F8
100
AcDbEntity
  8
_2
  6
CONTINUOUS
 62
     6
100
AcDbVertex
100
AcDb2dVertex
 10
1681.736298
 20
1372.769226
 30
0.0
  0
VERTEX
  5
4F9
100
AcDbEntity
  8
_2
  6
CONTINUOUS
 62
     6
100
AcDbVertex
100
AcDb2dVertex
 10
1681.954498
 20
1373.193726
 30
0.0
  0
VERTEX
  5
4FA
100
AcDbEntity
  8
_2
  6
CONTINUOUS
 62
     6
100
AcDbVertex
100
AcDb2dVertex
 10
1682.12616
 20
1373.632263
 30
0.0
  0
SEQEND
  5
4FB
100
AcDbEntity
  8
_2
  6
CONTINUOUS
 62
     6
  0
POLYLINE
  5
4FC
100
AcDbEntity
  8
_2
  6
CONTINUOUS
 62
     6
100
AcDb2dPolyline
 66
     1
 10
0.0
 20
0.0
 30
0.0
 70
   128
  0
VERTEX
  5
4FD
100
AcDbEntity
  8
_2
  6
CONTINUOUS
 62
     6
100
AcDbVertex
100
AcDb2dVertex
 10
1682.12616
 20
1373.632263
 30
0.0
  0
VERTEX
  5
4FE
100
AcDbEntity
  8
_2
  6
CONTINUOUS
 62
     6
100
AcDbVertex
100
AcDb2dVertex
 10
1682.249603
 20
1374.080872
 30
0.0
  0
VERTEX
  5
4FF
100
AcDbEntity
  8
_2
  6
CONTINUOUS
 62
     6
100
AcDbVertex
100
AcDb2dVertex
 10
1682.324066
 20
1374.536499
 30
0.0
  0
VERTEX
  5
500
100
AcDbEntity
  8
_2
  6
CONTINUOUS
 62
     6
100
AcDbVertex
100
AcDb2dVertex
 10
1682.349243
 20
1374.995331
 30
0.0
  0
SEQEND
  5
501
100
AcDbEntity
  8
_2
  6
CONTINUOUS
 62
     6
  0
POLYLINE
  5
502
100
AcDbEntity
  8
_2
  6
CONTINUOUS
 62
     6
100
AcDb2dPolyline
 66
     1
 10
0.0
 20
0.0
 30
0.0
 70
   128
  0
VERTEX
  5
503
100
AcDbEntity
  8
_2
  6
CONTINUOUS
 62
     6
100
AcDbVertex
100
AcDb2dVertex
 10
1667.388763
 20
1374.995941
 30
0.0
  0
VERTEX
  5
504
100
AcDbEntity
  8
_2
  6
CONTINUOUS
 62
     6
100
AcDbVertex
100
AcDb2dVertex
 10
1667.376251
 20
1375.455078
 30
0.0
  0
VERTEX
  5
505
100
AcDbEntity
  8
_2
  6
CONTINUOUS
 62
     6
100
AcDbVertex
100
AcDb2dVertex
 10
1667.338867
 20
1375.911011
 30
0.0
  0
VERTEX
  5
506
100
AcDbEntity
  8
_2
  6
CONTINUOUS
 62
     6
100
AcDbVertex
100
AcDb2dVertex
 10
1667.276459
 20
1376.359314
 30
0.0
  0
VERTEX
  5
507
100
AcDbEntity
  8
_2
  6
CONTINUOUS
 62
     6
100
AcDbVertex
100
AcDb2dVertex
 10
1667.190094
 20
1376.797546
 30
0.0
  0
VERTEX
  5
508
100
AcDbEntity
  8
_2
  6
CONTINUOUS
 62
     6
100
AcDbVertex
100
AcDb2dVertex
 10
1667.080231
 20
1377.222351
 30
0.0
  0
VERTEX
  5
509
100
AcDbEntity
  8
_2
  6
CONTINUOUS
 62
     6
100
AcDbVertex
100
AcDb2dVertex
 10
1666.947937
 20
1377.629761
 30
0.0
  0
VERTEX
  5
50A
100
AcDbEntity
  8
_2
  6
CONTINUOUS
 62
     6
100
AcDbVertex
100
AcDb2dVertex
 10
1666.793671
 20
1378.017334
 30
0.0
  0
VERTEX
  5
50B
100
AcDbEntity
  8
_2
  6
CONTINUOUS
 62
     6
100
AcDbVertex
100
AcDb2dVertex
 10
1666.618958
 20
1378.382172
 30
0.0
  0
VERTEX
  5
50C
100
AcDbEntity
  8
_2
  6
CONTINUOUS
 62
     6
100
AcDbVertex
100
AcDb2dVertex
 10
1666.425324
 20
1378.720764
 30
0.0
  0
VERTEX
  5
50D
100
AcDbEntity
  8
_2
  6
CONTINUOUS
 62
     6
100
AcDbVertex
100
AcDb2dVertex
 10
1666.213837
 20
1379.03128
 30
0.0
  0
VERTEX
  5
50E
100
AcDbEntity
  8
_2
  6
CONTINUOUS
 62
     6
100
AcDbVertex
100
AcDb2dVertex
 10
1665.986175
 20
1379.311127
 30
0.0
  0
VERTEX
  5
50F
100
AcDbEntity
  8
_2
  6
CONTINUOUS
 62
     6
100
AcDbVertex
100
AcDb2dVertex
 10
1665.744324
 20
1379.558014
 30
0.0
  0
VERTEX
  5
510
100
AcDbEntity
  8
_2
  6
CONTINUOUS
 62
     6
100
AcDbVertex
100
AcDb2dVertex
 10
1665.489807
 20
1379.770111
 30
0.0
  0
VERTEX
  5
511
100
AcDbEntity
  8
_2
  6
CONTINUOUS
 62
     6
100
AcDbVertex
100
AcDb2dVertex
 10
1665.224915
 20
1379.946045
 30
0.0
  0
VERTEX
  5
512
100
AcDbEntity
  8
_2
  6
CONTINUOUS
 62
     6
100
AcDbVertex
100
AcDb2dVertex
 10
1664.950867
 20
1380.083984
 30
0.0
  0
VERTEX
  5
513
100
AcDbEntity
  8
_2
  6
CONTINUOUS
 62
     6
100
AcDbVertex
100
AcDb2dVertex
 10
1664.670715
 20
1380.183319
 30
0.0
  0
VERTEX
  5
514
100
AcDbEntity
  8
_2
  6
CONTINUOUS
 62
     6
100
AcDbVertex
100
AcDb2dVertex
 10
1664.386444
 20
1380.243286
 30
0.0
  0
VERTEX
  5
515
100
AcDbEntity
  8
_2
  6
CONTINUOUS
 62
     6
100
AcDbVertex
100
AcDb2dVertex
 10
1664.099426
 20
1380.26358
 30
0.0
  0
VERTEX
  5
516
100
AcDbEntity
  8
_2
  6
CONTINUOUS
 62
     6
100
AcDbVertex
100
AcDb2dVertex
 10
1663.812714
 20
1380.243591
 30
0.0
  0
VERTEX
  5
517
100
AcDbEntity
  8
_2
  6
CONTINUOUS
 62
     6
100
AcDbVertex
100
AcDb2dVertex
 10
1663.528137
 20
1380.183624
 30
0.0
  0
VERTEX
  5
518
100
AcDbEntity
  8
_2
  6
CONTINUOUS
 62
     6
100
AcDbVertex
100
AcDb2dVertex
 10
1663.248291
 20
1380.083984
 30
0.0
  0
VERTEX
  5
519
100
AcDbEntity
  8
_2
  6
CONTINUOUS
 62
     6
100
AcDbVertex
100
AcDb2dVertex
 10
1662.974701
 20
1379.94574
 30
0.0
  0
VERTEX
  5
51A
100
AcDbEntity
  8
_2
  6
CONTINUOUS
 62
     6
100
AcDbVertex
100
AcDb2dVertex
 10
1662.709503
 20
1379.769806
 30
0.0
  0
VERTEX
  5
51B
100
AcDbEntity
  8
_2
  6
CONTINUOUS
 62
     6
100
AcDbVertex
100
AcDb2dVertex
 10
1662.454987
 20
1379.558014
 30
0.0
  0
VERTEX
  5
51C
100
AcDbEntity
  8
_2
  6
CONTINUOUS
 62
     6
100
AcDbVertex
100
AcDb2dVertex
 10
1662.212982
 20
1379.311127
 30
0.0
  0
VERTEX
  5
51D
100
AcDbEntity
  8
_2
  6
CONTINUOUS
 62
     6
100
AcDbVertex
100
AcDb2dVertex
 10
1661.985321
 20
1379.03128
 30
0.0
  0
VERTEX
  5
51E
100
AcDbEntity
  8
_2
  6
CONTINUOUS
 62
     6
100
AcDbVertex
100
AcDb2dVertex
 10
1661.773834
 20
1378.720764
 30
0.0
  0
VERTEX
  5
51F
100
AcDbEntity
  8
_2
  6
CONTINUOUS
 62
     6
100
AcDbVertex
100
AcDb2dVertex
 10
1661.580048
 20
1378.381867
 30
0.0
  0
VERTEX
  5
520
100
AcDbEntity
  8
_2
  6
CONTINUOUS
 62
     6
100
AcDbVertex
100
AcDb2dVertex
 10
1661.405335
 20
1378.017334
 30
0.0
  0
VERTEX
  5
521
100
AcDbEntity
  8
_2
  6
CONTINUOUS
 62
     6
100
AcDbVertex
100
AcDb2dVertex
 10
1661.251221
 20
1377.629761
 30
0.0
  0
VERTEX
  5
522
100
AcDbEntity
  8
_2
  6
CONTINUOUS
 62
     6
100
AcDbVertex
100
AcDb2dVertex
 10
1661.118774
 20
1377.222198
 30
0.0
  0
VERTEX
  5
523
100
AcDbEntity
  8
_2
  6
CONTINUOUS
 62
     6
100
AcDbVertex
100
AcDb2dVertex
 10
1661.009216
 20
1376.797699
 30
0.0
  0
VERTEX
  5
524
100
AcDbEntity
  8
_2
  6
CONTINUOUS
 62
     6
100
AcDbVertex
100
AcDb2dVertex
 10
1660.922699
 20
1376.359314
 30
0.0
  0
VERTEX
  5
525
100
AcDbEntity
  8
_2
  6
CONTINUOUS
 62
     6
100
AcDbVertex
100
AcDb2dVertex
 10
1660.860748
 20
1375.910706
 30
0.0
  0
VERTEX
  5
526
100
AcDbEntity
  8
_2
  6
CONTINUOUS
 62
     6
100
AcDbVertex
100
AcDb2dVertex
 10
1660.823364
 20
1375.455078
 30
0.0
  0
VERTEX
  5
527
100
AcDbEntity
  8
_2
  6
CONTINUOUS
 62
     6
100
AcDbVertex
100
AcDb2dVertex
 10
1660.810547
 20
1374.995941
 30
0.0
  0
VERTEX
  5
528
100
AcDbEntity
  8
_2
  6
CONTINUOUS
 62
     6
100
AcDbVertex
100
AcDb2dVertex
 10
1660.823059
 20
1374.536957
 30
0.0
  0
VERTEX
  5
529
100
AcDbEntity
  8
_2
  6
CONTINUOUS
 62
     6
100
AcDbVertex
100
AcDb2dVertex
 10
1660.860596
 20
1374.081482
 30
0.0
  0
VERTEX
  5
52A
100
AcDbEntity
  8
_2
  6
CONTINUOUS
 62
     6
100
AcDbVertex
100
AcDb2dVertex
 10
1660.922699
 20
1373.632263
 30
0.0
  0
VERTEX
  5
52B
100
AcDbEntity
  8
_2
  6
CONTINUOUS
 62
     6
100
AcDbVertex
100
AcDb2dVertex
 10
1661.009064
 20
1373.194031
 30
0.0
  0
VERTEX
  5
52C
100
AcDbEntity
  8
_2
  6
CONTINUOUS
 62
     6
100
AcDbVertex
100
AcDb2dVertex
 10
1661.11908
 20
1372.769226
 30
0.0
  0
VERTEX
  5
52D
100
AcDbEntity
  8
_2
  6
CONTINUOUS
 62
     6
100
AcDbVertex
100
AcDb2dVertex
 10
1661.251221
 20
1372.361664
 30
0.0
  0
VERTEX
  5
52E
100
AcDbEntity
  8
_2
  6
CONTINUOUS
 62
     6
100
AcDbVertex
100
AcDb2dVertex
 10
1661.405487
 20
1371.974091
 30
0.0
  0
VERTEX
  5
52F
100
AcDbEntity
  8
_2
  6
CONTINUOUS
 62
     6
100
AcDbVertex
100
AcDb2dVertex
 10
1661.580353
 20
1371.609253
 30
0.0
  0
VERTEX
  5
530
100
AcDbEntity
  8
_2
  6
CONTINUOUS
 62
     6
100
AcDbVertex
100
AcDb2dVertex
 10
1661.773834
 20
1371.270813
 30
0.0
  0
VERTEX
  5
531
100
AcDbEntity
  8
_2
  6
CONTINUOUS
 62
     6
100
AcDbVertex
100
AcDb2dVertex
 10
1661.985474
 20
1370.960297
 30
0.0
  0
VERTEX
  5
532
100
AcDbEntity
  8
_2
  6
CONTINUOUS
 62
     6
100
AcDbVertex
100
AcDb2dVertex
 10
1662.213135
 20
1370.68045
 30
0.0
  0
VERTEX
  5
533
100
AcDbEntity
  8
_2
  6
CONTINUOUS
 62
     6
100
AcDbVertex
100
AcDb2dVertex
 10
1662.454987
 20
1370.433563
 30
0.0
  0
VERTEX
  5
534
100
AcDbEntity
  8
_2
  6
CONTINUOUS
 62
     6
100
AcDbVertex
100
AcDb2dVertex
 10
1662.709503
 20
1370.221466
 30
0.0
  0
VERTEX
  5
535
100
AcDbEntity
  8
_2
  6
CONTINUOUS
 62
     6
100
AcDbVertex
100
AcDb2dVertex
 10
1662.974548
 20
1370.045532
 30
0.0
  0
VERTEX
  5
536
100
AcDbEntity
  8
_2
  6
CONTINUOUS
 62
     6
100
AcDbVertex
100
AcDb2dVertex
 10
1663.248291
 20
1369.90744
 30
0.0
  0
VERTEX
  5
537
100
AcDbEntity
  8
_2
  6
CONTINUOUS
 62
     6
100
AcDbVertex
100
AcDb2dVertex
 10
1663.528442
 20
1369.808106
 30
0.0
  0
VERTEX
  5
538
100
AcDbEntity
  8
_2
  6
CONTINUOUS
 62
     6
100
AcDbVertex
100
AcDb2dVertex
 10
1663.812866
 20
1369.748138
 30
0.0
  0
VERTEX
  5
539
100
AcDbEntity
  8
_2
  6
CONTINUOUS
 62
     6
100
AcDbVertex
100
AcDb2dVertex
 10
1664.099426
 20
1369.727692
 30
0.0
  0
VERTEX
  5
53A
100
AcDbEntity
  8
_2
  6
CONTINUOUS
 62
     6
100
AcDbVertex
100
AcDb2dVertex
 10
1664.385986
 20
1369.747681
 30
0.0
  0
VERTEX
  5
53B
100
AcDbEntity
  8
_2
  6
CONTINUOUS
 62
     6
100
AcDbVertex
100
AcDb2dVertex
 10
1664.67041
 20
1369.807648
 30
0.0
  0
VERTEX
  5
53C
100
AcDbEntity
  8
_2
  6
CONTINUOUS
 62
     6
100
AcDbVertex
100
AcDb2dVertex
 10
1664.950867
 20
1369.90744
 30
0.0
  0
VERTEX
  5
53D
100
AcDbEntity
  8
_2
  6
CONTINUOUS
 62
     6
100
AcDbVertex
100
AcDb2dVertex
 10
1665.224609
 20
1370.045685
 30
0.0
  0
VERTEX
  5
53E
100
AcDbEntity
  8
_2
  6
CONTINUOUS
 62
     6
100
AcDbVertex
100
AcDb2dVertex
 10
1665.489807
 20
1370.221619
 30
0.0
  0
SEQEND
  5
53F
100
AcDbEntity
  8
_2
  6
CONTINUOUS
 62
     6
  0
POLYLINE
  5
540
100
AcDbEntity
  8
_2
  6
CONTINUOUS
 62
     6
100
AcDb2dPolyline
 66
     1
 10
0.0
 20
0.0
 30
0.0
 70
   128
  0
VERTEX
  5
541
100
AcDbEntity
  8
_2
  6
CONTINUOUS
 62
     6
100
AcDbVertex
100
AcDb2dVertex
 10
1665.489807
 20
1370.221619
 30
0.0
  0
VERTEX
  5
542
100
AcDbEntity
  8
_2
  6
CONTINUOUS
 62
     6
100
AcDbVertex
100
AcDb2dVertex
 10
1665.744324
 20
1370.433563
 30
0.0
  0
VERTEX
  5
543
100
AcDbEntity
  8
_2
  6
CONTINUOUS
 62
     6
100
AcDbVertex
100
AcDb2dVertex
 10
1665.986328
 20
1370.68045
 30
0.0
  0
VERTEX
  5
544
100
AcDbEntity
  8
_2
  6
CONTINUOUS
 62
     6
100
AcDbVertex
100
AcDb2dVertex
 10
1666.214142
 20
1370.960297
 30
0.0
  0
VERTEX
  5
545
100
AcDbEntity
  8
_2
  6
CONTINUOUS
 62
     6
100
AcDbVertex
100
AcDb2dVertex
 10
1666.425324
 20
1371.270813
 30
0.0
  0
VERTEX
  5
546
100
AcDbEntity
  8
_2
  6
CONTINUOUS
 62
     6
100
AcDbVertex
100
AcDb2dVertex
 10
1666.61911
 20
1371.609711
 30
0.0
  0
VERTEX
  5
547
100
AcDbEntity
  8
_2
  6
CONTINUOUS
 62
     6
100
AcDbVertex
100
AcDb2dVertex
 10
1666.793976
 20
1371.974243
 30
0.0
  0
VERTEX
  5
548
100
AcDbEntity
  8
_2
  6
CONTINUOUS
 62
     6
100
AcDbVertex
100
AcDb2dVertex
 10
1666.947937
 20
1372.361664
 30
0.0
  0
VERTEX
  5
549
100
AcDbEntity
  8
_2
  6
CONTINUOUS
 62
     6
100
AcDbVertex
100
AcDb2dVertex
 10
1667.080383
 20
1372.769226
 30
0.0
  0
VERTEX
  5
54A
100
AcDbEntity
  8
_2
  6
CONTINUOUS
 62
     6
100
AcDbVertex
100
AcDb2dVertex
 10
1667.190094
 20
1373.193726
 30
0.0
  0
VERTEX
  5
54B
100
AcDbEntity
  8
_2
  6
CONTINUOUS
 62
     6
100
AcDbVertex
100
AcDb2dVertex
 10
1667.276459
 20
1373.632263
 30
0.0
  0
SEQEND
  5
54C
100
AcDbEntity
  8
_2
  6
CONTINUOUS
 62
     6
  0
POLYLINE
  5
54D
100
AcDbEntity
  8
_2
  6
CONTINUOUS
 62
     6
100
AcDb2dPolyline
 66
     1
 10
0.0
 20
0.0
 30
0.0
 70
   128
  0
VERTEX
  5
54E
100
AcDbEntity
  8
_2
  6
CONTINUOUS
 62
     6
100
AcDbVertex
100
AcDb2dVertex
 10
1667.276459
 20
1373.632263
 30
0.0
  0
VERTEX
  5
54F
100
AcDbEntity
  8
_2
  6
CONTINUOUS
 62
     6
100
AcDbVertex
100
AcDb2dVertex
 10
1667.338562
 20
1374.080872
 30
0.0
  0
VERTEX
  5
550
100
AcDbEntity
  8
_2
  6
CONTINUOUS
 62
     6
100
AcDbVertex
100
AcDb2dVertex
 10
1667.375946
 20
1374.536499
 30
0.0
  0
VERTEX
  5
551
100
AcDbEntity
  8
_2
  6
CONTINUOUS
 62
     6
100
AcDbVertex
100
AcDb2dVertex
 10
1667.388306
 20
1374.995331
 30
0.0
  0
SEQEND
  5
552
100
AcDbEntity
  8
_2
  6
CONTINUOUS
 62
     6
  0
LINE
  5
553
100
AcDbEntity
  8
_2
  6
CONTINUOUS
 62
     6
100
AcDbLine
 10
1688.310394
 20
1368.995575
 30
0.0
 11
1688.310394
 21
1365.495667
 31
0.0
  0
LINE
  5
554
100
AcDbEntity
  8
_2
  6
CONTINUOUS
 62
     6
100
AcDbLine
 10
1663.310394
 20
1368.995575
 30
0.0
 11
1663.310394
 21
1365.495667
 31
0.0
  0
LINE
  5
555
100
AcDbEntity
  8
_2
  6
CONTINUOUS
 62
     6
100
AcDbLine
 10
1690.810394
 20
1358.995728
 30
0.0
 11
1690.810394
 21
1363.995728
 31
0.0
  0
LINE
  5
556
100
AcDbEntity
  8
_2
  6
CONTINUOUS
 62
     6
100
AcDbLine
 10
1689.310455
 20
1365.495667
 30
0.0
 11
1690.810394
 21
1363.995728
 31
0.0
  0
LINE
  5
557
100
AcDbEntity
  8
_2
  6
CONTINUOUS
 62
     6
100
AcDbLine
 10
1662.310333
 20
1365.495667
 30
0.0
 11
1689.310455
 21
1365.495667
 31
0.0
  0
LINE
  5
558
100
AcDbEntity
  8
_2
  6
CONTINUOUS
 62
     6
100
AcDbLine
 10
1660.810394
 20
1363.995728
 30
0.0
 11
1662.310333
 21
1365.495667
 31
0.0
  0
LINE
  5
559
100
AcDbEntity
  8
_2
  6
CONTINUOUS
 62
     6
100
AcDbLine
 10
1660.810394
 20
1358.995728
 30
0.0
 11
1660.810394
 21
1363.995728
 31
0.0
  0
LINE
  5
55A
100
AcDbEntity
  8
_2
  6
CONTINUOUS
 62
     6
100
AcDbLine
 10
1684.232178
 20
1363.995728
 30
0.0
 11
1684.232178
 21
1358.995728
 31
0.0
  0
LINE
  5
55B
100
AcDbEntity
  8
_2
  6
CONTINUOUS
 62
     6
100
AcDbLine
 10
1682.348633
 20
1363.995728
 30
0.0
 11
1682.348633
 21
1358.995728
 31
0.0
  0
LINE
  5
55C
100
AcDbEntity
  8
_2
  6
CONTINUOUS
 62
     6
100
AcDbLine
 10
1669.272156
 20
1363.995728
 30
0.0
 11
1669.272156
 21
1358.995728
 31
0.0
  0
LINE
  5
55D
100
AcDbEntity
  8
_2
  6
CONTINUOUS
 62
     6
100
AcDbLine
 10
1667.388458
 20
1363.995728
 30
0.0
 11
1667.388458
 21
1358.995728
 31
0.0
  0
ARC
  5
55E
100
AcDbEntity
  8
_2
  6
CONTINUOUS
 62
     6
100
AcDbCircle
 10
1687.501526
 20
1361.182617
 30
0.0
 40
4.31303
100
AcDbArc
 50
40.710342
 51
139.289673
  0
LINE
  5
55F
100
AcDbEntity
  8
_2
  6
CONTINUOUS
 62
     6
100
AcDbLine
 10
1682.348633
 20
1363.995728
 30
0.0
 11
1684.232178
 21
1363.995728
 31
0.0
  0
ARC
  5
560
100
AcDbEntity
  8
_2
  6
CONTINUOUS
 62
     6
100
AcDbCircle
 10
1675.810394
 20
1350.495667
 30
0.0
 40
15.00001
100
AcDbArc
 50
64.158539
 51
115.841476
  0
LINE
  5
561
100
AcDbEntity
  8
_2
  6
CONTINUOUS
 62
     6
100
AcDbLine
 10
1667.388458
 20
1363.995728
 30
0.0
 11
1669.272156
 21
1363.995728
 31
0.0
  0
ARC
  5
562
100
AcDbEntity
  8
_2
  6
CONTINUOUS
 62
     6
100
AcDbCircle
 10
1664.099426
 20
1361.13974
 30
0.0
 40
4.355961
100
AcDbArc
 50
40.968979
 51
139.031006
  0
LINE
  5
563
100
AcDbEntity
  8
_2
  6
CONTINUOUS
 62
     6
100
AcDbLine
 10
1695.810394
 20
1358.995728
 30
0.0
 11
1695.810394
 21
1353.995728
 31
0.0
  0
LINE
  5
564
100
AcDbEntity
  8
_2
  6
CONTINUOUS
 62
     6
100
AcDbLine
 10
1655.810394
 20
1358.995728
 30
0.0
 11
1695.810394
 21
1358.995728
 31
0.0
  0
LINE
  5
565
100
AcDbEntity
  8
_2
  6
CONTINUOUS
 62
     6
100
AcDbLine
 10
1655.810394
 20
1358.995728
 30
0.0
 11
1655.810394
 21
1353.995728
 31
0.0
  0
LINE
  5
566
100
AcDbEntity
  8
_2
  6
CONTINUOUS
 62
     6
100
AcDbLine
 10
1540.810394
 20
488.338391
 30
0.0
 11
1540.810394
 21
504.0
 31
0.0
  0
LINE
  5
567
100
AcDbEntity
  8
_2
  6
CONTINUOUS
 62
     6
100
AcDbLine
 10
1600.810394
 20
488.338391
 30
0.0
 11
1600.810394
 21
504.0
 31
0.0
  0
LINE
  5
568
100
AcDbEntity
  8
_2
  6
CONTINUOUS
 62
     6
100
AcDbLine
 10
1600.810394
 20
476.338391
 30
0.0
 11
1600.810394
 21
480.338391
 31
0.0
  0
LINE
  5
569
100
AcDbEntity
  8
_2
  6
CONTINUOUS
 62
     6
100
AcDbLine
 10
1540.810394
 20
476.338391
 30
0.0
 11
1540.810394
 21
480.338391
 31
0.0
  0
LINE
  5
56A
100
AcDbEntity
  8
_2
  6
CONTINUOUS
 62
     6
100
AcDbLine
 10
1600.810394
 20
428.338391
 30
0.0
 11
1600.810394
 21
456.338391
 31
0.0
  0
LINE
  5
56B
100
AcDbEntity
  8
_2
  6
CONTINUOUS
 62
     6
100
AcDbLine
 10
1600.810394
 20
464.338391
 30
0.0
 11
1600.810394
 21
468.338391
 31
0.0
  0
LINE
  5
56C
100
AcDbEntity
  8
_2
  6
CONTINUOUS
 62
     6
100
AcDbLine
 10
1540.810394
 20
426.338391
 30
0.0
 11
1540.810394
 21
456.338391
 31
0.0
  0
LINE
  5
56D
100
AcDbEntity
  8
_2
  6
CONTINUOUS
 62
     6
100
AcDbLine
 10
1540.810394
 20
464.338391
 30
0.0
 11
1540.810394
 21
468.338391
 31
0.0
  0
POLYLINE
  5
56E
100
AcDbEntity
  8
_2
  6
CONTINUOUS
 62
     6
100
AcDb2dPolyline
 66
     1
 10
0.0
 20
0.0
 30
0.0
 70
   128
  0
VERTEX
  5
56F
100
AcDbEntity
  8
_2
  6
CONTINUOUS
 62
     6
100
AcDbVertex
100
AcDb2dVertex
 10
1540.810394
 20
426.338391
 30
0.0
  0
VERTEX
  5
570
100
AcDbEntity
  8
_2
  6
CONTINUOUS
 62
     6
100
AcDbVertex
100
AcDb2dVertex
 10
1540.951725
 20
426.501466
 30
0.0
  0
VERTEX
  5
571
100
AcDbEntity
  8
_2
  6
CONTINUOUS
 62
     6
100
AcDbVertex
100
AcDb2dVertex
 10
1541.354667
 20
426.951906
 30
0.0
  0
VERTEX
  5
572
100
AcDbEntity
  8
_2
  6
CONTINUOUS
 62
     6
100
AcDbVertex
100
AcDb2dVertex
 10
1541.987645
 20
427.631537
 30
0.0
  0
VERTEX
  5
573
100
AcDbEntity
  8
_2
  6
CONTINUOUS
 62
     6
100
AcDbVertex
100
AcDb2dVertex
 10
1542.819083
 20
428.482182
 30
0.0
  0
VERTEX
  5
574
100
AcDbEntity
  8
_2
  6
CONTINUOUS
 62
     6
100
AcDbVertex
100
AcDb2dVertex
 10
1543.817405
 20
429.445667
 30
0.0
  0
VERTEX
  5
575
100
AcDbEntity
  8
_2
  6
CONTINUOUS
 62
     6
100
AcDbVertex
100
AcDb2dVertex
 10
1544.951037
 20
430.463817
 30
0.0
  0
VERTEX
  5
576
100
AcDbEntity
  8
_2
  6
CONTINUOUS
 62
     6
100
AcDbVertex
100
AcDb2dVertex
 10
1546.188402
 20
431.478455
 30
0.0
  0
VERTEX
  5
577
100
AcDbEntity
  8
_2
  6
CONTINUOUS
 62
     6
100
AcDbVertex
100
AcDb2dVertex
 10
1547.497925
 20
432.431407
 30
0.0
  0
VERTEX
  5
578
100
AcDbEntity
  8
_2
  6
CONTINUOUS
 62
     6
100
AcDbVertex
100
AcDb2dVertex
 10
1548.848031
 20
433.264497
 30
0.0
  0
VERTEX
  5
579
100
AcDbEntity
  8
_2
  6
CONTINUOUS
 62
     6
100
AcDbVertex
100
AcDb2dVertex
 10
1550.207143
 20
433.919551
 30
0.0
  0
VERTEX
  5
57A
100
AcDbEntity
  8
_2
  6
CONTINUOUS
 62
     6
100
AcDbVertex
100
AcDb2dVertex
 10
1551.543687
 20
434.338391
 30
0.0
  0
VERTEX
  5
57B
100
AcDbEntity
  8
_2
  6
CONTINUOUS
 62
     6
100
AcDbVertex
100
AcDb2dVertex
 10
1553.045114
 20
434.476432
 30
0.0
  0
VERTEX
  5
57C
100
AcDbEntity
  8
_2
  6
CONTINUOUS
 62
     6
100
AcDbVertex
100
AcDb2dVertex
 10
1554.479589
 20
434.273896
 30
0.0
  0
VERTEX
  5
57D
100
AcDbEntity
  8
_2
  6
CONTINUOUS
 62
     6
100
AcDbVertex
100
AcDb2dVertex
 10
1555.854182
 20
433.792681
 30
0.0
  0
VERTEX
  5
57E
100
AcDbEntity
  8
_2
  6
CONTINUOUS
 62
     6
100
AcDbVertex
100
AcDb2dVertex
 10
1557.175964
 20
433.094688
 30
0.0
  0
VERTEX
  5
57F
100
AcDbEntity
  8
_2
  6
CONTINUOUS
 62
     6
100
AcDbVertex
100
AcDb2dVertex
 10
1558.452006
 20
432.241813
 30
0.0
  0
VERTEX
  5
580
100
AcDbEntity
  8
_2
  6
CONTINUOUS
 62
     6
100
AcDbVertex
100
AcDb2dVertex
 10
1559.689378
 20
431.295957
 30
0.0
  0
VERTEX
  5
581
100
AcDbEntity
  8
_2
  6
CONTINUOUS
 62
     6
100
AcDbVertex
100
AcDb2dVertex
 10
1560.895153
 20
430.319016
 30
0.0
  0
VERTEX
  5
582
100
AcDbEntity
  8
_2
  6
CONTINUOUS
 62
     6
100
AcDbVertex
100
AcDb2dVertex
 10
1562.0764
 20
429.372891
 30
0.0
  0
VERTEX
  5
583
100
AcDbEntity
  8
_2
  6
CONTINUOUS
 62
     6
100
AcDbVertex
100
AcDb2dVertex
 10
1563.24019
 20
428.519479
 30
0.0
  0
VERTEX
  5
584
100
AcDbEntity
  8
_2
  6
CONTINUOUS
 62
     6
100
AcDbVertex
100
AcDb2dVertex
 10
1564.393596
 20
427.82068
 30
0.0
  0
VERTEX
  5
585
100
AcDbEntity
  8
_2
  6
CONTINUOUS
 62
     6
100
AcDbVertex
100
AcDb2dVertex
 10
1565.543686
 20
427.338391
 30
0.0
  0
VERTEX
  5
586
100
AcDbEntity
  8
_2
  6
CONTINUOUS
 62
     6
100
AcDbVertex
100
AcDb2dVertex
 10
1566.850681
 20
427.107563
 30
0.0
  0
VERTEX
  5
587
100
AcDbEntity
  8
_2
  6
CONTINUOUS
 62
     6
100
AcDbVertex
100
AcDb2dVertex
 10
1568.17321
 20
427.178617
 30
0.0
  0
VERTEX
  5
588
100
AcDbEntity
  8
_2
  6
CONTINUOUS
 62
     6
100
AcDbVertex
100
AcDb2dVertex
 10
1569.521991
 20
427.496618
 30
0.0
  0
VERTEX
  5
589
100
AcDbEntity
  8
_2
  6
CONTINUOUS
 62
     6
100
AcDbVertex
100
AcDb2dVertex
 10
1570.907746
 20
428.00663
 30
0.0
  0
VERTEX
  5
58A
100
AcDbEntity
  8
_2
  6
CONTINUOUS
 62
     6
100
AcDbVertex
100
AcDb2dVertex
 10
1572.341192
 20
428.653717
 30
0.0
  0
VERTEX
  5
58B
100
AcDbEntity
  8
_2
  6
CONTINUOUS
 62
     6
100
AcDbVertex
100
AcDb2dVertex
 10
1573.833049
 20
429.382942
 30
0.0
  0
VERTEX
  5
58C
100
AcDbEntity
  8
_2
  6
CONTINUOUS
 62
     6
100
AcDbVertex
100
AcDb2dVertex
 10
1575.394038
 20
430.13937
 30
0.0
  0
VERTEX
  5
58D
100
AcDbEntity
  8
_2
  6
CONTINUOUS
 62
     6
100
AcDbVertex
100
AcDb2dVertex
 10
1577.034876
 20
430.868065
 30
0.0
  0
VERTEX
  5
58E
100
AcDbEntity
  8
_2
  6
CONTINUOUS
 62
     6
100
AcDbVertex
100
AcDb2dVertex
 10
1578.766284
 20
431.514091
 30
0.0
  0
VERTEX
  5
58F
100
AcDbEntity
  8
_2
  6
CONTINUOUS
 62
     6
100
AcDbVertex
100
AcDb2dVertex
 10
1580.598981
 20
432.022512
 30
0.0
  0
VERTEX
  5
590
100
AcDbEntity
  8
_2
  6
CONTINUOUS
 62
     6
100
AcDbVertex
100
AcDb2dVertex
 10
1582.543687
 20
432.338391
 30
0.0
  0
VERTEX
  5
591
100
AcDbEntity
  8
_2
  6
CONTINUOUS
 62
     6
100
AcDbVertex
100
AcDb2dVertex
 10
1584.717124
 20
432.420785
 30
0.0
  0
VERTEX
  5
592
100
AcDbEntity
  8
_2
  6
CONTINUOUS
 62
     6
100
AcDbVertex
100
AcDb2dVertex
 10
1586.967424
 20
432.274184
 30
0.0
  0
VERTEX
  5
593
100
AcDbEntity
  8
_2
  6
CONTINUOUS
 62
     6
100
AcDbVertex
100
AcDb2dVertex
 10
1589.234776
 20
431.945183
 30
0.0
  0
VERTEX
  5
594
100
AcDbEntity
  8
_2
  6
CONTINUOUS
 62
     6
100
AcDbVertex
100
AcDb2dVertex
 10
1591.459371
 20
431.480379
 30
0.0
  0
VERTEX
  5
595
100
AcDbEntity
  8
_2
  6
CONTINUOUS
 62
     6
100
AcDbVertex
100
AcDb2dVertex
 10
1593.581401
 20
430.92637
 30
0.0
  0
VERTEX
  5
596
100
AcDbEntity
  8
_2
  6
CONTINUOUS
 62
     6
100
AcDbVertex
100
AcDb2dVertex
 10
1595.541056
 20
430.329751
 30
0.0
  0
VERTEX
  5
597
100
AcDbEntity
  8
_2
  6
CONTINUOUS
 62
     6
100
AcDbVertex
100
AcDb2dVertex
 10
1597.278527
 20
429.737119
 30
0.0
  0
VERTEX
  5
598
100
AcDbEntity
  8
_2
  6
CONTINUOUS
 62
     6
100
AcDbVertex
100
AcDb2dVertex
 10
1598.734005
 20
429.19507
 30
0.0
  0
VERTEX
  5
599
100
AcDbEntity
  8
_2
  6
CONTINUOUS
 62
     6
100
AcDbVertex
100
AcDb2dVertex
 10
1599.847682
 20
428.750202
 30
0.0
  0
VERTEX
  5
59A
100
AcDbEntity
  8
_2
  6
CONTINUOUS
 62
     6
100
AcDbVertex
100
AcDb2dVertex
 10
1600.559748
 20
428.44911
 30
0.0
  0
VERTEX
  5
59B
100
AcDbEntity
  8
_2
  6
CONTINUOUS
 62
     6
100
AcDbVertex
100
AcDb2dVertex
 10
1600.810394
 20
428.338391
 30
0.0
  0
SEQEND
  5
59C
100
AcDbEntity
  8
_2
  6
CONTINUOUS
 62
     6
  0
LINE
  5
59D
100
AcDbEntity
  8
_2
  6
CONTINUOUS
 62
     7
100
AcDbLine
 10
427.687541
 20
2355.323217
 30
0.0
 11
427.687541
 21
2455.960527
 31
0.0
  0
ARC
  5
59E
100
AcDbEntity
  8
_2
  6
CONTINUOUS
 62
     7
100
AcDbCircle
 10
1438.435528
 20
3034.5231
 30
0.0
 40
1160.0
100
AcDbArc
 50
204.393217
 51
208.930475
  0
ARC
  5
59F
100
AcDbEntity
  8
_2
  6
CONTINUOUS
 62
     7
100
AcDbCircle
 10
391.687541
 20
2455.960527
 30
0.0
 40
36.0
100
AcDbArc
 50
0.0
 51
28.930475
  0
ARC
  5
5A0
100
AcDbEntity
  8
_2
  6
CONTINUOUS
 62
     7
100
AcDbCircle
 10
897.750351
 20
2430.129887
 30
0.0
 40
16.0
100
AcDbArc
 50
181.494334
 51
265.446262
  0
LINE
  5
5A1
100
AcDbEntity
  8
_2
  6
CONTINUOUS
 62
     7
100
AcDbLine
 10
896.480046
 20
2414.180394
 30
0.0
 11
926.727685
 21
2411.771306
 31
0.0
  0
LINE
  5
5A2
100
AcDbEntity
  8
_2
  6
CONTINUOUS
 62
     7
100
AcDbLine
 10
891.699108
 20
2363.323217
 30
0.0
 11
936.50074
 21
2363.323217
 31
0.0
  0
LINE
  5
5A3
100
AcDbEntity
  8
_2
  6
CONTINUOUS
 62
     7
100
AcDbLine
 10
883.678699
 20
2356.001248
 30
0.0
 11
883.701829
 21
2355.114593
 31
0.0
  0
ARC
  5
5A4
100
AcDbEntity
  8
_2
  6
CONTINUOUS
 62
     7
100
AcDbCircle
 10
891.699108
 20
2355.323217
 30
0.0
 40
8.0
100
AcDbArc
 50
90.0
 51
181.494334
  0
ARC
  5
5A5
100
AcDbEntity
  8
_2
  6
CONTINUOUS
 62
     7
100
AcDbCircle
 10
891.699108
 20
2355.323217
 30
0.0
 40
28.0
100
AcDbArc
 50
90.0
 51
109.70429
  0
ARC
  5
5A6
100
AcDbEntity
  8
_2
  6
CONTINUOUS
 62
     7
100
AcDbCircle
 10
880.909804
 20
2385.449467
 30
0.0
 40
4.0
100
AcDbArc
 50
181.494334
 51
289.70429
  0
ARC
  5
5A7
100
AcDbEntity
  8
_2
  6
CONTINUOUS
 62
     7
100
AcDbCircle
 10
897.750351
 20
2430.129887
 30
0.0
 40
36.0
100
AcDbArc
 50
244.75065
 51
265.446262
  0
LINE
  5
5A8
100
AcDbEntity
  8
_2
  6
CONTINUOUS
 62
     7
100
AcDbLine
 10
876.689372
 20
2393.847175
 30
0.0
 11
876.911164
 21
2385.345155
 31
0.0
  0
ARC
  5
5A9
100
AcDbEntity
  8
_2
  6
CONTINUOUS
 62
     7
100
AcDbCircle
 10
880.688012
 20
2393.951488
 30
0.0
 40
4.0
100
AcDbArc
 50
64.75065
 51
181.494334
  0
LINE
  5
5AA
100
AcDbEntity
  8
_2
  6
CONTINUOUS
 62
     7
100
AcDbLine
 10
927.038531
 20
2391.683214
 30
0.0
 11
894.892164
 21
2394.243528
 31
0.0
  0
LINE
  5
5AB
100
AcDbEntity
  8
_2
  6
CONTINUOUS
 62
     7
100
AcDbLine
 10
929.042668
 20
2383.323217
 30
0.0
 11
891.699108
 21
2383.323217
 31
0.0
  0
ARC
  5
5AC
100
AcDbEntity
  8
_2
  6
CONTINUOUS
 62
     7
100
AcDbCircle
 10
391.687541
 20
2455.960527
 30
0.0
 40
56.0
100
AcDbArc
 50
0.0
 51
28.930475
  0
LINE
  5
5AD
100
AcDbEntity
  8
_2
  6
CONTINUOUS
 62
     7
100
AcDbLine
 10
447.687541
 20
2455.960527
 30
0.0
 11
447.687541
 21
2379.323217
 31
0.0
  0
ARC
  5
5AE
100
AcDbEntity
  8
_2
  6
CONTINUOUS
 62
     7
100
AcDbCircle
 10
451.687541
 20
2379.323217
 30
0.0
 40
4.0
100
AcDbArc
 50
180.0
 51
270.0
  0
LINE
  5
5AF
100
AcDbEntity
  8
_2
  6
CONTINUOUS
 62
     7
100
AcDbLine
 10
474.993938
 20
2375.323217
 30
0.0
 11
451.687541
 21
2375.323217
 31
0.0
  0
ARC
  5
5B0
100
AcDbEntity
  8
_2
  6
CONTINUOUS
 62
     7
100
AcDbCircle
 10
474.993938
 20
2379.323217
 30
0.0
 40
4.0
100
AcDbArc
 50
270.0
 51
356.794784
  0
ARC
  5
5B1
100
AcDbEntity
  8
_2
  6
CONTINUOUS
 62
     7
100
AcDbCircle
 10
1438.435528
 20
3034.5231
 30
0.0
 40
1140.0
100
AcDbArc
 50
203.809251
 51
208.930475
  0
LINE
  5
5B2
100
AcDbEntity
  8
_2
  6
CONTINUOUS
 62
     7
100
AcDbLine
 10
567.687541
 20
2655.323217
 30
0.0
 11
537.687541
 21
2685.323217
 31
0.0
  0
LINE
  5
5B3
100
AcDbEntity
  8
_2
  6
CONTINUOUS
 62
     7
100
AcDbLine
 10
567.687541
 20
2635.323217
 30
0.0
 11
567.687541
 21
2655.323217
 31
0.0
  0
LINE
  5
5B4
100
AcDbEntity
  8
_2
  6
CONTINUOUS
 62
     7
100
AcDbLine
 10
727.687541
 20
2655.323217
 30
0.0
 11
757.687541
 21
2685.323217
 31
0.0
  0
LINE
  5
5B5
100
AcDbEntity
  8
_2
  6
CONTINUOUS
 62
     7
100
AcDbLine
 10
727.687541
 20
2635.323217
 30
0.0
 11
727.687541
 21
2655.323217
 31
0.0
  0
LINE
  5
5B6
100
AcDbEntity
  8
_2
  6
CONTINUOUS
 62
     7
100
AcDbLine
 10
751.561844
 20
2644.694732
 30
0.0
 11
749.687541
 21
2635.323217
 31
0.0
  0
ARC
  5
5B7
100
AcDbEntity
  8
_2
  6
CONTINUOUS
 62
     7
100
AcDbCircle
 10
771.173457
 20
2640.772409
 30
0.0
 40
20.0
100
AcDbArc
 50
115.417626
 51
168.690068
  0
ARC
  5
5B8
100
AcDbEntity
  8
_2
  6
CONTINUOUS
 62
     7
100
AcDbCircle
 10
365.137947
 20
3495.202725
 30
0.0
 40
900.0
100
AcDbArc
 50
295.859525
 51
303.594176
  0
ARC
  5
5B9
100
AcDbEntity
  8
_2
  6
CONTINUOUS
 62
     7
100
AcDbCircle
 10
735.853562
 20
2937.107811
 30
0.0
 40
230.0
100
AcDbArc
 50
303.594176
 51
307.404179
  0
ARC
  5
5BA
100
AcDbEntity
  8
_2
  6
CONTINUOUS
 62
     7
100
AcDbCircle
 10
735.853562
 20
2937.107811
 30
0.0
 40
256.0
100
AcDbArc
 50
304.614699
 51
309.492628
  0
LINE
  5
5BB
100
AcDbEntity
  8
_2
  6
CONTINUOUS
 62
     7
100
AcDbLine
 10
881.755793
 20
2429.712637
 30
0.0
 11
874.369937
 21
2712.837102
 31
0.0
  0
ARC
  5
5BC
100
AcDbEntity
  8
_2
  6
CONTINUOUS
 62
     7
100
AcDbCircle
 10
890.364496
 20
2713.254351
 30
0.0
 40
16.0
100
AcDbArc
 50
124.614699
 51
181.494334
  0
LINE
  5
5BD
100
AcDbEntity
  8
_2
  6
CONTINUOUS
 62
     7
100
AcDbLine
 10
857.687541
 20
2355.323217
 30
0.0
 11
849.265311
 21
2678.175372
 31
0.0
  0
ARC
  5
5BE
100
AcDbEntity
  8
_2
  6
CONTINUOUS
 62
     7
100
AcDbCircle
 10
365.137947
 20
3495.202725
 30
0.0
 40
926.0
100
AcDbArc
 50
295.417626
 51
299.798832
  0
ARC
  5
5BF
100
AcDbEntity
  8
_2
  6
CONTINUOUS
 62
     7
100
AcDbCircle
 10
833.270752
 20
2677.758123
 30
0.0
 40
16.0
100
AcDbArc
 50
1.494334
 51
119.798832
  0
ARC
  5
5C0
100
AcDbEntity
  8
_2
  6
CONTINUOUS
 62
     7
100
AcDbCircle
 10
529.056389
 20
2639.915688
 30
0.0
 40
15.407529
100
AcDbArc
 50
11.309932
 51
176.794784
  0
LINE
  5
5C1
100
AcDbEntity
  8
_2
  6
CONTINUOUS
 62
     7
100
AcDbLine
 10
545.687541
 20
2635.323217
 30
0.0
 11
544.164714
 21
2642.937353
 31
0.0
  0
LINE
  5
5C2
100
AcDbEntity
  8
_2
  6
CONTINUOUS
 62
     7
100
AcDbLine
 10
513.672962
 20
2640.77716
 30
0.0
 11
497.687541
 21
2355.323217
 31
0.0
  0
LINE
  5
5C3
100
AcDbEntity
  8
_2
  6
CONTINUOUS
 62
     7
100
AcDbLine
 10
478.987681
 20
2379.099568
 30
0.0
 11
493.704248
 21
2641.895408
 31
0.0
  0
ARC
  5
5C4
100
AcDbEntity
  8
_2
  6
CONTINUOUS
 62
     7
100
AcDbCircle
 10
529.056389
 20
2639.915688
 30
0.0
 40
35.407529
100
AcDbArc
 50
122.855897
 51
176.794784
  0
ARC
  5
5C5
100
AcDbEntity
  8
_2
  6
CONTINUOUS
 62
     7
100
AcDbCircle
 10
639.779003
 20
3377.83844
 30
0.0
 40
720.0
100
AcDbArc
 50
252.157427
 51
259.603365
  0
ARC
  5
5C6
100
AcDbEntity
  8
_2
  6
CONTINUOUS
 62
     7
100
AcDbCircle
 10
639.779003
 20
3377.83844
 30
0.0
 40
700.0
100
AcDbArc
 50
252.061592
 51
261.613789
  0
LINE
  5
5C7
100
AcDbEntity
  8
_2
  6
EXLTYPE3
 62
     1
100
AcDbLine
 10
647.687541
 20
2220.241389
 30
0.0
 11
647.687541
 21
2734.0
 31
0.0
  0
LINE
  5
5C8
100
AcDbEntity
  8
_2
  6
CONTINUOUS
 62
     7
100
AcDbLine
 10
557.687541
 20
2689.823217
 30
0.0
 11
737.687541
 21
2689.823217
 31
0.0
  0
ARC
  5
5C9
100
AcDbEntity
  8
_2
  6
CONTINUOUS
 62
     7
100
AcDbCircle
 10
737.687541
 20
2685.823217
 30
0.0
 40
4.0
100
AcDbArc
 50
270.0
 51
90.0
  0
ARC
  5
5CA
100
AcDbEntity
  8
_2
  6
CONTINUOUS
 62
     7
100
AcDbCircle
 10
557.687541
 20
2685.823217
 30
0.0
 40
4.0
100
AcDbArc
 50
90.0
 51
270.0
  0
LINE
  5
5CB
100
AcDbEntity
  8
_2
  6
CONTINUOUS
 62
     7
100
AcDbLine
 10
719.187541
 20
2681.823217
 30
0.0
 11
719.578045
 21
2678.699183
 31
0.0
  0
ARC
  5
5CC
100
AcDbEntity
  8
_2
  6
CONTINUOUS
 62
     7
100
AcDbCircle
 10
720.570323
 20
2678.823217
 30
0.0
 40
1.0
100
AcDbArc
 50
187.125016
 51
270.0
  0
LINE
  5
5CD
100
AcDbEntity
  8
_2
  6
CONTINUOUS
 62
     7
100
AcDbLine
 10
732.187541
 20
2681.823217
 30
0.0
 11
731.797037
 21
2678.699183
 31
0.0
  0
ARC
  5
5CE
100
AcDbEntity
  8
_2
  6
CONTINUOUS
 62
     7
100
AcDbCircle
 10
730.804759
 20
2678.823217
 30
0.0
 40
1.0
100
AcDbArc
 50
270.0
 51
352.874984
  0
LINE
  5
5CF
100
AcDbEntity
  8
_2
  6
CONTINUOUS
 62
     7
100
AcDbLine
 10
693.160561
 20
2681.823217
 30
0.0
 11
692.770057
 21
2678.699183
 31
0.0
  0
ARC
  5
5D0
100
AcDbEntity
  8
_2
  6
CONTINUOUS
 62
     7
100
AcDbCircle
 10
691.777779
 20
2678.823217
 30
0.0
 40
1.0
100
AcDbArc
 50
270.0
 51
352.874984
  0
LINE
  5
5D1
100
AcDbEntity
  8
_2
  6
CONTINUOUS
 62
     7
100
AcDbLine
 10
680.160561
 20
2681.823217
 30
0.0
 11
680.551065
 21
2678.699183
 31
0.0
  0
ARC
  5
5D2
100
AcDbEntity
  8
_2
  6
CONTINUOUS
 62
     7
100
AcDbCircle
 10
681.543343
 20
2678.823217
 30
0.0
 40
1.0
100
AcDbArc
 50
187.125016
 51
270.0
  0
LINE
  5
5D3
100
AcDbEntity
  8
_2
  6
CONTINUOUS
 62
     7
100
AcDbLine
 10
615.214521
 20
2681.823217
 30
0.0
 11
614.824017
 21
2678.699183
 31
0.0
  0
LINE
  5
5D4
100
AcDbEntity
  8
_2
  6
CONTINUOUS
 62
     7
100
AcDbLine
 10
602.214521
 20
2681.823217
 30
0.0
 11
602.605025
 21
2678.699183
 31
0.0
  0
LINE
  5
5D5
100
AcDbEntity
  8
_2
  6
CONTINUOUS
 62
     7
100
AcDbLine
 10
576.187541
 20
2681.823217
 30
0.0
 11
575.797037
 21
2678.699183
 31
0.0
  0
LINE
  5
5D6
100
AcDbEntity
  8
_2
  6
CONTINUOUS
 62
     7
100
AcDbLine
 10
563.187541
 20
2681.823217
 30
0.0
 11
563.578045
 21
2678.699183
 31
0.0
  0
ARC
  5
5D7
100
AcDbEntity
  8
_2
  6
CONTINUOUS
 62
     7
100
AcDbCircle
 10
613.831739
 20
2678.823217
 30
0.0
 40
1.0
100
AcDbArc
 50
270.0
 51
352.874984
  0
ARC
  5
5D8
100
AcDbEntity
  8
_2
  6
CONTINUOUS
 62
     7
100
AcDbCircle
 10
603.597303
 20
2678.823217
 30
0.0
 40
1.0
100
AcDbArc
 50
187.125016
 51
270.0
  0
ARC
  5
5D9
100
AcDbEntity
  8
_2
  6
CONTINUOUS
 62
     7
100
AcDbCircle
 10
574.804759
 20
2678.823217
 30
0.0
 40
1.0
100
AcDbArc
 50
270.0
 51
352.874984
  0
ARC
  5
5DA
100
AcDbEntity
  8
_2
  6
CONTINUOUS
 62
     7
100
AcDbCircle
 10
564.570323
 20
2678.823217
 30
0.0
 40
1.0
100
AcDbArc
 50
187.125016
 51
270.0
  0
LINE
  5
5DB
100
AcDbEntity
  8
_2
  6
CONTINUOUS
 62
     7
100
AcDbLine
 10
661.687541
 20
2681.823217
 30
0.0
 11
661.687541
 21
2689.823217
 31
0.0
  0
LINE
  5
5DC
100
AcDbEntity
  8
_2
  6
CONTINUOUS
 62
     7
100
AcDbLine
 10
633.687541
 20
2681.823217
 30
0.0
 11
633.687541
 21
2689.823217
 31
0.0
  0
LINE
  5
5DD
100
AcDbEntity
  8
_2
  6
CONTINUOUS
 62
     6
100
AcDbLine
 10
549.687541
 20
2621.323217
 30
0.0
 11
549.687541
 21
2635.323217
 31
0.0
  0
LINE
  5
5DE
100
AcDbEntity
  8
_2
  6
CONTINUOUS
 62
     6
100
AcDbLine
 10
745.687541
 20
2621.323217
 30
0.0
 11
745.687541
 21
2635.323217
 31
0.0
  0
LINE
  5
5DF
100
AcDbEntity
  8
_2
  6
CONTINUOUS
 62
     6
100
AcDbLine
 10
611.247031
 20
2493.323217
 30
0.0
 11
684.128051
 21
2493.323217
 31
0.0
  0
LINE
  5
5E0
100
AcDbEntity
  8
_2
  6
CONTINUOUS
 62
     6
100
AcDbLine
 10
725.687541
 20
2612.404394
 30
0.0
 11
725.687541
 21
2551.323217
 31
0.0
  0
LINE
  5
5E1
100
AcDbEntity
  8
_2
  6
CONTINUOUS
 62
     6
100
AcDbLine
 10
549.687541
 20
2621.323217
 30
0.0
 11
564.864238
 21
2618.287878
 31
0.0
  0
LINE
  5
5E2
100
AcDbEntity
  8
_2
  6
CONTINUOUS
 62
     6
100
AcDbLine
 10
730.510844
 20
2618.287878
 30
0.0
 11
745.687541
 21
2621.323217
 31
0.0
  0
LINE
  5
5E3
100
AcDbEntity
  8
_2
  6
CONTINUOUS
 62
     6
100
AcDbLine
 10
686.687541
 20
2543.323217
 30
0.0
 11
686.687541
 21
2495.882708
 31
0.0
  0
ARC
  5
5E4
100
AcDbEntity
  8
_2
  6
CONTINUOUS
 62
     6
100
AcDbCircle
 10
731.687541
 20
2612.404394
 30
0.0
 40
6.0
100
AcDbArc
 50
101.309932
 51
180.0
  0
ARC
  5
5E5
100
AcDbEntity
  8
_2
  6
CONTINUOUS
 62
     6
100
AcDbCircle
 10
717.687541
 20
2551.323217
 30
0.0
 40
8.0
100
AcDbArc
 50
270.0
 51
0.0
  0
LINE
  5
5E6
100
AcDbEntity
  8
_2
  6
CONTINUOUS
 62
     6
100
AcDbLine
 10
616.02937
 20
2619.323217
 30
0.0
 11
679.345712
 21
2619.323217
 31
0.0
  0
LINE
  5
5E7
100
AcDbEntity
  8
_2
  6
CONTINUOUS
 62
     6
100
AcDbLine
 10
675.861542
 20
2615.669187
 30
0.0
 11
681.571458
 21
2495.760965
 31
0.0
  0
LINE
  5
5E8
100
AcDbEntity
  8
_2
  6
CONTINUOUS
 62
     6
100
AcDbLine
 10
686.687541
 20
2543.323217
 30
0.0
 11
717.687541
 21
2543.323217
 31
0.0
  0
LINE
  5
5E9
100
AcDbEntity
  8
_2
  6
CONTINUOUS
 62
     6
100
AcDbLine
 10
689.519784
 20
2549.323217
 30
0.0
 11
716.687541
 21
2549.323217
 31
0.0
  0
LINE
  5
5EA
100
AcDbEntity
  8
_2
  6
CONTINUOUS
 62
     6
100
AcDbLine
 10
682.830631
 20
2615.984453
 30
0.0
 11
685.523453
 21
2553.151946
 31
0.0
  0
ARC
  5
5EB
100
AcDbEntity
  8
_2
  6
CONTINUOUS
 62
     6
100
AcDbCircle
 10
679.345712
 20
2615.8351
 30
0.0
 40
3.488118
100
AcDbArc
 50
2.454032
 51
182.726311
  0
ARC
  5
5EC
100
AcDbEntity
  8
_2
  6
CONTINUOUS
 62
     6
100
AcDbCircle
 10
684.128051
 20
2495.882708
 30
0.0
 40
2.55949
100
AcDbArc
 50
182.726311
 51
0.0
  0
LINE
  5
5ED
100
AcDbEntity
  8
_2
  6
CONTINUOUS
 62
     6
100
AcDbLine
 10
716.887541
 20
2609.323217
 30
0.0
 11
720.687541
 21
2609.323217
 31
0.0
  0
LINE
  5
5EE
100
AcDbEntity
  8
_2
  6
CONTINUOUS
 62
     6
100
AcDbLine
 10
720.687541
 20
2609.323217
 30
0.0
 11
720.687541
 21
2553.323217
 31
0.0
  0
ARC
  5
5EF
100
AcDbEntity
  8
_2
  6
CONTINUOUS
 62
     6
100
AcDbCircle
 10
716.687541
 20
2553.323217
 30
0.0
 40
4.0
100
AcDbArc
 50
270.0
 51
0.0
  0
ARC
  5
5F0
100
AcDbEntity
  8
_2
  6
CONTINUOUS
 62
     6
100
AcDbCircle
 10
689.519784
 20
2553.323217
 30
0.0
 40
4.0
100
AcDbArc
 50
182.454032
 51
270.0
  0
LINE
  5
5F1
100
AcDbEntity
  8
_2
  6
CONTINUOUS
 62
     6
100
AcDbLine
 10
723.687541
 20
2635.323217
 30
0.0
 11
723.687541
 21
2625.323217
 31
0.0
  0
LINE
  5
5F2
100
AcDbEntity
  8
_2
  6
CONTINUOUS
 62
     6
100
AcDbLine
 10
549.687541
 20
2676.323217
 30
0.0
 11
745.687541
 21
2676.323217
 31
0.0
  0
LINE
  5
5F3
100
AcDbEntity
  8
_2
  6
CONTINUOUS
 62
     6
100
AcDbLine
 10
549.687541
 20
2676.323217
 30
0.0
 11
549.687541
 21
2673.323217
 31
0.0
  0
LINE
  5
5F4
100
AcDbEntity
  8
_2
  6
CONTINUOUS
 62
     6
100
AcDbLine
 10
745.687541
 20
2676.323217
 30
0.0
 11
745.687541
 21
2673.323217
 31
0.0
  0
LINE
  5
5F5
100
AcDbEntity
  8
_2
  6
CONTINUOUS
 62
     6
100
AcDbLine
 10
549.687541
 20
2673.323217
 30
0.0
 11
562.687541
 21
2670.323217
 31
0.0
  0
LINE
  5
5F6
100
AcDbEntity
  8
_2
  6
CONTINUOUS
 62
     6
100
AcDbLine
 10
732.687541
 20
2670.323217
 30
0.0
 11
745.687541
 21
2673.323217
 31
0.0
  0
LINE
  5
5F7
100
AcDbEntity
  8
_2
  6
CONTINUOUS
 62
     6
100
AcDbLine
 10
719.687541
 20
2664.323217
 30
0.0
 11
719.687541
 21
2599.123217
 31
0.0
  0
LINE
  5
5F8
100
AcDbEntity
  8
_2
  6
CONTINUOUS
 62
     6
100
AcDbLine
 10
716.887541
 20
2659.473475
 30
0.0
 11
716.887541
 21
2596.323217
 31
0.0
  0
ARC
  5
5F9
100
AcDbEntity
  8
_2
  6
CONTINUOUS
 62
     6
100
AcDbCircle
 10
725.687541
 20
2664.323217
 30
0.0
 40
6.0
100
AcDbArc
 50
90.0
 51
180.0
  0
LINE
  5
5FA
100
AcDbEntity
  8
_2
  6
CONTINUOUS
 62
     6
100
AcDbLine
 10
719.687541
 20
2664.323217
 30
0.0
 11
716.887541
 21
2659.473475
 31
0.0
  0
LINE
  5
5FB
100
AcDbEntity
  8
_2
  6
CONTINUOUS
 62
     6
100
AcDbLine
 10
716.887541
 20
2596.323217
 30
0.0
 11
719.687541
 21
2599.123217
 31
0.0
  0
LINE
  5
5FC
100
AcDbEntity
  8
_2
  6
CONTINUOUS
 62
     6
100
AcDbLine
 10
716.887541
 20
2659.473475
 30
0.0
 11
719.687541
 21
2659.473475
 31
0.0
  0
LINE
  5
5FD
100
AcDbEntity
  8
_2
  6
CONTINUOUS
 62
     6
100
AcDbLine
 10
716.887541
 20
2599.123217
 30
0.0
 11
719.687541
 21
2599.123217
 31
0.0
  0
LINE
  5
5FE
100
AcDbEntity
  8
_2
  6
CONTINUOUS
 62
     6
100
AcDbLine
 10
725.687541
 20
2670.323217
 30
0.0
 11
732.687541
 21
2670.323217
 31
0.0
  0
LINE
  5
5FF
100
AcDbEntity
  8
_2
  6
CONTINUOUS
 62
     6
100
AcDbLine
 10
714.187541
 20
2676.323217
 30
0.0
 11
714.187541
 21
2672.323217
 31
0.0
  0
LINE
  5
600
100
AcDbEntity
  8
_2
  6
CONTINUOUS
 62
     6
100
AcDbLine
 10
713.687541
 20
2672.323217
 30
0.0
 11
713.687541
 21
2654.323217
 31
0.0
  0
LINE
  5
601
100
AcDbEntity
  8
_2
  6
CONTINUOUS
 62
     6
100
AcDbLine
 10
712.687541
 20
2646.323217
 30
0.0
 11
712.687541
 21
2596.323217
 31
0.0
  0
LINE
  5
602
100
AcDbEntity
  8
_2
  6
CONTINUOUS
 62
     6
100
AcDbLine
 10
707.687541
 20
2654.323217
 30
0.0
 11
707.687541
 21
2646.323217
 31
0.0
  0
LINE
  5
603
100
AcDbEntity
  8
_2
  6
CONTINUOUS
 62
     6
100
AcDbLine
 10
710.687541
 20
2672.323217
 30
0.0
 11
710.687541
 21
2668.323217
 31
0.0
  0
LINE
  5
604
100
AcDbEntity
  8
_2
  6
CONTINUOUS
 62
     6
100
AcDbLine
 10
712.687541
 20
2646.323217
 30
0.0
 11
707.687541
 21
2646.323217
 31
0.0
  0
LINE
  5
605
100
AcDbEntity
  8
_2
  6
CONTINUOUS
 62
     6
100
AcDbLine
 10
581.687541
 20
2676.323217
 30
0.0
 11
581.687541
 21
2672.323217
 31
0.0
  0
LINE
  5
606
100
AcDbEntity
  8
_2
  6
CONTINUOUS
 62
     6
100
AcDbLine
 10
713.687541
 20
2676.323217
 30
0.0
 11
713.687541
 21
2672.323217
 31
0.0
  0
LINE
  5
607
100
AcDbEntity
  8
_2
  6
CONTINUOUS
 62
     6
100
AcDbLine
 10
593.687541
 20
2642.723217
 30
0.0
 11
593.687541
 21
2590.723217
 31
0.0
  0
LINE
  5
608
100
AcDbEntity
  8
_2
  6
CONTINUOUS
 62
     6
100
AcDbLine
 10
701.687541
 20
2642.723217
 30
0.0
 11
701.687541
 21
2590.723217
 31
0.0
  0
LINE
  5
609
100
AcDbEntity
  8
_2
  6
CONTINUOUS
 62
     6
100
AcDbLine
 10
633.687541
 20
2662.723217
 30
0.0
 11
635.687541
 21
2670.723217
 31
0.0
  0
LINE
  5
60A
100
AcDbEntity
  8
_2
  6
CONTINUOUS
 62
     6
100
AcDbLine
 10
661.687541
 20
2662.723217
 30
0.0
 11
659.687541
 21
2670.723217
 31
0.0
  0
ARC
  5
60B
100
AcDbEntity
  8
_2
  6
CONTINUOUS
 62
     6
100
AcDbCircle
 10
613.687541
 20
2642.723217
 30
0.0
 40
20.0
100
AcDbArc
 50
90.0
 51
180.0
  0
ARC
  5
60C
100
AcDbEntity
  8
_2
  6
CONTINUOUS
 62
     6
100
AcDbCircle
 10
681.687541
 20
2642.723217
 30
0.0
 40
20.0
100
AcDbArc
 50
0.0
 51
90.0
  0
ARC
  5
60D
100
AcDbEntity
  8
_2
  6
CONTINUOUS
 62
     6
100
AcDbCircle
 10
681.687541
 20
2642.723217
 30
0.0
 40
16.0
100
AcDbArc
 50
0.0
 51
90.0
  0
LINE
  5
60E
100
AcDbEntity
  8
_2
  6
CONTINUOUS
 62
     6
100
AcDbLine
 10
697.687541
 20
2590.723217
 30
0.0
 11
697.687541
 21
2642.723217
 31
0.0
  0
LINE
  5
60F
100
AcDbEntity
  8
_2
  6
CONTINUOUS
 62
     6
100
AcDbLine
 10
613.687541
 20
2662.723217
 30
0.0
 11
633.687541
 21
2662.723217
 31
0.0
  0
LINE
  5
610
100
AcDbEntity
  8
_2
  6
CONTINUOUS
 62
     6
100
AcDbLine
 10
661.687541
 20
2662.723217
 30
0.0
 11
681.687541
 21
2662.723217
 31
0.0
  0
LINE
  5
611
100
AcDbEntity
  8
_2
  6
CONTINUOUS
 62
     6
100
AcDbLine
 10
643.687541
 20
2652.323217
 30
0.0
 11
651.687541
 21
2652.323217
 31
0.0
  0
LINE
  5
612
100
AcDbEntity
  8
_2
  6
CONTINUOUS
 62
     6
100
AcDbLine
 10
642.687541
 20
2670.723217
 30
0.0
 11
642.687541
 21
2653.323217
 31
0.0
  0
LINE
  5
613
100
AcDbEntity
  8
_2
  6
CONTINUOUS
 62
     6
100
AcDbLine
 10
652.687541
 20
2670.723217
 30
0.0
 11
652.687541
 21
2653.323217
 31
0.0
  0
LINE
  5
614
100
AcDbEntity
  8
_2
  6
CONTINUOUS
 62
     6
100
AcDbLine
 10
652.687541
 20
2670.723217
 30
0.0
 11
657.687541
 21
2675.723217
 31
0.0
  0
LINE
  5
615
100
AcDbEntity
  8
_2
  6
CONTINUOUS
 62
     6
100
AcDbLine
 10
642.687541
 20
2670.723217
 30
0.0
 11
637.687541
 21
2675.723217
 31
0.0
  0
LINE
  5
616
100
AcDbEntity
  8
_2
  6
CONTINUOUS
 62
     6
100
AcDbLine
 10
637.687541
 20
2676.323217
 30
0.0
 11
637.687541
 21
2675.723217
 31
0.0
  0
LINE
  5
617
100
AcDbEntity
  8
_2
  6
CONTINUOUS
 62
     6
100
AcDbLine
 10
657.687541
 20
2676.323217
 30
0.0
 11
657.687541
 21
2675.723217
 31
0.0
  0
LINE
  5
618
100
AcDbEntity
  8
_2
  6
CONTINUOUS
 62
     6
100
AcDbLine
 10
643.687541
 20
2668.991167
 30
0.0
 11
643.687541
 21
2652.323217
 31
0.0
  0
LINE
  5
619
100
AcDbEntity
  8
_2
  6
CONTINUOUS
 62
     6
100
AcDbLine
 10
651.687541
 20
2668.991167
 30
0.0
 11
651.687541
 21
2652.323217
 31
0.0
  0
LINE
  5
61A
100
AcDbEntity
  8
_2
  6
CONTINUOUS
 62
     6
100
AcDbLine
 10
652.687541
 20
2670.723217
 30
0.0
 11
651.687541
 21
2668.991167
 31
0.0
  0
LINE
  5
61B
100
AcDbEntity
  8
_2
  6
CONTINUOUS
 62
     6
100
AcDbLine
 10
651.687541
 20
2652.323217
 30
0.0
 11
652.687541
 21
2653.323217
 31
0.0
  0
LINE
  5
61C
100
AcDbEntity
  8
_2
  6
CONTINUOUS
 62
     6
100
AcDbLine
 10
643.687541
 20
2652.323217
 30
0.0
 11
642.687541
 21
2653.323217
 31
0.0
  0
LINE
  5
61D
100
AcDbEntity
  8
_2
  6
CONTINUOUS
 62
     6
100
AcDbLine
 10
642.687541
 20
2670.723217
 30
0.0
 11
643.687541
 21
2668.991167
 31
0.0
  0
LINE
  5
61E
100
AcDbEntity
  8
_2
  6
CONTINUOUS
 62
     6
100
AcDbLine
 10
642.687541
 20
2668.991167
 30
0.0
 11
652.687541
 21
2668.991167
 31
0.0
  0
LINE
  5
61F
100
AcDbEntity
  8
_2
  6
CONTINUOUS
 62
     6
100
AcDbLine
 10
642.687541
 20
2653.323217
 30
0.0
 11
652.687541
 21
2653.323217
 31
0.0
  0
LINE
  5
620
100
AcDbEntity
  8
_2
  6
CONTINUOUS
 62
     3
100
AcDbLine
 10
566.687541
 20
2519.323217
 30
0.0
 11
579.187541
 21
2499.323217
 31
0.0
  0
LINE
  5
621
100
AcDbEntity
  8
_2
  6
CONTINUOUS
 62
     3
100
AcDbLine
 10
716.187541
 20
2499.323217
 30
0.0
 11
728.687541
 21
2519.323217
 31
0.0
  0
LINE
  5
622
100
AcDbEntity
  8
_2
  6
CONTINUOUS
 62
     3
100
AcDbLine
 10
726.687541
 20
2525.323217
 30
0.0
 11
699.187541
 21
2478.323217
 31
0.0
  0
LINE
  5
623
100
AcDbEntity
  8
_2
  6
CONTINUOUS
 62
     3
100
AcDbLine
 10
568.687541
 20
2525.323217
 30
0.0
 11
596.187541
 21
2478.323217
 31
0.0
  0
LINE
  5
624
100
AcDbEntity
  8
_2
  6
CONTINUOUS
 62
     3
100
AcDbLine
 10
548.687541
 20
2519.323217
 30
0.0
 11
566.687541
 21
2519.323217
 31
0.0
  0
LINE
  5
625
100
AcDbEntity
  8
_2
  6
CONTINUOUS
 62
     3
100
AcDbLine
 10
728.687541
 20
2519.323217
 30
0.0
 11
746.687541
 21
2519.323217
 31
0.0
  0
LINE
  5
626
100
AcDbEntity
  8
_2
  6
CONTINUOUS
 62
     6
100
AcDbLine
 10
589.687541
 20
2676.323217
 30
0.0
 11
589.687541
 21
2672.323217
 31
0.0
  0
LINE
  5
627
100
AcDbEntity
  8
_2
  6
CONTINUOUS
 62
     6
100
AcDbLine
 10
603.687541
 20
2676.323217
 30
0.0
 11
603.687541
 21
2672.323217
 31
0.0
  0
LINE
  5
628
100
AcDbEntity
  8
_2
  6
CONTINUOUS
 62
     6
100
AcDbLine
 10
611.687541
 20
2676.323217
 30
0.0
 11
611.687541
 21
2672.323217
 31
0.0
  0
LINE
  5
629
100
AcDbEntity
  8
_2
  6
CONTINUOUS
 62
     6
100
AcDbLine
 10
619.687541
 20
2676.323217
 30
0.0
 11
619.687541
 21
2672.323217
 31
0.0
  0
LINE
  5
62A
100
AcDbEntity
  8
_2
  6
CONTINUOUS
 62
     6
100
AcDbLine
 10
627.687541
 20
2676.323217
 30
0.0
 11
627.687541
 21
2672.323217
 31
0.0
  0
LINE
  5
62B
100
AcDbEntity
  8
_2
  6
CONTINUOUS
 62
     6
100
AcDbLine
 10
635.687541
 20
2676.323217
 30
0.0
 11
635.687541
 21
2672.323217
 31
0.0
  0
LINE
  5
62C
100
AcDbEntity
  8
_2
  6
CONTINUOUS
 62
     6
100
AcDbLine
 10
659.687541
 20
2676.323217
 30
0.0
 11
659.687541
 21
2672.323217
 31
0.0
  0
LINE
  5
62D
100
AcDbEntity
  8
_2
  6
CONTINUOUS
 62
     6
100
AcDbLine
 10
667.687541
 20
2676.323217
 30
0.0
 11
667.687541
 21
2672.323217
 31
0.0
  0
LINE
  5
62E
100
AcDbEntity
  8
_2
  6
CONTINUOUS
 62
     6
100
AcDbLine
 10
675.687541
 20
2676.323217
 30
0.0
 11
675.687541
 21
2672.323217
 31
0.0
  0
LINE
  5
62F
100
AcDbEntity
  8
_2
  6
CONTINUOUS
 62
     6
100
AcDbLine
 10
683.687541
 20
2676.323217
 30
0.0
 11
683.687541
 21
2672.323217
 31
0.0
  0
LINE
  5
630
100
AcDbEntity
  8
_2
  6
CONTINUOUS
 62
     6
100
AcDbLine
 10
691.687541
 20
2676.323217
 30
0.0
 11
691.687541
 21
2672.323217
 31
0.0
  0
LINE
  5
631
100
AcDbEntity
  8
_2
  6
CONTINUOUS
 62
     6
100
AcDbLine
 10
705.687541
 20
2676.323217
 30
0.0
 11
705.687541
 21
2672.323217
 31
0.0
  0
LINE
  5
632
100
AcDbEntity
  8
_2
  6
CONTINUOUS
 62
     6
100
AcDbLine
 10
597.687541
 20
2590.723217
 30
0.0
 11
597.687541
 21
2642.723217
 31
0.0
  0
ARC
  5
633
100
AcDbEntity
  8
_2
  6
CONTINUOUS
 62
     6
100
AcDbCircle
 10
613.687541
 20
2642.723217
 30
0.0
 40
16.0
100
AcDbArc
 50
90.0
 51
180.0
  0
LINE
  5
634
100
AcDbEntity
  8
_2
  6
CONTINUOUS
 62
     6
100
AcDbLine
 10
635.687541
 20
2670.723217
 30
0.0
 11
642.687541
 21
2670.723217
 31
0.0
  0
LINE
  5
635
100
AcDbEntity
  8
_2
  6
CONTINUOUS
 62
     6
100
AcDbLine
 10
652.687541
 20
2670.723217
 30
0.0
 11
659.687541
 21
2670.723217
 31
0.0
  0
LINE
  5
636
100
AcDbEntity
  8
_2
  6
CONTINUOUS
 62
     6
100
AcDbLine
 10
681.687541
 20
2658.723217
 30
0.0
 11
651.687541
 21
2658.723217
 31
0.0
  0
LINE
  5
637
100
AcDbEntity
  8
_2
  6
CONTINUOUS
 62
     6
100
AcDbLine
 10
643.687541
 20
2658.723217
 30
0.0
 11
613.687541
 21
2658.723217
 31
0.0
  0
LINE
  5
638
100
AcDbEntity
  8
_2
  6
CONTINUOUS
 62
     6
100
AcDbLine
 10
581.687541
 20
2672.323217
 30
0.0
 11
641.087541
 21
2672.323217
 31
0.0
  0
LINE
  5
639
100
AcDbEntity
  8
_2
  6
CONTINUOUS
 62
     6
100
AcDbLine
 10
654.287541
 20
2672.323217
 30
0.0
 11
713.687541
 21
2672.323217
 31
0.0
  0
LINE
  5
63A
100
AcDbEntity
  8
_2
  6
CONTINUOUS
 62
     6
100
AcDbLine
 10
575.687541
 20
2664.323217
 30
0.0
 11
575.687541
 21
2599.123217
 31
0.0
  0
LINE
  5
63B
100
AcDbEntity
  8
_2
  6
CONTINUOUS
 62
     6
100
AcDbLine
 10
578.487541
 20
2659.473475
 30
0.0
 11
578.487541
 21
2596.323217
 31
0.0
  0
ARC
  5
63C
100
AcDbEntity
  8
_2
  6
CONTINUOUS
 62
     6
100
AcDbCircle
 10
569.687541
 20
2664.323217
 30
0.0
 40
6.0
100
AcDbArc
 50
0.0
 51
90.0
  0
LINE
  5
63D
100
AcDbEntity
  8
_2
  6
CONTINUOUS
 62
     6
100
AcDbLine
 10
575.687541
 20
2664.323217
 30
0.0
 11
578.487541
 21
2659.473475
 31
0.0
  0
LINE
  5
63E
100
AcDbEntity
  8
_2
  6
CONTINUOUS
 62
     6
100
AcDbLine
 10
578.487541
 20
2596.323217
 30
0.0
 11
575.687541
 21
2599.123217
 31
0.0
  0
LINE
  5
63F
100
AcDbEntity
  8
_2
  6
CONTINUOUS
 62
     6
100
AcDbLine
 10
578.487541
 20
2659.473475
 30
0.0
 11
575.687541
 21
2659.473475
 31
0.0
  0
LINE
  5
640
100
AcDbEntity
  8
_2
  6
CONTINUOUS
 62
     6
100
AcDbLine
 10
578.487541
 20
2599.123217
 30
0.0
 11
575.687541
 21
2599.123217
 31
0.0
  0
LINE
  5
641
100
AcDbEntity
  8
_2
  6
CONTINUOUS
 62
     6
100
AcDbLine
 10
569.687541
 20
2670.323217
 30
0.0
 11
562.687541
 21
2670.323217
 31
0.0
  0
LINE
  5
642
100
AcDbEntity
  8
_2
  6
CONTINUOUS
 62
     6
100
AcDbLine
 10
581.187541
 20
2676.323217
 30
0.0
 11
581.187541
 21
2672.323217
 31
0.0
  0
LINE
  5
643
100
AcDbEntity
  8
_2
  6
CONTINUOUS
 62
     6
100
AcDbLine
 10
581.687541
 20
2672.323217
 30
0.0
 11
581.687541
 21
2654.323217
 31
0.0
  0
LINE
  5
644
100
AcDbEntity
  8
_2
  6
CONTINUOUS
 62
     6
100
AcDbLine
 10
582.687541
 20
2646.323217
 30
0.0
 11
582.687541
 21
2596.323217
 31
0.0
  0
LINE
  5
645
100
AcDbEntity
  8
_2
  6
CONTINUOUS
 62
     6
100
AcDbLine
 10
587.687541
 20
2654.323217
 30
0.0
 11
587.687541
 21
2646.323217
 31
0.0
  0
LINE
  5
646
100
AcDbEntity
  8
_2
  6
CONTINUOUS
 62
     6
100
AcDbLine
 10
584.687541
 20
2672.323217
 30
0.0
 11
584.687541
 21
2668.323217
 31
0.0
  0
LINE
  5
647
100
AcDbEntity
  8
_2
  6
CONTINUOUS
 62
     6
100
AcDbLine
 10
582.687541
 20
2646.323217
 30
0.0
 11
587.687541
 21
2646.323217
 31
0.0
  0
LINE
  5
648
100
AcDbEntity
  8
_2
  6
CONTINUOUS
 62
     6
100
AcDbLine
 10
713.687541
 20
2654.323217
 30
0.0
 11
697.97987
 21
2654.323217
 31
0.0
  0
LINE
  5
649
100
AcDbEntity
  8
_2
  6
CONTINUOUS
 62
     6
100
AcDbLine
 10
597.395212
 20
2654.323217
 30
0.0
 11
581.687541
 21
2654.323217
 31
0.0
  0
LINE
  5
64A
100
AcDbEntity
  8
_2
  6
CONTINUOUS
 62
     6
100
AcDbLine
 10
581.687541
 20
2668.323217
 30
0.0
 11
635.087541
 21
2668.323217
 31
0.0
  0
LINE
  5
64B
100
AcDbEntity
  8
_2
  6
CONTINUOUS
 62
     6
100
AcDbLine
 10
660.287541
 20
2668.323217
 30
0.0
 11
713.687541
 21
2668.323217
 31
0.0
  0
LINE
  5
64C
100
AcDbEntity
  8
_2
  6
CONTINUOUS
 62
     6
100
AcDbLine
 10
578.487541
 20
2596.323217
 30
0.0
 11
593.687541
 21
2596.323217
 31
0.0
  0
LINE
  5
64D
100
AcDbEntity
  8
_2
  6
CONTINUOUS
 62
     6
100
AcDbLine
 10
701.687541
 20
2596.323217
 30
0.0
 11
716.887541
 21
2596.323217
 31
0.0
  0
LINE
  5
64E
100
AcDbEntity
  8
_2
  6
CONTINUOUS
 62
     6
100
AcDbLine
 10
569.687541
 20
2612.404394
 30
0.0
 11
569.687541
 21
2551.323217
 31
0.0
  0
LINE
  5
64F
100
AcDbEntity
  8
_2
  6
CONTINUOUS
 62
     6
100
AcDbLine
 10
608.687541
 20
2543.323217
 30
0.0
 11
608.687541
 21
2495.882708
 31
0.0
  0
ARC
  5
650
100
AcDbEntity
  8
_2
  6
CONTINUOUS
 62
     6
100
AcDbCircle
 10
563.687541
 20
2612.404394
 30
0.0
 40
6.0
100
AcDbArc
 50
0.0
 51
78.690068
  0
ARC
  5
651
100
AcDbEntity
  8
_2
  6
CONTINUOUS
 62
     6
100
AcDbCircle
 10
577.687541
 20
2551.323217
 30
0.0
 40
8.0
100
AcDbArc
 50
180.0
 51
270.0
  0
LINE
  5
652
100
AcDbEntity
  8
_2
  6
CONTINUOUS
 62
     6
100
AcDbLine
 10
619.51354
 20
2615.669187
 30
0.0
 11
613.803624
 21
2495.760965
 31
0.0
  0
LINE
  5
653
100
AcDbEntity
  8
_2
  6
CONTINUOUS
 62
     6
100
AcDbLine
 10
608.687541
 20
2543.323217
 30
0.0
 11
577.687541
 21
2543.323217
 31
0.0
  0
LINE
  5
654
100
AcDbEntity
  8
_2
  6
CONTINUOUS
 62
     6
100
AcDbLine
 10
605.855298
 20
2549.323217
 30
0.0
 11
578.687541
 21
2549.323217
 31
0.0
  0
LINE
  5
655
100
AcDbEntity
  8
_2
  6
CONTINUOUS
 62
     6
100
AcDbLine
 10
612.544451
 20
2615.984453
 30
0.0
 11
609.851629
 21
2553.151946
 31
0.0
  0
ARC
  5
656
100
AcDbEntity
  8
_2
  6
CONTINUOUS
 62
     6
100
AcDbCircle
 10
616.02937
 20
2615.8351
 30
0.0
 40
3.488118
100
AcDbArc
 50
357.273689
 51
177.545968
  0
ARC
  5
657
100
AcDbEntity
  8
_2
  6
CONTINUOUS
 62
     6
100
AcDbCircle
 10
611.247031
 20
2495.882708
 30
0.0
 40
2.55949
100
AcDbArc
 50
180.0
 51
357.273689
  0
LINE
  5
658
100
AcDbEntity
  8
_2
  6
CONTINUOUS
 62
     6
100
AcDbLine
 10
578.487541
 20
2609.323217
 30
0.0
 11
574.687541
 21
2609.323217
 31
0.0
  0
LINE
  5
659
100
AcDbEntity
  8
_2
  6
CONTINUOUS
 62
     6
100
AcDbLine
 10
574.687541
 20
2609.323217
 30
0.0
 11
574.687541
 21
2553.323217
 31
0.0
  0
ARC
  5
65A
100
AcDbEntity
  8
_2
  6
CONTINUOUS
 62
     6
100
AcDbCircle
 10
578.687541
 20
2553.323217
 30
0.0
 40
4.0
100
AcDbArc
 50
180.0
 51
270.0
  0
ARC
  5
65B
100
AcDbEntity
  8
_2
  6
CONTINUOUS
 62
     6
100
AcDbCircle
 10
605.855298
 20
2553.323217
 30
0.0
 40
4.0
100
AcDbArc
 50
270.0
 51
357.545968
  0
LINE
  5
65C
100
AcDbEntity
  8
_2
  6
CONTINUOUS
 62
     6
100
AcDbLine
 10
571.687541
 20
2635.323217
 30
0.0
 11
571.687541
 21
2625.323217
 31
0.0
  0
LINE
  5
65D
100
AcDbEntity
  8
_2
  6
CONTINUOUS
 62
     6
100
AcDbLine
 10
575.687541
 20
2660.323217
 30
0.0
 11
562.687541
 21
2660.323217
 31
0.0
  0
LINE
  5
65E
100
AcDbEntity
  8
_2
  6
CONTINUOUS
 62
     6
100
AcDbLine
 10
719.687541
 20
2660.323217
 30
0.0
 11
732.687541
 21
2660.323217
 31
0.0
  0
LINE
  5
65F
100
AcDbEntity
  8
_2
  6
CONTINUOUS
 62
     7
100
AcDbLine
 10
567.687541
 20
2655.323217
 30
0.0
 11
573.687541
 21
2655.323217
 31
0.0
  0
LINE
  5
660
100
AcDbEntity
  8
_2
  6
CONTINUOUS
 62
     7
100
AcDbLine
 10
721.687541
 20
2655.323217
 30
0.0
 11
727.687541
 21
2655.323217
 31
0.0
  0
LINE
  5
661
100
AcDbEntity
  8
_2
  6
CONTINUOUS
 62
     7
100
AcDbLine
 10
545.687541
 20
2635.323217
 30
0.0
 11
573.687541
 21
2635.323217
 31
0.0
  0
LINE
  5
662
100
AcDbEntity
  8
_2
  6
CONTINUOUS
 62
     7
100
AcDbLine
 10
721.687541
 20
2635.323217
 30
0.0
 11
749.687541
 21
2635.323217
 31
0.0
  0
LINE
  5
663
100
AcDbEntity
  8
_2
  6
CONTINUOUS
 62
     6
100
AcDbLine
 10
549.687541
 20
2625.323217
 30
0.0
 11
575.687541
 21
2625.323217
 31
0.0
  0
LINE
  5
664
100
AcDbEntity
  8
_2
  6
CONTINUOUS
 62
     6
100
AcDbLine
 10
719.687541
 20
2625.323217
 30
0.0
 11
745.687541
 21
2625.323217
 31
0.0
  0
LINE
  5
665
100
AcDbEntity
  8
_2
  6
CONTINUOUS
 62
     6
100
AcDbLine
 10
593.687541
 20
2590.723217
 30
0.0
 11
611.461827
 21
2590.723217
 31
0.0
  0
LINE
  5
666
100
AcDbEntity
  8
_2
  6
CONTINUOUS
 62
     6
100
AcDbLine
 10
683.913255
 20
2590.723217
 30
0.0
 11
701.687541
 21
2590.723217
 31
0.0
  0
LINE
  5
667
100
AcDbEntity
  8
_2
  6
CONTINUOUS
 62
     7
100
AcDbLine
 10
557.687541
 20
2681.823217
 30
0.0
 11
563.187541
 21
2681.823217
 31
0.0
  0
LINE
  5
668
100
AcDbEntity
  8
_2
  6
CONTINUOUS
 62
     7
100
AcDbLine
 10
576.187541
 20
2681.823217
 30
0.0
 11
719.187541
 21
2681.823217
 31
0.0
  0
LINE
  5
669
100
AcDbEntity
  8
_2
  6
CONTINUOUS
 62
     7
100
AcDbLine
 10
732.187541
 20
2681.823217
 30
0.0
 11
737.687541
 21
2681.823217
 31
0.0
  0
LINE
  5
66A
100
AcDbEntity
  8
_2
  6
CONTINUOUS
 62
     7
100
AcDbLine
 10
564.570323
 20
2677.823217
 30
0.0
 11
574.804759
 21
2677.823217
 31
0.0
  0
LINE
  5
66B
100
AcDbEntity
  8
_2
  6
CONTINUOUS
 62
     7
100
AcDbLine
 10
603.597303
 20
2677.823217
 30
0.0
 11
613.831739
 21
2677.823217
 31
0.0
  0
LINE
  5
66C
100
AcDbEntity
  8
_2
  6
CONTINUOUS
 62
     7
100
AcDbLine
 10
681.543343
 20
2677.823217
 30
0.0
 11
691.777779
 21
2677.823217
 31
0.0
  0
LINE
  5
66D
100
AcDbEntity
  8
_2
  6
CONTINUOUS
 62
     7
100
AcDbLine
 10
720.570323
 20
2677.823217
 30
0.0
 11
730.804759
 21
2677.823217
 31
0.0
  0
LINE
  5
66E
100
AcDbEntity
  8
_2
  6
CONTINUOUS
 62
     7
100
AcDbLine
 10
537.687541
 20
2685.323217
 30
0.0
 11
553.718914
 21
2685.323217
 31
0.0
  0
LINE
  5
66F
100
AcDbEntity
  8
_2
  6
CONTINUOUS
 62
     7
100
AcDbLine
 10
741.656168
 20
2685.323217
 30
0.0
 11
757.687541
 21
2685.323217
 31
0.0
  0
LINE
  5
670
100
AcDbEntity
  8
_2
  6
CONTINUOUS
 62
     3
100
AcDbLine
 10
558.687541
 20
2525.323217
 30
0.0
 11
568.687541
 21
2525.323217
 31
0.0
  0
LINE
  5
671
100
AcDbEntity
  8
_2
  6
CONTINUOUS
 62
     3
100
AcDbLine
 10
726.687541
 20
2525.323217
 30
0.0
 11
736.687541
 21
2525.323217
 31
0.0
  0
LINE
  5
672
100
AcDbEntity
  8
_2
  6
CONTINUOUS
 62
     3
100
AcDbLine
 10
579.187541
 20
2429.323217
 30
0.0
 11
587.687541
 21
2429.323217
 31
0.0
  0
LINE
  5
673
100
AcDbEntity
  8
_2
  6
CONTINUOUS
 62
     3
100
AcDbLine
 10
707.687541
 20
2429.323217
 30
0.0
 11
716.187541
 21
2429.323217
 31
0.0
  0
LINE
  5
674
100
AcDbEntity
  8
_2
  6
CONTINUOUS
 62
     3
100
AcDbLine
 10
548.687541
 20
2584.323217
 30
0.0
 11
548.687541
 21
2605.323217
 31
0.0
  0
LINE
  5
675
100
AcDbEntity
  8
_2
  6
CONTINUOUS
 62
     3
100
AcDbLine
 10
558.687541
 20
2605.323217
 30
0.0
 11
558.687541
 21
2584.323217
 31
0.0
  0
LINE
  5
676
100
AcDbEntity
  8
_2
  6
CONTINUOUS
 62
     3
100
AcDbLine
 10
548.687541
 20
2569.323217
 30
0.0
 11
548.687541
 21
2574.323217
 31
0.0
  0
LINE
  5
677
100
AcDbEntity
  8
_2
  6
CONTINUOUS
 62
     3
100
AcDbLine
 10
558.687541
 20
2574.323217
 30
0.0
 11
558.687541
 21
2569.323217
 31
0.0
  0
LINE
  5
678
100
AcDbEntity
  8
_2
  6
CONTINUOUS
 62
     3
100
AcDbLine
 10
548.687541
 20
2519.323217
 30
0.0
 11
548.687541
 21
2544.323217
 31
0.0
  0
LINE
  5
679
100
AcDbEntity
  8
_2
  6
CONTINUOUS
 62
     3
100
AcDbLine
 10
548.687541
 20
2554.323217
 30
0.0
 11
548.687541
 21
2559.323217
 31
0.0
  0
LINE
  5
67A
100
AcDbEntity
  8
_2
  6
CONTINUOUS
 62
     3
100
AcDbLine
 10
558.687541
 20
2559.323217
 30
0.0
 11
558.687541
 21
2554.323217
 31
0.0
  0
LINE
  5
67B
100
AcDbEntity
  8
_2
  6
CONTINUOUS
 62
     3
100
AcDbLine
 10
558.687541
 20
2544.323217
 30
0.0
 11
558.687541
 21
2525.323217
 31
0.0
  0
LINE
  5
67C
100
AcDbEntity
  8
_2
  6
CONTINUOUS
 62
     3
100
AcDbLine
 10
736.687541
 20
2605.323217
 30
0.0
 11
736.687541
 21
2584.323217
 31
0.0
  0
LINE
  5
67D
100
AcDbEntity
  8
_2
  6
CONTINUOUS
 62
     3
100
AcDbLine
 10
736.687541
 20
2574.323217
 30
0.0
 11
736.687541
 21
2569.323217
 31
0.0
  0
LINE
  5
67E
100
AcDbEntity
  8
_2
  6
CONTINUOUS
 62
     3
100
AcDbLine
 10
736.687541
 20
2559.323217
 30
0.0
 11
736.687541
 21
2554.323217
 31
0.0
  0
LINE
  5
67F
100
AcDbEntity
  8
_2
  6
CONTINUOUS
 62
     3
100
AcDbLine
 10
736.687541
 20
2544.323217
 30
0.0
 11
736.687541
 21
2525.323217
 31
0.0
  0
LINE
  5
680
100
AcDbEntity
  8
_2
  6
CONTINUOUS
 62
     3
100
AcDbLine
 10
746.687541
 20
2605.323217
 30
0.0
 11
746.687541
 21
2584.323217
 31
0.0
  0
LINE
  5
681
100
AcDbEntity
  8
_2
  6
CONTINUOUS
 62
     3
100
AcDbLine
 10
746.687541
 20
2574.323217
 30
0.0
 11
746.687541
 21
2569.323217
 31
0.0
  0
LINE
  5
682
100
AcDbEntity
  8
_2
  6
CONTINUOUS
 62
     3
100
AcDbLine
 10
746.687541
 20
2559.323217
 30
0.0
 11
746.687541
 21
2554.323217
 31
0.0
  0
LINE
  5
683
100
AcDbEntity
  8
_2
  6
CONTINUOUS
 62
     3
100
AcDbLine
 10
746.687541
 20
2544.323217
 30
0.0
 11
746.687541
 21
2519.323217
 31
0.0
  0
LINE
  5
684
100
AcDbEntity
  8
_2
  6
CONTINUOUS
 62
     3
100
AcDbLine
 10
579.187541
 20
2492.323217
 30
0.0
 11
579.187541
 21
2499.323217
 31
0.0
  0
LINE
  5
685
100
AcDbEntity
  8
_2
  6
CONTINUOUS
 62
     3
100
AcDbLine
 10
579.187541
 20
2477.323217
 30
0.0
 11
579.187541
 21
2482.323217
 31
0.0
  0
LINE
  5
686
100
AcDbEntity
  8
_2
  6
CONTINUOUS
 62
     3
100
AcDbLine
 10
579.187541
 20
2429.323217
 30
0.0
 11
579.187541
 21
2452.323217
 31
0.0
  0
LINE
  5
687
100
AcDbEntity
  8
_2
  6
CONTINUOUS
 62
     3
100
AcDbLine
 10
579.187541
 20
2462.323217
 30
0.0
 11
579.187541
 21
2467.323217
 31
0.0
  0
LINE
  5
688
100
AcDbEntity
  8
_2
  6
CONTINUOUS
 62
     3
100
AcDbLine
 10
716.187541
 20
2499.323217
 30
0.0
 11
716.187541
 21
2492.323217
 31
0.0
  0
LINE
  5
689
100
AcDbEntity
  8
_2
  6
CONTINUOUS
 62
     3
100
AcDbLine
 10
716.187541
 20
2482.323217
 30
0.0
 11
716.187541
 21
2477.323217
 31
0.0
  0
LINE
  5
68A
100
AcDbEntity
  8
_2
  6
CONTINUOUS
 62
     3
100
AcDbLine
 10
716.187541
 20
2467.323217
 30
0.0
 11
716.187541
 21
2462.323217
 31
0.0
  0
LINE
  5
68B
100
AcDbEntity
  8
_2
  6
CONTINUOUS
 62
     3
100
AcDbLine
 10
716.187541
 20
2452.323217
 30
0.0
 11
716.187541
 21
2429.323217
 31
0.0
  0
LINE
  5
68C
100
AcDbEntity
  8
_2
  6
CONTINUOUS
 62
     3
100
AcDbLine
 10
753.687541
 20
2605.323217
 30
0.0
 11
1043.0
 21
2605.323217
 31
0.0
  0
LINE
  5
68D
100
AcDbEntity
  8
_2
  6
CONTINUOUS
 62
     3
100
AcDbLine
 10
548.687541
 20
2605.323217
 30
0.0
 11
558.687541
 21
2605.323217
 31
0.0
  0
LINE
  5
68E
100
AcDbEntity
  8
_2
  6
CONTINUOUS
 62
     3
100
AcDbLine
 10
736.687541
 20
2605.323217
 30
0.0
 11
746.687541
 21
2605.323217
 31
0.0
  0
LINE
  5
68F
100
AcDbEntity
  8
_2
  6
CONTINUOUS
 62
     3
100
AcDbLine
 10
587.687541
 20
2478.323217
 30
0.0
 11
624.687541
 21
2478.323217
 31
0.0
  0
LINE
  5
690
100
AcDbEntity
  8
_2
  6
CONTINUOUS
 62
     3
100
AcDbLine
 10
636.687541
 20
2478.323217
 30
0.0
 11
641.687541
 21
2478.323217
 31
0.0
  0
LINE
  5
691
100
AcDbEntity
  8
_2
  6
CONTINUOUS
 62
     3
100
AcDbLine
 10
653.687541
 20
2478.323217
 30
0.0
 11
658.687541
 21
2478.323217
 31
0.0
  0
LINE
  5
692
100
AcDbEntity
  8
_2
  6
CONTINUOUS
 62
     3
100
AcDbLine
 10
670.687541
 20
2478.323217
 30
0.0
 11
707.687541
 21
2478.323217
 31
0.0
  0
LINE
  5
693
100
AcDbEntity
  8
_2
  6
CONTINUOUS
 62
     3
100
AcDbLine
 10
587.687541
 20
2478.323217
 30
0.0
 11
587.687541
 21
2416.0
 31
0.0
  0
LINE
  5
694
100
AcDbEntity
  8
_2
  6
CONTINUOUS
 62
     3
100
AcDbLine
 10
592.187541
 20
2478.323217
 30
0.0
 11
592.187541
 21
2416.0
 31
0.0
  0
LINE
  5
695
100
AcDbEntity
  8
_2
  6
CONTINUOUS
 62
     3
100
AcDbLine
 10
587.687541
 20
2406.0
 30
0.0
 11
587.687541
 21
2401.0
 31
0.0
  0
LINE
  5
696
100
AcDbEntity
  8
_2
  6
CONTINUOUS
 62
     3
100
AcDbLine
 10
592.187541
 20
2406.0
 30
0.0
 11
592.187541
 21
2401.0
 31
0.0
  0
LINE
  5
697
100
AcDbEntity
  8
_2
  6
CONTINUOUS
 62
     3
100
AcDbLine
 10
587.687541
 20
2391.0
 30
0.0
 11
587.687541
 21
2386.0
 31
0.0
  0
LINE
  5
698
100
AcDbEntity
  8
_2
  6
CONTINUOUS
 62
     3
100
AcDbLine
 10
592.187541
 20
2391.0
 30
0.0
 11
592.187541
 21
2386.0
 31
0.0
  0
LINE
  5
699
100
AcDbEntity
  8
_2
  6
CONTINUOUS
 62
     3
100
AcDbLine
 10
587.687541
 20
2376.0
 30
0.0
 11
587.687541
 21
2299.0
 31
0.0
  0
LINE
  5
69A
100
AcDbEntity
  8
_2
  6
CONTINUOUS
 62
     3
100
AcDbLine
 10
592.187541
 20
2376.0
 30
0.0
 11
592.187541
 21
2299.0
 31
0.0
  0
LINE
  5
69B
100
AcDbEntity
  8
_2
  6
CONTINUOUS
 62
     3
100
AcDbLine
 10
587.687541
 20
2289.0
 30
0.0
 11
587.687541
 21
2284.0
 31
0.0
  0
LINE
  5
69C
100
AcDbEntity
  8
_2
  6
CONTINUOUS
 62
     3
100
AcDbLine
 10
592.187541
 20
2289.0
 30
0.0
 11
592.187541
 21
2284.0
 31
0.0
  0
LINE
  5
69D
100
AcDbEntity
  8
_2
  6
CONTINUOUS
 62
     3
100
AcDbLine
 10
587.687541
 20
2274.0
 30
0.0
 11
587.687541
 21
2269.0
 31
0.0
  0
LINE
  5
69E
100
AcDbEntity
  8
_2
  6
CONTINUOUS
 62
     3
100
AcDbLine
 10
587.687541
 20
2259.0
 30
0.0
 11
587.687541
 21
2239.0
 31
0.0
  0
LINE
  5
69F
100
AcDbEntity
  8
_2
  6
CONTINUOUS
 62
     3
100
AcDbLine
 10
592.187541
 20
2274.0
 30
0.0
 11
592.187541
 21
2269.0
 31
0.0
  0
LINE
  5
6A0
100
AcDbEntity
  8
_2
  6
CONTINUOUS
 62
     3
100
AcDbLine
 10
592.187541
 20
2259.0
 30
0.0
 11
592.187541
 21
2243.741764
 31
0.0
  0
LINE
  5
6A1
100
AcDbEntity
  8
_2
  6
CONTINUOUS
 62
     3
100
AcDbLine
 10
703.187541
 20
2478.323217
 30
0.0
 11
703.187541
 21
2416.0
 31
0.0
  0
LINE
  5
6A2
100
AcDbEntity
  8
_2
  6
CONTINUOUS
 62
     3
100
AcDbLine
 10
707.687541
 20
2478.323217
 30
0.0
 11
707.687541
 21
2416.0
 31
0.0
  0
LINE
  5
6A3
100
AcDbEntity
  8
_2
  6
CONTINUOUS
 62
     3
100
AcDbLine
 10
703.187541
 20
2406.0
 30
0.0
 11
703.187541
 21
2401.0
 31
0.0
  0
LINE
  5
6A4
100
AcDbEntity
  8
_2
  6
CONTINUOUS
 62
     3
100
AcDbLine
 10
707.687541
 20
2406.0
 30
0.0
 11
707.687541
 21
2401.0
 31
0.0
  0
LINE
  5
6A5
100
AcDbEntity
  8
_2
  6
CONTINUOUS
 62
     3
100
AcDbLine
 10
703.187541
 20
2391.0
 30
0.0
 11
703.187541
 21
2386.0
 31
0.0
  0
LINE
  5
6A6
100
AcDbEntity
  8
_2
  6
CONTINUOUS
 62
     3
100
AcDbLine
 10
707.687541
 20
2391.0
 30
0.0
 11
707.687541
 21
2386.0
 31
0.0
  0
LINE
  5
6A7
100
AcDbEntity
  8
_2
  6
CONTINUOUS
 62
     3
100
AcDbLine
 10
703.187541
 20
2376.0
 30
0.0
 11
703.187541
 21
2299.0
 31
0.0
  0
LINE
  5
6A8
100
AcDbEntity
  8
_2
  6
CONTINUOUS
 62
     3
100
AcDbLine
 10
707.687541
 20
2376.0
 30
0.0
 11
707.687541
 21
2299.0
 31
0.0
  0
LINE
  5
6A9
100
AcDbEntity
  8
_2
  6
CONTINUOUS
 62
     3
100
AcDbLine
 10
703.187541
 20
2289.0
 30
0.0
 11
703.187541
 21
2284.0
 31
0.0
  0
LINE
  5
6AA
100
AcDbEntity
  8
_2
  6
CONTINUOUS
 62
     3
100
AcDbLine
 10
707.687541
 20
2289.0
 30
0.0
 11
707.687541
 21
2284.0
 31
0.0
  0
LINE
  5
6AB
100
AcDbEntity
  8
_2
  6
CONTINUOUS
 62
     3
100
AcDbLine
 10
703.187541
 20
2274.0
 30
0.0
 11
703.187541
 21
2269.0
 31
0.0
  0
LINE
  5
6AC
100
AcDbEntity
  8
_2
  6
CONTINUOUS
 62
     3
100
AcDbLine
 10
703.187541
 20
2259.0
 30
0.0
 11
703.187541
 21
2241.889264
 31
0.0
  0
LINE
  5
6AD
100
AcDbEntity
  8
_2
  6
CONTINUOUS
 62
     3
100
AcDbLine
 10
707.687541
 20
2274.0
 30
0.0
 11
707.687541
 21
2269.0
 31
0.0
  0
LINE
  5
6AE
100
AcDbEntity
  8
_2
  6
CONTINUOUS
 62
     3
100
AcDbLine
 10
707.687541
 20
2259.0
 30
0.0
 11
707.687541
 21
2240.0
 31
0.0
  0
LINE
  5
6AF
100
AcDbEntity
  8
_2
  6
CONTINUOUS
 62
     3
100
AcDbLine
 10
759.687541
 20
2635.323217
 30
0.0
 11
1103.0
 21
2635.323217
 31
0.0
  0
POLYLINE
  5
6B0
100
AcDbEntity
  8
_2
  6
CONTINUOUS
 62
     2
100
AcDb2dPolyline
 66
     1
 10
0.0
 20
0.0
 30
0.0
 70
   128
  0
VERTEX
  5
6B1
100
AcDbEntity
  8
_2
  6
CONTINUOUS
 62
     2
100
AcDbVertex
100
AcDb2dVertex
 10
381.985761
 20
2555.44702
 30
0.0
  0
VERTEX
  5
6B2
100
AcDbEntity
  8
_2
  6
CONTINUOUS
 62
     2
100
AcDbVertex
100
AcDb2dVertex
 10
382.435651
 20
2556.094575
 30
0.0
  0
VERTEX
  5
6B3
100
AcDbEntity
  8
_2
  6
CONTINUOUS
 62
     2
100
AcDbVertex
100
AcDb2dVertex
 10
383.697975
 20
2557.942028
 30
0.0
  0
VERTEX
  5
6B4
100
AcDbEntity
  8
_2
  6
CONTINUOUS
 62
     2
100
AcDbVertex
100
AcDb2dVertex
 10
385.641711
 20
2560.846564
 30
0.0
  0
VERTEX
  5
6B5
100
AcDbEntity
  8
_2
  6
CONTINUOUS
 62
     2
100
AcDbVertex
100
AcDb2dVertex
 10
388.13584
 20
2564.665368
 30
0.0
  0
VERTEX
  5
6B6
100
AcDbEntity
  8
_2
  6
CONTINUOUS
 62
     2
100
AcDbVertex
100
AcDb2dVertex
 10
391.04934
 20
2569.255624
 30
0.0
  0
VERTEX
  5
6B7
100
AcDbEntity
  8
_2
  6
CONTINUOUS
 62
     2
100
AcDbVertex
100
AcDb2dVertex
 10
394.251191
 20
2574.474517
 30
0.0
  0
VERTEX
  5
6B8
100
AcDbEntity
  8
_2
  6
CONTINUOUS
 62
     2
100
AcDbVertex
100
AcDb2dVertex
 10
397.610374
 20
2580.179232
 30
0.0
  0
VERTEX
  5
6B9
100
AcDbEntity
  8
_2
  6
CONTINUOUS
 62
     2
100
AcDbVertex
100
AcDb2dVertex
 10
400.995866
 20
2586.226953
 30
0.0
  0
VERTEX
  5
6BA
100
AcDbEntity
  8
_2
  6
CONTINUOUS
 62
     2
100
AcDbVertex
100
AcDb2dVertex
 10
404.276648
 20
2592.474865
 30
0.0
  0
VERTEX
  5
6BB
100
AcDbEntity
  8
_2
  6
CONTINUOUS
 62
     2
100
AcDbVertex
100
AcDb2dVertex
 10
407.3217
 20
2598.780152
 30
0.0
  0
VERTEX
  5
6BC
100
AcDbEntity
  8
_2
  6
CONTINUOUS
 62
     2
100
AcDbVertex
100
AcDb2dVertex
 10
410.0
 20
2605.0
 30
0.0
  0
VERTEX
  5
6BD
100
AcDbEntity
  8
_2
  6
CONTINUOUS
 62
     2
100
AcDbVertex
100
AcDb2dVertex
 10
412.9568
 20
2613.337021
 30
0.0
  0
VERTEX
  5
6BE
100
AcDbEntity
  8
_2
  6
CONTINUOUS
 62
     2
100
AcDbVertex
100
AcDb2dVertex
 10
415.075696
 20
2621.283175
 30
0.0
  0
VERTEX
  5
6BF
100
AcDbEntity
  8
_2
  6
CONTINUOUS
 62
     2
100
AcDbVertex
100
AcDb2dVertex
 10
416.487354
 20
2628.891739
 30
0.0
  0
VERTEX
  5
6C0
100
AcDbEntity
  8
_2
  6
CONTINUOUS
 62
     2
100
AcDbVertex
100
AcDb2dVertex
 10
417.322442
 20
2636.215987
 30
0.0
  0
VERTEX
  5
6C1
100
AcDbEntity
  8
_2
  6
CONTINUOUS
 62
     2
100
AcDbVertex
100
AcDb2dVertex
 10
417.711624
 20
2643.309195
 30
0.0
  0
VERTEX
  5
6C2
100
AcDbEntity
  8
_2
  6
CONTINUOUS
 62
     2
100
AcDbVertex
100
AcDb2dVertex
 10
417.785566
 20
2650.224637
 30
0.0
  0
VERTEX
  5
6C3
100
AcDbEntity
  8
_2
  6
CONTINUOUS
 62
     2
100
AcDbVertex
100
AcDb2dVertex
 10
417.674936
 20
2657.015589
 30
0.0
  0
VERTEX
  5
6C4
100
AcDbEntity
  8
_2
  6
CONTINUOUS
 62
     2
100
AcDbVertex
100
AcDb2dVertex
 10
417.510398
 20
2663.735326
 30
0.0
  0
VERTEX
  5
6C5
100
AcDbEntity
  8
_2
  6
CONTINUOUS
 62
     2
100
AcDbVertex
100
AcDb2dVertex
 10
417.422618
 20
2670.437123
 30
0.0
  0
VERTEX
  5
6C6
100
AcDbEntity
  8
_2
  6
CONTINUOUS
 62
     2
100
AcDbVertex
100
AcDb2dVertex
 10
417.542264
 20
2677.174256
 30
0.0
  0
VERTEX
  5
6C7
100
AcDbEntity
  8
_2
  6
CONTINUOUS
 62
     2
100
AcDbVertex
100
AcDb2dVertex
 10
418.0
 20
2684.0
 30
0.0
  0
VERTEX
  5
6C8
100
AcDbEntity
  8
_2
  6
CONTINUOUS
 62
     2
100
AcDbVertex
100
AcDb2dVertex
 10
419.292936
 20
2693.231501
 30
0.0
  0
VERTEX
  5
6C9
100
AcDbEntity
  8
_2
  6
CONTINUOUS
 62
     2
100
AcDbVertex
100
AcDb2dVertex
 10
421.370029
 20
2702.606362
 30
0.0
  0
VERTEX
  5
6CA
100
AcDbEntity
  8
_2
  6
CONTINUOUS
 62
     2
100
AcDbVertex
100
AcDb2dVertex
 10
424.192789
 20
2712.018938
 30
0.0
  0
VERTEX
  5
6CB
100
AcDbEntity
  8
_2
  6
CONTINUOUS
 62
     2
100
AcDbVertex
100
AcDb2dVertex
 10
427.722725
 20
2721.363585
 30
0.0
  0
VERTEX
  5
6CC
100
AcDbEntity
  8
_2
  6
CONTINUOUS
 62
     2
100
AcDbVertex
100
AcDb2dVertex
 10
431.921346
 20
2730.53466
 30
0.0
  0
VERTEX
  5
6CD
100
AcDbEntity
  8
_2
  6
CONTINUOUS
 62
     2
100
AcDbVertex
100
AcDb2dVertex
 10
436.750162
 20
2739.426517
 30
0.0
  0
VERTEX
  5
6CE
100
AcDbEntity
  8
_2
  6
CONTINUOUS
 62
     2
100
AcDbVertex
100
AcDb2dVertex
 10
442.170683
 20
2747.933513
 30
0.0
  0
VERTEX
  5
6CF
100
AcDbEntity
  8
_2
  6
CONTINUOUS
 62
     2
100
AcDbVertex
100
AcDb2dVertex
 10
448.144418
 20
2755.950003
 30
0.0
  0
VERTEX
  5
6D0
100
AcDbEntity
  8
_2
  6
CONTINUOUS
 62
     2
100
AcDbVertex
100
AcDb2dVertex
 10
454.632876
 20
2763.370344
 30
0.0
  0
VERTEX
  5
6D1
100
AcDbEntity
  8
_2
  6
CONTINUOUS
 62
     2
100
AcDbVertex
100
AcDb2dVertex
 10
461.597567
 20
2770.088891
 30
0.0
  0
VERTEX
  5
6D2
100
AcDbEntity
  8
_2
  6
CONTINUOUS
 62
     2
100
AcDbVertex
100
AcDb2dVertex
 10
469.0
 20
2776.0
 30
0.0
  0
VERTEX
  5
6D3
100
AcDbEntity
  8
_2
  6
CONTINUOUS
 62
     2
100
AcDbVertex
100
AcDb2dVertex
 10
479.905598
 20
2782.736001
 30
0.0
  0
VERTEX
  5
6D4
100
AcDbEntity
  8
_2
  6
CONTINUOUS
 62
     2
100
AcDbVertex
100
AcDb2dVertex
 10
491.494714
 20
2787.921898
 30
0.0
  0
VERTEX
  5
6D5
100
AcDbEntity
  8
_2
  6
CONTINUOUS
 62
     2
100
AcDbVertex
100
AcDb2dVertex
 10
503.685194
 20
2791.75866
 30
0.0
  0
VERTEX
  5
6D6
100
AcDbEntity
  8
_2
  6
CONTINUOUS
 62
     2
100
AcDbVertex
100
AcDb2dVertex
 10
516.394889
 20
2794.447254
 30
0.0
  0
VERTEX
  5
6D7
100
AcDbEntity
  8
_2
  6
CONTINUOUS
 62
     2
100
AcDbVertex
100
AcDb2dVertex
 10
529.541645
 20
2796.188648
 30
0.0
  0
VERTEX
  5
6D8
100
AcDbEntity
  8
_2
  6
CONTINUOUS
 62
     2
100
AcDbVertex
100
AcDb2dVertex
 10
543.043313
 20
2797.183809
 30
0.0
  0
VERTEX
  5
6D9
100
AcDbEntity
  8
_2
  6
CONTINUOUS
 62
     2
100
AcDbVertex
100
AcDb2dVertex
 10
556.817739
 20
2797.633706
 30
0.0
  0
VERTEX
  5
6DA
100
AcDbEntity
  8
_2
  6
CONTINUOUS
 62
     2
100
AcDbVertex
100
AcDb2dVertex
 10
570.782772
 20
2797.739306
 30
0.0
  0
VERTEX
  5
6DB
100
AcDbEntity
  8
_2
  6
CONTINUOUS
 62
     2
100
AcDbVertex
100
AcDb2dVertex
 10
584.856261
 20
2797.701576
 30
0.0
  0
VERTEX
  5
6DC
100
AcDbEntity
  8
_2
  6
CONTINUOUS
 62
     2
100
AcDbVertex
100
AcDb2dVertex
 10
598.956054
 20
2797.721485
 30
0.0
  0
VERTEX
  5
6DD
100
AcDbEntity
  8
_2
  6
CONTINUOUS
 62
     2
100
AcDbVertex
100
AcDb2dVertex
 10
613.0
 20
2798.0
 30
0.0
  0
VERTEX
  5
6DE
100
AcDbEntity
  8
_2
  6
CONTINUOUS
 62
     2
100
AcDbVertex
100
AcDb2dVertex
 10
626.392341
 20
2798.650779
 30
0.0
  0
VERTEX
  5
6DF
100
AcDbEntity
  8
_2
  6
CONTINUOUS
 62
     2
100
AcDbVertex
100
AcDb2dVertex
 10
639.655655
 20
2799.615244
 30
0.0
  0
VERTEX
  5
6E0
100
AcDbEntity
  8
_2
  6
CONTINUOUS
 62
     2
100
AcDbVertex
100
AcDb2dVertex
 10
652.788613
 20
2800.78181
 30
0.0
  0
VERTEX
  5
6E1
100
AcDbEntity
  8
_2
  6
CONTINUOUS
 62
     2
100
AcDbVertex
100
AcDb2dVertex
 10
665.789886
 20
2802.038894
 30
0.0
  0
VERTEX
  5
6E2
100
AcDbEntity
  8
_2
  6
CONTINUOUS
 62
     2
100
AcDbVertex
100
AcDb2dVertex
 10
678.658146
 20
2803.274914
 30
0.0
  0
VERTEX
  5
6E3
100
AcDbEntity
  8
_2
  6
CONTINUOUS
 62
     2
100
AcDbVertex
100
AcDb2dVertex
 10
691.392063
 20
2804.378285
 30
0.0
  0
VERTEX
  5
6E4
100
AcDbEntity
  8
_2
  6
CONTINUOUS
 62
     2
100
AcDbVertex
100
AcDb2dVertex
 10
703.990309
 20
2805.237424
 30
0.0
  0
VERTEX
  5
6E5
100
AcDbEntity
  8
_2
  6
CONTINUOUS
 62
     2
100
AcDbVertex
100
AcDb2dVertex
 10
716.451555
 20
2805.740749
 30
0.0
  0
VERTEX
  5
6E6
100
AcDbEntity
  8
_2
  6
CONTINUOUS
 62
     2
100
AcDbVertex
100
AcDb2dVertex
 10
728.774471
 20
2805.776675
 30
0.0
  0
VERTEX
  5
6E7
100
AcDbEntity
  8
_2
  6
CONTINUOUS
 62
     2
100
AcDbVertex
100
AcDb2dVertex
 10
740.957729
 20
2805.23362
 30
0.0
  0
VERTEX
  5
6E8
100
AcDbEntity
  8
_2
  6
CONTINUOUS
 62
     2
100
AcDbVertex
100
AcDb2dVertex
 10
753.0
 20
2804.0
 30
0.0
  0
VERTEX
  5
6E9
100
AcDbEntity
  8
_2
  6
CONTINUOUS
 62
     2
100
AcDbVertex
100
AcDb2dVertex
 10
763.231655
 20
2802.321744
 30
0.0
  0
VERTEX
  5
6EA
100
AcDbEntity
  8
_2
  6
CONTINUOUS
 62
     2
100
AcDbVertex
100
AcDb2dVertex
 10
773.382108
 20
2800.083759
 30
0.0
  0
VERTEX
  5
6EB
100
AcDbEntity
  8
_2
  6
CONTINUOUS
 62
     2
100
AcDbVertex
100
AcDb2dVertex
 10
783.475104
 20
2797.31784
 30
0.0
  0
VERTEX
  5
6EC
100
AcDbEntity
  8
_2
  6
CONTINUOUS
 62
     2
100
AcDbVertex
100
AcDb2dVertex
 10
793.534388
 20
2794.055779
 30
0.0
  0
VERTEX
  5
6ED
100
AcDbEntity
  8
_2
  6
CONTINUOUS
 62
     2
100
AcDbVertex
100
AcDb2dVertex
 10
803.583704
 20
2790.32937
 30
0.0
  0
VERTEX
  5
6EE
100
AcDbEntity
  8
_2
  6
CONTINUOUS
 62
     2
100
AcDbVertex
100
AcDb2dVertex
 10
813.646798
 20
2786.170404
 30
0.0
  0
VERTEX
  5
6EF
100
AcDbEntity
  8
_2
  6
CONTINUOUS
 62
     2
100
AcDbVertex
100
AcDb2dVertex
 10
823.747414
 20
2781.610676
 30
0.0
  0
VERTEX
  5
6F0
100
AcDbEntity
  8
_2
  6
CONTINUOUS
 62
     2
100
AcDbVertex
100
AcDb2dVertex
 10
833.909298
 20
2776.681979
 30
0.0
  0
VERTEX
  5
6F1
100
AcDbEntity
  8
_2
  6
CONTINUOUS
 62
     2
100
AcDbVertex
100
AcDb2dVertex
 10
844.156193
 20
2771.416105
 30
0.0
  0
VERTEX
  5
6F2
100
AcDbEntity
  8
_2
  6
CONTINUOUS
 62
     2
100
AcDbVertex
100
AcDb2dVertex
 10
854.511846
 20
2765.844848
 30
0.0
  0
VERTEX
  5
6F3
100
AcDbEntity
  8
_2
  6
CONTINUOUS
 62
     2
100
AcDbVertex
100
AcDb2dVertex
 10
865.0
 20
2760.0
 30
0.0
  0
VERTEX
  5
6F4
100
AcDbEntity
  8
_2
  6
CONTINUOUS
 62
     2
100
AcDbVertex
100
AcDb2dVertex
 10
873.412829
 20
2755.181031
 30
0.0
  0
VERTEX
  5
6F5
100
AcDbEntity
  8
_2
  6
CONTINUOUS
 62
     2
100
AcDbVertex
100
AcDb2dVertex
 10
881.797046
 20
2750.193275
 30
0.0
  0
VERTEX
  5
6F6
100
AcDbEntity
  8
_2
  6
CONTINUOUS
 62
     2
100
AcDbVertex
100
AcDb2dVertex
 10
890.025575
 20
2745.020318
 30
0.0
  0
VERTEX
  5
6F7
100
AcDbEntity
  8
_2
  6
CONTINUOUS
 62
     2
100
AcDbVertex
100
AcDb2dVertex
 10
897.971341
 20
2739.645749
 30
0.0
  0
VERTEX
  5
6F8
100
AcDbEntity
  8
_2
  6
CONTINUOUS
 62
     2
100
AcDbVertex
100
AcDb2dVertex
 10
905.507269
 20
2734.053156
 30
0.0
  0
VERTEX
  5
6F9
100
AcDbEntity
  8
_2
  6
CONTINUOUS
 62
     2
100
AcDbVertex
100
AcDb2dVertex
 10
912.506283
 20
2728.226126
 30
0.0
  0
VERTEX
  5
6FA
100
AcDbEntity
  8
_2
  6
CONTINUOUS
 62
     2
100
AcDbVertex
100
AcDb2dVertex
 10
918.841307
 20
2722.148247
 30
0.0
  0
VERTEX
  5
6FB
100
AcDbEntity
  8
_2
  6
CONTINUOUS
 62
     2
100
AcDbVertex
100
AcDb2dVertex
 10
924.385267
 20
2715.803107
 30
0.0
  0
VERTEX
  5
6FC
100
AcDbEntity
  8
_2
  6
CONTINUOUS
 62
     2
100
AcDbVertex
100
AcDb2dVertex
 10
929.011086
 20
2709.174294
 30
0.0
  0
VERTEX
  5
6FD
100
AcDbEntity
  8
_2
  6
CONTINUOUS
 62
     2
100
AcDbVertex
100
AcDb2dVertex
 10
932.591689
 20
2702.245396
 30
0.0
  0
VERTEX
  5
6FE
100
AcDbEntity
  8
_2
  6
CONTINUOUS
 62
     2
100
AcDbVertex
100
AcDb2dVertex
 10
935.0
 20
2695.0
 30
0.0
  0
VERTEX
  5
6FF
100
AcDbEntity
  8
_2
  6
CONTINUOUS
 62
     2
100
AcDbVertex
100
AcDb2dVertex
 10
936.25025
 20
2686.01201
 30
0.0
  0
VERTEX
  5
700
100
AcDbEntity
  8
_2
  6
CONTINUOUS
 62
     2
100
AcDbVertex
100
AcDb2dVertex
 10
936.006112
 20
2676.614938
 30
0.0
  0
VERTEX
  5
701
100
AcDbEntity
  8
_2
  6
CONTINUOUS
 62
     2
100
AcDbVertex
100
AcDb2dVertex
 10
934.591455
 20
2666.865555
 30
0.0
  0
VERTEX
  5
702
100
AcDbEntity
  8
_2
  6
CONTINUOUS
 62
     2
100
AcDbVertex
100
AcDb2dVertex
 10
932.330151
 20
2656.820635
 30
0.0
  0
VERTEX
  5
703
100
AcDbEntity
  8
_2
  6
CONTINUOUS
 62
     2
100
AcDbVertex
100
AcDb2dVertex
 10
929.546069
 20
2646.536949
 30
0.0
  0
VERTEX
  5
704
100
AcDbEntity
  8
_2
  6
CONTINUOUS
 62
     2
100
AcDbVertex
100
AcDb2dVertex
 10
926.56308
 20
2636.071269
 30
0.0
  0
VERTEX
  5
705
100
AcDbEntity
  8
_2
  6
CONTINUOUS
 62
     2
100
AcDbVertex
100
AcDb2dVertex
 10
923.705055
 20
2625.480369
 30
0.0
  0
VERTEX
  5
706
100
AcDbEntity
  8
_2
  6
CONTINUOUS
 62
     2
100
AcDbVertex
100
AcDb2dVertex
 10
921.295863
 20
2614.821019
 30
0.0
  0
VERTEX
  5
707
100
AcDbEntity
  8
_2
  6
CONTINUOUS
 62
     2
100
AcDbVertex
100
AcDb2dVertex
 10
919.659377
 20
2604.149993
 30
0.0
  0
VERTEX
  5
708
100
AcDbEntity
  8
_2
  6
CONTINUOUS
 62
     2
100
AcDbVertex
100
AcDb2dVertex
 10
919.119466
 20
2593.524063
 30
0.0
  0
VERTEX
  5
709
100
AcDbEntity
  8
_2
  6
CONTINUOUS
 62
     2
100
AcDbVertex
100
AcDb2dVertex
 10
920.0
 20
2583.0
 30
0.0
  0
VERTEX
  5
70A
100
AcDbEntity
  8
_2
  6
CONTINUOUS
 62
     2
100
AcDbVertex
100
AcDb2dVertex
 10
922.044984
 20
2574.12506
 30
0.0
  0
VERTEX
  5
70B
100
AcDbEntity
  8
_2
  6
CONTINUOUS
 62
     2
100
AcDbVertex
100
AcDb2dVertex
 10
925.102196
 20
2565.371665
 30
0.0
  0
VERTEX
  5
70C
100
AcDbEntity
  8
_2
  6
CONTINUOUS
 62
     2
100
AcDbVertex
100
AcDb2dVertex
 10
928.910013
 20
2556.745509
 30
0.0
  0
VERTEX
  5
70D
100
AcDbEntity
  8
_2
  6
CONTINUOUS
 62
     2
100
AcDbVertex
100
AcDb2dVertex
 10
933.206818
 20
2548.252284
 30
0.0
  0
VERTEX
  5
70E
100
AcDbEntity
  8
_2
  6
CONTINUOUS
 62
     2
100
AcDbVertex
100
AcDb2dVertex
 10
937.730989
 20
2539.897683
 30
0.0
  0
VERTEX
  5
70F
100
AcDbEntity
  8
_2
  6
CONTINUOUS
 62
     2
100
AcDbVertex
100
AcDb2dVertex
 10
942.220907
 20
2531.6874
 30
0.0
  0
VERTEX
  5
710
100
AcDbEntity
  8
_2
  6
CONTINUOUS
 62
     2
100
AcDbVertex
100
AcDb2dVertex
 10
946.414952
 20
2523.627127
 30
0.0
  0
VERTEX
  5
711
100
AcDbEntity
  8
_2
  6
CONTINUOUS
 62
     2
100
AcDbVertex
100
AcDb2dVertex
 10
950.051504
 20
2515.722558
 30
0.0
  0
VERTEX
  5
712
100
AcDbEntity
  8
_2
  6
CONTINUOUS
 62
     2
100
AcDbVertex
100
AcDb2dVertex
 10
952.868942
 20
2507.979385
 30
0.0
  0
VERTEX
  5
713
100
AcDbEntity
  8
_2
  6
CONTINUOUS
 62
     2
100
AcDbVertex
100
AcDb2dVertex
 10
954.605648
 20
2500.403301
 30
0.0
  0
VERTEX
  5
714
100
AcDbEntity
  8
_2
  6
CONTINUOUS
 62
     2
100
AcDbVertex
100
AcDb2dVertex
 10
955.0
 20
2493.0
 30
0.0
  0
VERTEX
  5
715
100
AcDbEntity
  8
_2
  6
CONTINUOUS
 62
     2
100
AcDbVertex
100
AcDb2dVertex
 10
953.97782
 20
2486.118351
 30
0.0
  0
VERTEX
  5
716
100
AcDbEntity
  8
_2
  6
CONTINUOUS
 62
     2
100
AcDbVertex
100
AcDb2dVertex
 10
951.789991
 20
2479.306052
 30
0.0
  0
VERTEX
  5
717
100
AcDbEntity
  8
_2
  6
CONTINUOUS
 62
     2
100
AcDbVertex
100
AcDb2dVertex
 10
948.717451
 20
2472.47149
 30
0.0
  0
VERTEX
  5
718
100
AcDbEntity
  8
_2
  6
CONTINUOUS
 62
     2
100
AcDbVertex
100
AcDb2dVertex
 10
945.041137
 20
2465.523052
 30
0.0
  0
VERTEX
  5
719
100
AcDbEntity
  8
_2
  6
CONTINUOUS
 62
     2
100
AcDbVertex
100
AcDb2dVertex
 10
941.041987
 20
2458.369127
 30
0.0
  0
VERTEX
  5
71A
100
AcDbEntity
  8
_2
  6
CONTINUOUS
 62
     2
100
AcDbVertex
100
AcDb2dVertex
 10
937.000937
 20
2450.9181
 30
0.0
  0
VERTEX
  5
71B
100
AcDbEntity
  8
_2
  6
CONTINUOUS
 62
     2
100
AcDbVertex
100
AcDb2dVertex
 10
933.198924
 20
2443.078359
 30
0.0
  0
VERTEX
  5
71C
100
AcDbEntity
  8
_2
  6
CONTINUOUS
 62
     2
100
AcDbVertex
100
AcDb2dVertex
 10
929.916887
 20
2434.758291
 30
0.0
  0
VERTEX
  5
71D
100
AcDbEntity
  8
_2
  6
CONTINUOUS
 62
     2
100
AcDbVertex
100
AcDb2dVertex
 10
927.435763
 20
2425.866284
 30
0.0
  0
VERTEX
  5
71E
100
AcDbEntity
  8
_2
  6
CONTINUOUS
 62
     2
100
AcDbVertex
100
AcDb2dVertex
 10
926.036488
 20
2416.310724
 30
0.0
  0
VERTEX
  5
71F
100
AcDbEntity
  8
_2
  6
CONTINUOUS
 62
     2
100
AcDbVertex
100
AcDb2dVertex
 10
926.0
 20
2406.0
 30
0.0
  0
VERTEX
  5
720
100
AcDbEntity
  8
_2
  6
CONTINUOUS
 62
     2
100
AcDbVertex
100
AcDb2dVertex
 10
926.675997
 20
2399.741095
 30
0.0
  0
VERTEX
  5
721
100
AcDbEntity
  8
_2
  6
CONTINUOUS
 62
     2
100
AcDbVertex
100
AcDb2dVertex
 10
927.787017
 20
2393.356053
 30
0.0
  0
VERTEX
  5
722
100
AcDbEntity
  8
_2
  6
CONTINUOUS
 62
     2
100
AcDbVertex
100
AcDb2dVertex
 10
929.227832
 20
2386.997046
 30
0.0
  0
VERTEX
  5
723
100
AcDbEntity
  8
_2
  6
CONTINUOUS
 62
     2
100
AcDbVertex
100
AcDb2dVertex
 10
930.893219
 20
2380.81625
 30
0.0
  0
VERTEX
  5
724
100
AcDbEntity
  8
_2
  6
CONTINUOUS
 62
     2
100
AcDbVertex
100
AcDb2dVertex
 10
932.677952
 20
2374.965839
 30
0.0
  0
VERTEX
  5
725
100
AcDbEntity
  8
_2
  6
CONTINUOUS
 62
     2
100
AcDbVertex
100
AcDb2dVertex
 10
934.476806
 20
2369.597986
 30
0.0
  0
VERTEX
  5
726
100
AcDbEntity
  8
_2
  6
CONTINUOUS
 62
     2
100
AcDbVertex
100
AcDb2dVertex
 10
936.184555
 20
2364.864868
 30
0.0
  0
VERTEX
  5
727
100
AcDbEntity
  8
_2
  6
CONTINUOUS
 62
     2
100
AcDbVertex
100
AcDb2dVertex
 10
937.695974
 20
2360.918657
 30
0.0
  0
VERTEX
  5
728
100
AcDbEntity
  8
_2
  6
CONTINUOUS
 62
     2
100
AcDbVertex
100
AcDb2dVertex
 10
938.905838
 20
2357.911529
 30
0.0
  0
VERTEX
  5
729
100
AcDbEntity
  8
_2
  6
CONTINUOUS
 62
     2
100
AcDbVertex
100
AcDb2dVertex
 10
939.708922
 20
2355.995658
 30
0.0
  0
VERTEX
  5
72A
100
AcDbEntity
  8
_2
  6
CONTINUOUS
 62
     2
100
AcDbVertex
100
AcDb2dVertex
 10
940.0
 20
2355.323217
 30
0.0
  0
SEQEND
  5
72B
100
AcDbEntity
  8
_2
  6
CONTINUOUS
 62
     2
  0
LINE
  5
72C
100
AcDbEntity
  8
_2
  6
CONTINUOUS
 62
     7
100
AcDbLine
 10
427.687541
 20
2355.323217
 30
0.0
 11
587.687541
 21
2355.323217
 31
0.0
  0
LINE
  5
72D
100
AcDbEntity
  8
_2
  6
CONTINUOUS
 62
     7
100
AcDbLine
 10
707.687541
 20
2355.323217
 30
0.0
 11
940.0
 21
2355.323217
 31
0.0
  0
POLYLINE
  5
72E
100
AcDbEntity
  8
_2
  6
CONTINUOUS
 62
     3
100
AcDb2dPolyline
 66
     1
 10
0.0
 20
0.0
 30
0.0
 70
   128
  0
VERTEX
  5
72F
100
AcDbEntity
  8
_2
  6
CONTINUOUS
 62
     3
100
AcDbVertex
100
AcDb2dVertex
 10
587.687541
 20
2239.0
 30
0.0
  0
VERTEX
  5
730
100
AcDbEntity
  8
_2
  6
CONTINUOUS
 62
     3
100
AcDbVertex
100
AcDb2dVertex
 10
587.996063
 20
2239.289452
 30
0.0
  0
VERTEX
  5
731
100
AcDbEntity
  8
_2
  6
CONTINUOUS
 62
     3
100
AcDbVertex
100
AcDb2dVertex
 10
588.871979
 20
2240.085003
 30
0.0
  0
VERTEX
  5
732
100
AcDbEntity
  8
_2
  6
CONTINUOUS
 62
     3
100
AcDbVertex
100
AcDb2dVertex
 10
590.240817
 20
2241.277444
 30
0.0
  0
VERTEX
  5
733
100
AcDbEntity
  8
_2
  6
CONTINUOUS
 62
     3
100
AcDbVertex
100
AcDb2dVertex
 10
592.028105
 20
2242.757567
 30
0.0
  0
VERTEX
  5
734
100
AcDbEntity
  8
_2
  6
CONTINUOUS
 62
     3
100
AcDbVertex
100
AcDb2dVertex
 10
594.15937
 20
2244.416163
 30
0.0
  0
VERTEX
  5
735
100
AcDbEntity
  8
_2
  6
CONTINUOUS
 62
     3
100
AcDbVertex
100
AcDb2dVertex
 10
596.560138
 20
2246.144024
 30
0.0
  0
VERTEX
  5
736
100
AcDbEntity
  8
_2
  6
CONTINUOUS
 62
     3
100
AcDbVertex
100
AcDb2dVertex
 10
599.155939
 20
2247.831941
 30
0.0
  0
VERTEX
  5
737
100
AcDbEntity
  8
_2
  6
CONTINUOUS
 62
     3
100
AcDbVertex
100
AcDb2dVertex
 10
601.872297
 20
2249.370706
 30
0.0
  0
VERTEX
  5
738
100
AcDbEntity
  8
_2
  6
CONTINUOUS
 62
     3
100
AcDbVertex
100
AcDb2dVertex
 10
604.634742
 20
2250.651109
 30
0.0
  0
VERTEX
  5
739
100
AcDbEntity
  8
_2
  6
CONTINUOUS
 62
     3
100
AcDbVertex
100
AcDb2dVertex
 10
607.368801
 20
2251.563944
 30
0.0
  0
VERTEX
  5
73A
100
AcDbEntity
  8
_2
  6
CONTINUOUS
 62
     3
100
AcDbVertex
100
AcDb2dVertex
 10
610.0
 20
2252.0
 30
0.0
  0
VERTEX
  5
73B
100
AcDbEntity
  8
_2
  6
CONTINUOUS
 62
     3
100
AcDbVertex
100
AcDb2dVertex
 10
612.23784
 20
2251.918146
 30
0.0
  0
VERTEX
  5
73C
100
AcDbEntity
  8
_2
  6
CONTINUOUS
 62
     3
100
AcDbVertex
100
AcDb2dVertex
 10
614.346199
 20
2251.427312
 30
0.0
  0
VERTEX
  5
73D
100
AcDbEntity
  8
_2
  6
CONTINUOUS
 62
     3
100
AcDbVertex
100
AcDb2dVertex
 10
616.340261
 20
2250.596554
 30
0.0
  0
VERTEX
  5
73E
100
AcDbEntity
  8
_2
  6
CONTINUOUS
 62
     3
100
AcDbVertex
100
AcDb2dVertex
 10
618.235207
 20
2249.494929
 30
0.0
  0
VERTEX
  5
73F
100
AcDbEntity
  8
_2
  6
CONTINUOUS
 62
     3
100
AcDbVertex
100
AcDb2dVertex
 10
620.046223
 20
2248.191493
 30
0.0
  0
VERTEX
  5
740
100
AcDbEntity
  8
_2
  6
CONTINUOUS
 62
     3
100
AcDbVertex
100
AcDb2dVertex
 10
621.788489
 20
2246.755302
 30
0.0
  0
VERTEX
  5
741
100
AcDbEntity
  8
_2
  6
CONTINUOUS
 62
     3
100
AcDbVertex
100
AcDb2dVertex
 10
623.47719
 20
2245.255413
 30
0.0
  0
VERTEX
  5
742
100
AcDbEntity
  8
_2
  6
CONTINUOUS
 62
     3
100
AcDbVertex
100
AcDb2dVertex
 10
625.127508
 20
2243.760882
 30
0.0
  0
VERTEX
  5
743
100
AcDbEntity
  8
_2
  6
CONTINUOUS
 62
     3
100
AcDbVertex
100
AcDb2dVertex
 10
626.754628
 20
2242.340765
 30
0.0
  0
VERTEX
  5
744
100
AcDbEntity
  8
_2
  6
CONTINUOUS
 62
     3
100
AcDbVertex
100
AcDb2dVertex
 10
628.37373
 20
2241.064119
 30
0.0
  0
VERTEX
  5
745
100
AcDbEntity
  8
_2
  6
CONTINUOUS
 62
     3
100
AcDbVertex
100
AcDb2dVertex
 10
630.0
 20
2240.0
 30
0.0
  0
VERTEX
  5
746
100
AcDbEntity
  8
_2
  6
CONTINUOUS
 62
     3
100
AcDbVertex
100
AcDb2dVertex
 10
633.179304
 20
2238.698918
 30
0.0
  0
VERTEX
  5
747
100
AcDbEntity
  8
_2
  6
CONTINUOUS
 62
     3
100
AcDbVertex
100
AcDb2dVertex
 10
636.46127
 20
2238.275678
 30
0.0
  0
VERTEX
  5
748
100
AcDbEntity
  8
_2
  6
CONTINUOUS
 62
     3
100
AcDbVertex
100
AcDb2dVertex
 10
639.866389
 20
2238.572891
 30
0.0
  0
VERTEX
  5
749
100
AcDbEntity
  8
_2
  6
CONTINUOUS
 62
     3
100
AcDbVertex
100
AcDb2dVertex
 10
643.415154
 20
2239.433165
 30
0.0
  0
VERTEX
  5
74A
100
AcDbEntity
  8
_2
  6
CONTINUOUS
 62
     3
100
AcDbVertex
100
AcDb2dVertex
 10
647.128059
 20
2240.69911
 30
0.0
  0
VERTEX
  5
74B
100
AcDbEntity
  8
_2
  6
CONTINUOUS
 62
     3
100
AcDbVertex
100
AcDb2dVertex
 10
651.025596
 20
2242.213336
 30
0.0
  0
VERTEX
  5
74C
100
AcDbEntity
  8
_2
  6
CONTINUOUS
 62
     3
100
AcDbVertex
100
AcDb2dVertex
 10
655.128257
 20
2243.818451
 30
0.0
  0
VERTEX
  5
74D
100
AcDbEntity
  8
_2
  6
CONTINUOUS
 62
     3
100
AcDbVertex
100
AcDb2dVertex
 10
659.456535
 20
2245.357066
 30
0.0
  0
VERTEX
  5
74E
100
AcDbEntity
  8
_2
  6
CONTINUOUS
 62
     3
100
AcDbVertex
100
AcDb2dVertex
 10
664.030924
 20
2246.671789
 30
0.0
  0
VERTEX
  5
74F
100
AcDbEntity
  8
_2
  6
CONTINUOUS
 62
     3
100
AcDbVertex
100
AcDb2dVertex
 10
668.871914
 20
2247.605231
 30
0.0
  0
VERTEX
  5
750
100
AcDbEntity
  8
_2
  6
CONTINUOUS
 62
     3
100
AcDbVertex
100
AcDb2dVertex
 10
674.0
 20
2248.0
 30
0.0
  0
VERTEX
  5
751
100
AcDbEntity
  8
_2
  6
CONTINUOUS
 62
     3
100
AcDbVertex
100
AcDb2dVertex
 10
678.162065
 20
2247.860364
 30
0.0
  0
VERTEX
  5
752
100
AcDbEntity
  8
_2
  6
CONTINUOUS
 62
     3
100
AcDbVertex
100
AcDb2dVertex
 10
682.407433
 20
2247.378417
 30
0.0
  0
VERTEX
  5
753
100
AcDbEntity
  8
_2
  6
CONTINUOUS
 62
     3
100
AcDbVertex
100
AcDb2dVertex
 10
686.635033
 20
2246.629089
 30
0.0
  0
VERTEX
  5
754
100
AcDbEntity
  8
_2
  6
CONTINUOUS
 62
     3
100
AcDbVertex
100
AcDb2dVertex
 10
690.743793
 20
2245.687305
 30
0.0
  0
VERTEX
  5
755
100
AcDbEntity
  8
_2
  6
CONTINUOUS
 62
     3
100
AcDbVertex
100
AcDb2dVertex
 10
694.632641
 20
2244.627994
 30
0.0
  0
VERTEX
  5
756
100
AcDbEntity
  8
_2
  6
CONTINUOUS
 62
     3
100
AcDbVertex
100
AcDb2dVertex
 10
698.200505
 20
2243.526083
 30
0.0
  0
VERTEX
  5
757
100
AcDbEntity
  8
_2
  6
CONTINUOUS
 62
     3
100
AcDbVertex
100
AcDb2dVertex
 10
701.346313
 20
2242.4565
 30
0.0
  0
VERTEX
  5
758
100
AcDbEntity
  8
_2
  6
CONTINUOUS
 62
     3
100
AcDbVertex
100
AcDb2dVertex
 10
703.968992
 20
2241.494173
 30
0.0
  0
VERTEX
  5
759
100
AcDbEntity
  8
_2
  6
CONTINUOUS
 62
     3
100
AcDbVertex
100
AcDb2dVertex
 10
705.967471
 20
2240.714028
 30
0.0
  0
VERTEX
  5
75A
100
AcDbEntity
  8
_2
  6
CONTINUOUS
 62
     3
100
AcDbVertex
100
AcDb2dVertex
 10
707.240678
 20
2240.190995
 30
0.0
  0
VERTEX
  5
75B
100
AcDbEntity
  8
_2
  6
CONTINUOUS
 62
     3
100
AcDbVertex
100
AcDb2dVertex
 10
707.687541
 20
2240.0
 30
0.0
  0
SEQEND
  5
75C
100
AcDbEntity
  8
_2
  6
CONTINUOUS
 62
     3
  0
LINE
  5
75D
100
AcDbEntity
  8
_2
  6
CONTINUOUS
 62
     3
100
AcDbLine
 10
950.0
 20
2355.323217
 30
0.0
 11
1103.0
 21
2355.323217
 31
0.0
  0
POLYLINE
  5
75E
100
AcDbEntity
  8
_2
  6
CONTINUOUS
 62
     6
100
AcDb2dPolyline
 66
     1
 10
0.0
 20
0.0
 30
0.0
 70
   128
  0
VERTEX
  5
75F
100
AcDbEntity
  8
_2
  6
CONTINUOUS
 62
     6
100
AcDbVertex
100
AcDb2dVertex
 10
549.687541
 20
2621.323217
 30
0.0
  0
VERTEX
  5
760
100
AcDbEntity
  8
_2
  6
CONTINUOUS
 62
     6
100
AcDbVertex
100
AcDb2dVertex
 10
549.506186
 20
2621.367042
 30
0.0
  0
VERTEX
  5
761
100
AcDbEntity
  8
_2
  6
CONTINUOUS
 62
     6
100
AcDbVertex
100
AcDb2dVertex
 10
548.989416
 20
2621.486531
 30
0.0
  0
VERTEX
  5
762
100
AcDbEntity
  8
_2
  6
CONTINUOUS
 62
     6
100
AcDbVertex
100
AcDb2dVertex
 10
548.178172
 20
2621.663702
 30
0.0
  0
VERTEX
  5
763
100
AcDbEntity
  8
_2
  6
CONTINUOUS
 62
     6
100
AcDbVertex
100
AcDb2dVertex
 10
547.113393
 20
2621.880575
 30
0.0
  0
VERTEX
  5
764
100
AcDbEntity
  8
_2
  6
CONTINUOUS
 62
     6
100
AcDbVertex
100
AcDb2dVertex
 10
545.83602
 20
2622.119171
 30
0.0
  0
VERTEX
  5
765
100
AcDbEntity
  8
_2
  6
CONTINUOUS
 62
     6
100
AcDbVertex
100
AcDb2dVertex
 10
544.386995
 20
2622.361508
 30
0.0
  0
VERTEX
  5
766
100
AcDbEntity
  8
_2
  6
CONTINUOUS
 62
     6
100
AcDbVertex
100
AcDb2dVertex
 10
542.807258
 20
2622.589606
 30
0.0
  0
VERTEX
  5
767
100
AcDbEntity
  8
_2
  6
CONTINUOUS
 62
     6
100
AcDbVertex
100
AcDb2dVertex
 10
541.137749
 20
2622.785484
 30
0.0
  0
VERTEX
  5
768
100
AcDbEntity
  8
_2
  6
CONTINUOUS
 62
     6
100
AcDbVertex
100
AcDb2dVertex
 10
539.419409
 20
2622.931163
 30
0.0
  0
VERTEX
  5
769
100
AcDbEntity
  8
_2
  6
CONTINUOUS
 62
     6
100
AcDbVertex
100
AcDb2dVertex
 10
537.69318
 20
2623.008662
 30
0.0
  0
VERTEX
  5
76A
100
AcDbEntity
  8
_2
  6
CONTINUOUS
 62
     6
100
AcDbVertex
100
AcDb2dVertex
 10
536.0
 20
2623.0
 30
0.0
  0
VERTEX
  5
76B
100
AcDbEntity
  8
_2
  6
CONTINUOUS
 62
     6
100
AcDbVertex
100
AcDb2dVertex
 10
533.73245
 20
2622.817267
 30
0.0
  0
VERTEX
  5
76C
100
AcDbEntity
  8
_2
  6
CONTINUOUS
 62
     6
100
AcDbVertex
100
AcDb2dVertex
 10
531.615568
 20
2622.438823
 30
0.0
  0
VERTEX
  5
76D
100
AcDbEntity
  8
_2
  6
CONTINUOUS
 62
     6
100
AcDbVertex
100
AcDb2dVertex
 10
529.653332
 20
2621.87542
 30
0.0
  0
VERTEX
  5
76E
100
AcDbEntity
  8
_2
  6
CONTINUOUS
 62
     6
100
AcDbVertex
100
AcDb2dVertex
 10
527.849718
 20
2621.137812
 30
0.0
  0
VERTEX
  5
76F
100
AcDbEntity
  8
_2
  6
CONTINUOUS
 62
     6
100
AcDbVertex
100
AcDb2dVertex
 10
526.208706
 20
2620.23675
 30
0.0
  0
VERTEX
  5
770
100
AcDbEntity
  8
_2
  6
CONTINUOUS
 62
     6
100
AcDbVertex
100
AcDb2dVertex
 10
524.734272
 20
2619.182987
 30
0.0
  0
VERTEX
  5
771
100
AcDbEntity
  8
_2
  6
CONTINUOUS
 62
     6
100
AcDbVertex
100
AcDb2dVertex
 10
523.430394
 20
2617.987276
 30
0.0
  0
VERTEX
  5
772
100
AcDbEntity
  8
_2
  6
CONTINUOUS
 62
     6
100
AcDbVertex
100
AcDb2dVertex
 10
522.30105
 20
2616.660369
 30
0.0
  0
VERTEX
  5
773
100
AcDbEntity
  8
_2
  6
CONTINUOUS
 62
     6
100
AcDbVertex
100
AcDb2dVertex
 10
521.350218
 20
2615.213019
 30
0.0
  0
VERTEX
  5
774
100
AcDbEntity
  8
_2
  6
CONTINUOUS
 62
     6
100
AcDbVertex
100
AcDb2dVertex
 10
520.581876
 20
2613.655979
 30
0.0
  0
VERTEX
  5
775
100
AcDbEntity
  8
_2
  6
CONTINUOUS
 62
     6
100
AcDbVertex
100
AcDb2dVertex
 10
520.0
 20
2612.0
 30
0.0
  0
VERTEX
  5
776
100
AcDbEntity
  8
_2
  6
CONTINUOUS
 62
     6
100
AcDbVertex
100
AcDb2dVertex
 10
519.622114
 20
2610.347489
 30
0.0
  0
VERTEX
  5
777
100
AcDbEntity
  8
_2
  6
CONTINUOUS
 62
     6
100
AcDbVertex
100
AcDb2dVertex
 10
519.410121
 20
2608.636137
 30
0.0
  0
VERTEX
  5
778
100
AcDbEntity
  8
_2
  6
CONTINUOUS
 62
     6
100
AcDbVertex
100
AcDb2dVertex
 10
519.358156
 20
2606.886634
 30
0.0
  0
VERTEX
  5
779
100
AcDbEntity
  8
_2
  6
CONTINUOUS
 62
     6
100
AcDbVertex
100
AcDb2dVertex
 10
519.460358
 20
2605.119671
 30
0.0
  0
VERTEX
  5
77A
100
AcDbEntity
  8
_2
  6
CONTINUOUS
 62
     6
100
AcDbVertex
100
AcDb2dVertex
 10
519.710864
 20
2603.355938
 30
0.0
  0
VERTEX
  5
77B
100
AcDbEntity
  8
_2
  6
CONTINUOUS
 62
     6
100
AcDbVertex
100
AcDb2dVertex
 10
520.103812
 20
2601.616124
 30
0.0
  0
VERTEX
  5
77C
100
AcDbEntity
  8
_2
  6
CONTINUOUS
 62
     6
100
AcDbVertex
100
AcDb2dVertex
 10
520.63334
 20
2599.92092
 30
0.0
  0
VERTEX
  5
77D
100
AcDbEntity
  8
_2
  6
CONTINUOUS
 62
     6
100
AcDbVertex
100
AcDb2dVertex
 10
521.293585
 20
2598.291015
 30
0.0
  0
VERTEX
  5
77E
100
AcDbEntity
  8
_2
  6
CONTINUOUS
 62
     6
100
AcDbVertex
100
AcDb2dVertex
 10
522.078685
 20
2596.7471
 30
0.0
  0
VERTEX
  5
77F
100
AcDbEntity
  8
_2
  6
CONTINUOUS
 62
     6
100
AcDbVertex
100
AcDb2dVertex
 10
522.982778
 20
2595.309865
 30
0.0
  0
VERTEX
  5
780
100
AcDbEntity
  8
_2
  6
CONTINUOUS
 62
     6
100
AcDbVertex
100
AcDb2dVertex
 10
524.0
 20
2594.0
 30
0.0
  0
VERTEX
  5
781
100
AcDbEntity
  8
_2
  6
CONTINUOUS
 62
     6
100
AcDbVertex
100
AcDb2dVertex
 10
525.001781
 20
2592.951547
 30
0.0
  0
VERTEX
  5
782
100
AcDbEntity
  8
_2
  6
CONTINUOUS
 62
     6
100
AcDbVertex
100
AcDb2dVertex
 10
526.090562
 20
2592.02617
 30
0.0
  0
VERTEX
  5
783
100
AcDbEntity
  8
_2
  6
CONTINUOUS
 62
     6
100
AcDbVertex
100
AcDb2dVertex
 10
527.267525
 20
2591.228499
 30
0.0
  0
VERTEX
  5
784
100
AcDbEntity
  8
_2
  6
CONTINUOUS
 62
     6
100
AcDbVertex
100
AcDb2dVertex
 10
528.533857
 20
2590.563163
 30
0.0
  0
VERTEX
  5
785
100
AcDbEntity
  8
_2
  6
CONTINUOUS
 62
     6
100
AcDbVertex
100
AcDb2dVertex
 10
529.890742
 20
2590.03479
 30
0.0
  0
VERTEX
  5
786
100
AcDbEntity
  8
_2
  6
CONTINUOUS
 62
     6
100
AcDbVertex
100
AcDb2dVertex
 10
531.339364
 20
2589.64801
 30
0.0
  0
VERTEX
  5
787
100
AcDbEntity
  8
_2
  6
CONTINUOUS
 62
     6
100
AcDbVertex
100
AcDb2dVertex
 10
532.880908
 20
2589.40745
 30
0.0
  0
VERTEX
  5
788
100
AcDbEntity
  8
_2
  6
CONTINUOUS
 62
     6
100
AcDbVertex
100
AcDb2dVertex
 10
534.516559
 20
2589.31774
 30
0.0
  0
VERTEX
  5
789
100
AcDbEntity
  8
_2
  6
CONTINUOUS
 62
     6
100
AcDbVertex
100
AcDb2dVertex
 10
536.247502
 20
2589.38351
 30
0.0
  0
VERTEX
  5
78A
100
AcDbEntity
  8
_2
  6
CONTINUOUS
 62
     6
100
AcDbVertex
100
AcDb2dVertex
 10
538.07492
 20
2589.609387
 30
0.0
  0
VERTEX
  5
78B
100
AcDbEntity
  8
_2
  6
CONTINUOUS
 62
     6
100
AcDbVertex
100
AcDb2dVertex
 10
540.0
 20
2590.0
 30
0.0
  0
VERTEX
  5
78C
100
AcDbEntity
  8
_2
  6
CONTINUOUS
 62
     6
100
AcDbVertex
100
AcDb2dVertex
 10
541.111633
 20
2590.288421
 30
0.0
  0
VERTEX
  5
78D
100
AcDbEntity
  8
_2
  6
CONTINUOUS
 62
     6
100
AcDbVertex
100
AcDb2dVertex
 10
542.230197
 20
2590.615507
 30
0.0
  0
VERTEX
  5
78E
100
AcDbEntity
  8
_2
  6
CONTINUOUS
 62
     6
100
AcDbVertex
100
AcDb2dVertex
 10
543.331924
 20
2590.967323
 30
0.0
  0
VERTEX
  5
78F
100
AcDbEntity
  8
_2
  6
CONTINUOUS
 62
     6
100
AcDbVertex
100
AcDb2dVertex
 10
544.393047
 20
2591.329934
 30
0.0
  0
VERTEX
  5
790
100
AcDbEntity
  8
_2
  6
CONTINUOUS
 62
     6
100
AcDbVertex
100
AcDb2dVertex
 10
545.389799
 20
2591.689406
 30
0.0
  0
VERTEX
  5
791
100
AcDbEntity
  8
_2
  6
CONTINUOUS
 62
     6
100
AcDbVertex
100
AcDb2dVertex
 10
546.298412
 20
2592.031805
 30
0.0
  0
VERTEX
  5
792
100
AcDbEntity
  8
_2
  6
CONTINUOUS
 62
     6
100
AcDbVertex
100
AcDb2dVertex
 10
547.095119
 20
2592.343197
 30
0.0
  0
VERTEX
  5
793
100
AcDbEntity
  8
_2
  6
CONTINUOUS
 62
     6
100
AcDbVertex
100
AcDb2dVertex
 10
547.756153
 20
2592.609647
 30
0.0
  0
VERTEX
  5
794
100
AcDbEntity
  8
_2
  6
CONTINUOUS
 62
     6
100
AcDbVertex
100
AcDb2dVertex
 10
548.257746
 20
2592.81722
 30
0.0
  0
VERTEX
  5
795
100
AcDbEntity
  8
_2
  6
CONTINUOUS
 62
     6
100
AcDbVertex
100
AcDb2dVertex
 10
548.576131
 20
2592.951983
 30
0.0
  0
VERTEX
  5
796
100
AcDbEntity
  8
_2
  6
CONTINUOUS
 62
     6
100
AcDbVertex
100
AcDb2dVertex
 10
548.687541
 20
2593.0
 30
0.0
  0
SEQEND
  5
797
100
AcDbEntity
  8
_2
  6
CONTINUOUS
 62
     6
  0
ARC
  5
798
100
AcDbEntity
  8
_2
  6
CONTINUOUS
 62
     6
100
AcDbCircle
 10
564.921569
 20
2589.034244
 30
0.0
 40
6.375211
100
AcDbArc
 50
192.080532
 51
318.381071
  0
ARC
  5
799
100
AcDbEntity
  8
_2
  6
CONTINUOUS
 62
     6
100
AcDbCircle
 10
730.453513
 20
2589.034244
 30
0.0
 40
6.375211
100
AcDbArc
 50
221.618929
 51
347.919468
  0
ARC
  5
79A
100
AcDbEntity
  8
_2
  6
CONTINUOUS
 62
     6
100
AcDbCircle
 10
730.453513
 20
2589.034244
 30
0.0
 40
6.375211
100
AcDbArc
 50
221.618929
 51
347.919468
  0
POLYLINE
  5
79B
100
AcDbEntity
  8
_2
  6
CONTINUOUS
 62
     6
100
AcDb2dPolyline
 66
     1
 10
0.0
 20
0.0
 30
0.0
 70
   128
  0
VERTEX
  5
79C
100
AcDbEntity
  8
_2
  6
CONTINUOUS
 62
     6
100
AcDbVertex
100
AcDb2dVertex
 10
745.687541
 20
2621.323217
 30
0.0
  0
VERTEX
  5
79D
100
AcDbEntity
  8
_2
  6
CONTINUOUS
 62
     6
100
AcDbVertex
100
AcDb2dVertex
 10
745.868896
 20
2621.367042
 30
0.0
  0
VERTEX
  5
79E
100
AcDbEntity
  8
_2
  6
CONTINUOUS
 62
     6
100
AcDbVertex
100
AcDb2dVertex
 10
746.385666
 20
2621.486531
 30
0.0
  0
VERTEX
  5
79F
100
AcDbEntity
  8
_2
  6
CONTINUOUS
 62
     6
100
AcDbVertex
100
AcDb2dVertex
 10
747.19691
 20
2621.663702
 30
0.0
  0
VERTEX
  5
7A0
100
AcDbEntity
  8
_2
  6
CONTINUOUS
 62
     6
100
AcDbVertex
100
AcDb2dVertex
 10
748.261689
 20
2621.880575
 30
0.0
  0
VERTEX
  5
7A1
100
AcDbEntity
  8
_2
  6
CONTINUOUS
 62
     6
100
AcDbVertex
100
AcDb2dVertex
 10
749.539062
 20
2622.119171
 30
0.0
  0
VERTEX
  5
7A2
100
AcDbEntity
  8
_2
  6
CONTINUOUS
 62
     6
100
AcDbVertex
100
AcDb2dVertex
 10
750.988087
 20
2622.361508
 30
0.0
  0
VERTEX
  5
7A3
100
AcDbEntity
  8
_2
  6
CONTINUOUS
 62
     6
100
AcDbVertex
100
AcDb2dVertex
 10
752.567824
 20
2622.589606
 30
0.0
  0
VERTEX
  5
7A4
100
AcDbEntity
  8
_2
  6
CONTINUOUS
 62
     6
100
AcDbVertex
100
AcDb2dVertex
 10
754.237333
 20
2622.785484
 30
0.0
  0
VERTEX
  5
7A5
100
AcDbEntity
  8
_2
  6
CONTINUOUS
 62
     6
100
AcDbVertex
100
AcDb2dVertex
 10
755.955673
 20
2622.931163
 30
0.0
  0
VERTEX
  5
7A6
100
AcDbEntity
  8
_2
  6
CONTINUOUS
 62
     6
100
AcDbVertex
100
AcDb2dVertex
 10
757.681902
 20
2623.008662
 30
0.0
  0
VERTEX
  5
7A7
100
AcDbEntity
  8
_2
  6
CONTINUOUS
 62
     6
100
AcDbVertex
100
AcDb2dVertex
 10
759.375082
 20
2623.0
 30
0.0
  0
VERTEX
  5
7A8
100
AcDbEntity
  8
_2
  6
CONTINUOUS
 62
     6
100
AcDbVertex
100
AcDb2dVertex
 10
761.642632
 20
2622.817267
 30
0.0
  0
VERTEX
  5
7A9
100
AcDbEntity
  8
_2
  6
CONTINUOUS
 62
     6
100
AcDbVertex
100
AcDb2dVertex
 10
763.759514
 20
2622.438823
 30
0.0
  0
VERTEX
  5
7AA
100
AcDbEntity
  8
_2
  6
CONTINUOUS
 62
     6
100
AcDbVertex
100
AcDb2dVertex
 10
765.72175
 20
2621.87542
 30
0.0
  0
VERTEX
  5
7AB
100
AcDbEntity
  8
_2
  6
CONTINUOUS
 62
     6
100
AcDbVertex
100
AcDb2dVertex
 10
767.525364
 20
2621.137812
 30
0.0
  0
VERTEX
  5
7AC
100
AcDbEntity
  8
_2
  6
CONTINUOUS
 62
     6
100
AcDbVertex
100
AcDb2dVertex
 10
769.166376
 20
2620.23675
 30
0.0
  0
VERTEX
  5
7AD
100
AcDbEntity
  8
_2
  6
CONTINUOUS
 62
     6
100
AcDbVertex
100
AcDb2dVertex
 10
770.64081
 20
2619.182987
 30
0.0
  0
VERTEX
  5
7AE
100
AcDbEntity
  8
_2
  6
CONTINUOUS
 62
     6
100
AcDbVertex
100
AcDb2dVertex
 10
771.944688
 20
2617.987276
 30
0.0
  0
VERTEX
  5
7AF
100
AcDbEntity
  8
_2
  6
CONTINUOUS
 62
     6
100
AcDbVertex
100
AcDb2dVertex
 10
773.074032
 20
2616.660369
 30
0.0
  0
VERTEX
  5
7B0
100
AcDbEntity
  8
_2
  6
CONTINUOUS
 62
     6
100
AcDbVertex
100
AcDb2dVertex
 10
774.024864
 20
2615.213019
 30
0.0
  0
VERTEX
  5
7B1
100
AcDbEntity
  8
_2
  6
CONTINUOUS
 62
     6
100
AcDbVertex
100
AcDb2dVertex
 10
774.793206
 20
2613.655979
 30
0.0
  0
VERTEX
  5
7B2
100
AcDbEntity
  8
_2
  6
CONTINUOUS
 62
     6
100
AcDbVertex
100
AcDb2dVertex
 10
775.375082
 20
2612.0
 30
0.0
  0
VERTEX
  5
7B3
100
AcDbEntity
  8
_2
  6
CONTINUOUS
 62
     6
100
AcDbVertex
100
AcDb2dVertex
 10
775.752968
 20
2610.347489
 30
0.0
  0
VERTEX
  5
7B4
100
AcDbEntity
  8
_2
  6
CONTINUOUS
 62
     6
100
AcDbVertex
100
AcDb2dVertex
 10
775.964961
 20
2608.636137
 30
0.0
  0
VERTEX
  5
7B5
100
AcDbEntity
  8
_2
  6
CONTINUOUS
 62
     6
100
AcDbVertex
100
AcDb2dVertex
 10
776.016926
 20
2606.886634
 30
0.0
  0
VERTEX
  5
7B6
100
AcDbEntity
  8
_2
  6
CONTINUOUS
 62
     6
100
AcDbVertex
100
AcDb2dVertex
 10
775.914724
 20
2605.119671
 30
0.0
  0
VERTEX
  5
7B7
100
AcDbEntity
  8
_2
  6
CONTINUOUS
 62
     6
100
AcDbVertex
100
AcDb2dVertex
 10
775.664218
 20
2603.355938
 30
0.0
  0
VERTEX
  5
7B8
100
AcDbEntity
  8
_2
  6
CONTINUOUS
 62
     6
100
AcDbVertex
100
AcDb2dVertex
 10
775.27127
 20
2601.616124
 30
0.0
  0
VERTEX
  5
7B9
100
AcDbEntity
  8
_2
  6
CONTINUOUS
 62
     6
100
AcDbVertex
100
AcDb2dVertex
 10
774.741742
 20
2599.92092
 30
0.0
  0
VERTEX
  5
7BA
100
AcDbEntity
  8
_2
  6
CONTINUOUS
 62
     6
100
AcDbVertex
100
AcDb2dVertex
 10
774.081497
 20
2598.291015
 30
0.0
  0
VERTEX
  5
7BB
100
AcDbEntity
  8
_2
  6
CONTINUOUS
 62
     6
100
AcDbVertex
100
AcDb2dVertex
 10
773.296397
 20
2596.7471
 30
0.0
  0
VERTEX
  5
7BC
100
AcDbEntity
  8
_2
  6
CONTINUOUS
 62
     6
100
AcDbVertex
100
AcDb2dVertex
 10
772.392304
 20
2595.309865
 30
0.0
  0
VERTEX
  5
7BD
100
AcDbEntity
  8
_2
  6
CONTINUOUS
 62
     6
100
AcDbVertex
100
AcDb2dVertex
 10
771.375082
 20
2594.0
 30
0.0
  0
VERTEX
  5
7BE
100
AcDbEntity
  8
_2
  6
CONTINUOUS
 62
     6
100
AcDbVertex
100
AcDb2dVertex
 10
770.373301
 20
2592.951547
 30
0.0
  0
VERTEX
  5
7BF
100
AcDbEntity
  8
_2
  6
CONTINUOUS
 62
     6
100
AcDbVertex
100
AcDb2dVertex
 10
769.28452
 20
2592.02617
 30
0.0
  0
VERTEX
  5
7C0
100
AcDbEntity
  8
_2
  6
CONTINUOUS
 62
     6
100
AcDbVertex
100
AcDb2dVertex
 10
768.107557
 20
2591.228499
 30
0.0
  0
VERTEX
  5
7C1
100
AcDbEntity
  8
_2
  6
CONTINUOUS
 62
     6
100
AcDbVertex
100
AcDb2dVertex
 10
766.841225
 20
2590.563163
 30
0.0
  0
VERTEX
  5
7C2
100
AcDbEntity
  8
_2
  6
CONTINUOUS
 62
     6
100
AcDbVertex
100
AcDb2dVertex
 10
765.48434
 20
2590.03479
 30
0.0
  0
VERTEX
  5
7C3
100
AcDbEntity
  8
_2
  6
CONTINUOUS
 62
     6
100
AcDbVertex
100
AcDb2dVertex
 10
764.035718
 20
2589.64801
 30
0.0
  0
VERTEX
  5
7C4
100
AcDbEntity
  8
_2
  6
CONTINUOUS
 62
     6
100
AcDbVertex
100
AcDb2dVertex
 10
762.494174
 20
2589.40745
 30
0.0
  0
VERTEX
  5
7C5
100
AcDbEntity
  8
_2
  6
CONTINUOUS
 62
     6
100
AcDbVertex
100
AcDb2dVertex
 10
760.858523
 20
2589.31774
 30
0.0
  0
VERTEX
  5
7C6
100
AcDbEntity
  8
_2
  6
CONTINUOUS
 62
     6
100
AcDbVertex
100
AcDb2dVertex
 10
759.12758
 20
2589.38351
 30
0.0
  0
VERTEX
  5
7C7
100
AcDbEntity
  8
_2
  6
CONTINUOUS
 62
     6
100
AcDbVertex
100
AcDb2dVertex
 10
757.300162
 20
2589.609387
 30
0.0
  0
VERTEX
  5
7C8
100
AcDbEntity
  8
_2
  6
CONTINUOUS
 62
     6
100
AcDbVertex
100
AcDb2dVertex
 10
755.375082
 20
2590.0
 30
0.0
  0
VERTEX
  5
7C9
100
AcDbEntity
  8
_2
  6
CONTINUOUS
 62
     6
100
AcDbVertex
100
AcDb2dVertex
 10
754.263449
 20
2590.288421
 30
0.0
  0
VERTEX
  5
7CA
100
AcDbEntity
  8
_2
  6
CONTINUOUS
 62
     6
100
AcDbVertex
100
AcDb2dVertex
 10
753.144885
 20
2590.615507
 30
0.0
  0
VERTEX
  5
7CB
100
AcDbEntity
  8
_2
  6
CONTINUOUS
 62
     6
100
AcDbVertex
100
AcDb2dVertex
 10
752.043158
 20
2590.967323
 30
0.0
  0
VERTEX
  5
7CC
100
AcDbEntity
  8
_2
  6
CONTINUOUS
 62
     6
100
AcDbVertex
100
AcDb2dVertex
 10
750.982035
 20
2591.329934
 30
0.0
  0
VERTEX
  5
7CD
100
AcDbEntity
  8
_2
  6
CONTINUOUS
 62
     6
100
AcDbVertex
100
AcDb2dVertex
 10
749.985283
 20
2591.689406
 30
0.0
  0
VERTEX
  5
7CE
100
AcDbEntity
  8
_2
  6
CONTINUOUS
 62
     6
100
AcDbVertex
100
AcDb2dVertex
 10
749.07667
 20
2592.031805
 30
0.0
  0
VERTEX
  5
7CF
100
AcDbEntity
  8
_2
  6
CONTINUOUS
 62
     6
100
AcDbVertex
100
AcDb2dVertex
 10
748.279963
 20
2592.343197
 30
0.0
  0
VERTEX
  5
7D0
100
AcDbEntity
  8
_2
  6
CONTINUOUS
 62
     6
100
AcDbVertex
100
AcDb2dVertex
 10
747.618929
 20
2592.609647
 30
0.0
  0
VERTEX
  5
7D1
100
AcDbEntity
  8
_2
  6
CONTINUOUS
 62
     6
100
AcDbVertex
100
AcDb2dVertex
 10
747.117336
 20
2592.81722
 30
0.0
  0
VERTEX
  5
7D2
100
AcDbEntity
  8
_2
  6
CONTINUOUS
 62
     6
100
AcDbVertex
100
AcDb2dVertex
 10
746.798951
 20
2592.951983
 30
0.0
  0
VERTEX
  5
7D3
100
AcDbEntity
  8
_2
  6
CONTINUOUS
 62
     6
100
AcDbVertex
100
AcDb2dVertex
 10
746.687541
 20
2593.0
 30
0.0
  0
SEQEND
  5
7D4
100
AcDbEntity
  8
_2
  6
CONTINUOUS
 62
     6
  0
POLYLINE
  5
7D5
100
AcDbEntity
  8
_2
  6
CONTINUOUS
 62
     6
100
AcDb2dPolyline
 66
     1
 10
0.0
 20
0.0
 30
0.0
 70
   128
  0
VERTEX
  5
7D6
100
AcDbEntity
  8
_2
  6
CONTINUOUS
 62
     6
100
AcDbVertex
100
AcDb2dVertex
 10
745.687541
 20
2621.323217
 30
0.0
  0
VERTEX
  5
7D7
100
AcDbEntity
  8
_2
  6
CONTINUOUS
 62
     6
100
AcDbVertex
100
AcDb2dVertex
 10
745.868896
 20
2621.367042
 30
0.0
  0
VERTEX
  5
7D8
100
AcDbEntity
  8
_2
  6
CONTINUOUS
 62
     6
100
AcDbVertex
100
AcDb2dVertex
 10
746.385666
 20
2621.486531
 30
0.0
  0
VERTEX
  5
7D9
100
AcDbEntity
  8
_2
  6
CONTINUOUS
 62
     6
100
AcDbVertex
100
AcDb2dVertex
 10
747.19691
 20
2621.663702
 30
0.0
  0
VERTEX
  5
7DA
100
AcDbEntity
  8
_2
  6
CONTINUOUS
 62
     6
100
AcDbVertex
100
AcDb2dVertex
 10
748.261689
 20
2621.880575
 30
0.0
  0
VERTEX
  5
7DB
100
AcDbEntity
  8
_2
  6
CONTINUOUS
 62
     6
100
AcDbVertex
100
AcDb2dVertex
 10
749.539062
 20
2622.119171
 30
0.0
  0
VERTEX
  5
7DC
100
AcDbEntity
  8
_2
  6
CONTINUOUS
 62
     6
100
AcDbVertex
100
AcDb2dVertex
 10
750.988087
 20
2622.361508
 30
0.0
  0
VERTEX
  5
7DD
100
AcDbEntity
  8
_2
  6
CONTINUOUS
 62
     6
100
AcDbVertex
100
AcDb2dVertex
 10
752.567824
 20
2622.589606
 30
0.0
  0
VERTEX
  5
7DE
100
AcDbEntity
  8
_2
  6
CONTINUOUS
 62
     6
100
AcDbVertex
100
AcDb2dVertex
 10
754.237333
 20
2622.785484
 30
0.0
  0
VERTEX
  5
7DF
100
AcDbEntity
  8
_2
  6
CONTINUOUS
 62
     6
100
AcDbVertex
100
AcDb2dVertex
 10
755.955673
 20
2622.931163
 30
0.0
  0
VERTEX
  5
7E0
100
AcDbEntity
  8
_2
  6
CONTINUOUS
 62
     6
100
AcDbVertex
100
AcDb2dVertex
 10
757.681902
 20
2623.008662
 30
0.0
  0
VERTEX
  5
7E1
100
AcDbEntity
  8
_2
  6
CONTINUOUS
 62
     6
100
AcDbVertex
100
AcDb2dVertex
 10
759.375082
 20
2623.0
 30
0.0
  0
VERTEX
  5
7E2
100
AcDbEntity
  8
_2
  6
CONTINUOUS
 62
     6
100
AcDbVertex
100
AcDb2dVertex
 10
761.642632
 20
2622.817267
 30
0.0
  0
VERTEX
  5
7E3
100
AcDbEntity
  8
_2
  6
CONTINUOUS
 62
     6
100
AcDbVertex
100
AcDb2dVertex
 10
763.759514
 20
2622.438823
 30
0.0
  0
VERTEX
  5
7E4
100
AcDbEntity
  8
_2
  6
CONTINUOUS
 62
     6
100
AcDbVertex
100
AcDb2dVertex
 10
765.72175
 20
2621.87542
 30
0.0
  0
VERTEX
  5
7E5
100
AcDbEntity
  8
_2
  6
CONTINUOUS
 62
     6
100
AcDbVertex
100
AcDb2dVertex
 10
767.525364
 20
2621.137812
 30
0.0
  0
VERTEX
  5
7E6
100
AcDbEntity
  8
_2
  6
CONTINUOUS
 62
     6
100
AcDbVertex
100
AcDb2dVertex
 10
769.166376
 20
2620.23675
 30
0.0
  0
VERTEX
  5
7E7
100
AcDbEntity
  8
_2
  6
CONTINUOUS
 62
     6
100
AcDbVertex
100
AcDb2dVertex
 10
770.64081
 20
2619.182987
 30
0.0
  0
VERTEX
  5
7E8
100
AcDbEntity
  8
_2
  6
CONTINUOUS
 62
     6
100
AcDbVertex
100
AcDb2dVertex
 10
771.944688
 20
2617.987276
 30
0.0
  0
VERTEX
  5
7E9
100
AcDbEntity
  8
_2
  6
CONTINUOUS
 62
     6
100
AcDbVertex
100
AcDb2dVertex
 10
773.074032
 20
2616.660369
 30
0.0
  0
VERTEX
  5
7EA
100
AcDbEntity
  8
_2
  6
CONTINUOUS
 62
     6
100
AcDbVertex
100
AcDb2dVertex
 10
774.024864
 20
2615.213019
 30
0.0
  0
VERTEX
  5
7EB
100
AcDbEntity
  8
_2
  6
CONTINUOUS
 62
     6
100
AcDbVertex
100
AcDb2dVertex
 10
774.793206
 20
2613.655979
 30
0.0
  0
VERTEX
  5
7EC
100
AcDbEntity
  8
_2
  6
CONTINUOUS
 62
     6
100
AcDbVertex
100
AcDb2dVertex
 10
775.375082
 20
2612.0
 30
0.0
  0
VERTEX
  5
7ED
100
AcDbEntity
  8
_2
  6
CONTINUOUS
 62
     6
100
AcDbVertex
100
AcDb2dVertex
 10
775.752968
 20
2610.347489
 30
0.0
  0
VERTEX
  5
7EE
100
AcDbEntity
  8
_2
  6
CONTINUOUS
 62
     6
100
AcDbVertex
100
AcDb2dVertex
 10
775.964961
 20
2608.636137
 30
0.0
  0
VERTEX
  5
7EF
100
AcDbEntity
  8
_2
  6
CONTINUOUS
 62
     6
100
AcDbVertex
100
AcDb2dVertex
 10
776.016926
 20
2606.886634
 30
0.0
  0
VERTEX
  5
7F0
100
AcDbEntity
  8
_2
  6
CONTINUOUS
 62
     6
100
AcDbVertex
100
AcDb2dVertex
 10
775.914724
 20
2605.119671
 30
0.0
  0
VERTEX
  5
7F1
100
AcDbEntity
  8
_2
  6
CONTINUOUS
 62
     6
100
AcDbVertex
100
AcDb2dVertex
 10
775.664218
 20
2603.355938
 30
0.0
  0
VERTEX
  5
7F2
100
AcDbEntity
  8
_2
  6
CONTINUOUS
 62
     6
100
AcDbVertex
100
AcDb2dVertex
 10
775.27127
 20
2601.616124
 30
0.0
  0
VERTEX
  5
7F3
100
AcDbEntity
  8
_2
  6
CONTINUOUS
 62
     6
100
AcDbVertex
100
AcDb2dVertex
 10
774.741742
 20
2599.92092
 30
0.0
  0
VERTEX
  5
7F4
100
AcDbEntity
  8
_2
  6
CONTINUOUS
 62
     6
100
AcDbVertex
100
AcDb2dVertex
 10
774.081497
 20
2598.291015
 30
0.0
  0
VERTEX
  5
7F5
100
AcDbEntity
  8
_2
  6
CONTINUOUS
 62
     6
100
AcDbVertex
100
AcDb2dVertex
 10
773.296397
 20
2596.7471
 30
0.0
  0
VERTEX
  5
7F6
100
AcDbEntity
  8
_2
  6
CONTINUOUS
 62
     6
100
AcDbVertex
100
AcDb2dVertex
 10
772.392304
 20
2595.309865
 30
0.0
  0
VERTEX
  5
7F7
100
AcDbEntity
  8
_2
  6
CONTINUOUS
 62
     6
100
AcDbVertex
100
AcDb2dVertex
 10
771.375082
 20
2594.0
 30
0.0
  0
VERTEX
  5
7F8
100
AcDbEntity
  8
_2
  6
CONTINUOUS
 62
     6
100
AcDbVertex
100
AcDb2dVertex
 10
770.373301
 20
2592.951547
 30
0.0
  0
VERTEX
  5
7F9
100
AcDbEntity
  8
_2
  6
CONTINUOUS
 62
     6
100
AcDbVertex
100
AcDb2dVertex
 10
769.28452
 20
2592.02617
 30
0.0
  0
VERTEX
  5
7FA
100
AcDbEntity
  8
_2
  6
CONTINUOUS
 62
     6
100
AcDbVertex
100
AcDb2dVertex
 10
768.107557
 20
2591.228499
 30
0.0
  0
VERTEX
  5
7FB
100
AcDbEntity
  8
_2
  6
CONTINUOUS
 62
     6
100
AcDbVertex
100
AcDb2dVertex
 10
766.841225
 20
2590.563163
 30
0.0
  0
VERTEX
  5
7FC
100
AcDbEntity
  8
_2
  6
CONTINUOUS
 62
     6
100
AcDbVertex
100
AcDb2dVertex
 10
765.48434
 20
2590.03479
 30
0.0
  0
VERTEX
  5
7FD
100
AcDbEntity
  8
_2
  6
CONTINUOUS
 62
     6
100
AcDbVertex
100
AcDb2dVertex
 10
764.035718
 20
2589.64801
 30
0.0
  0
VERTEX
  5
7FE
100
AcDbEntity
  8
_2
  6
CONTINUOUS
 62
     6
100
AcDbVertex
100
AcDb2dVertex
 10
762.494174
 20
2589.40745
 30
0.0
  0
VERTEX
  5
7FF
100
AcDbEntity
  8
_2
  6
CONTINUOUS
 62
     6
100
AcDbVertex
100
AcDb2dVertex
 10
760.858523
 20
2589.31774
 30
0.0
  0
VERTEX
  5
800
100
AcDbEntity
  8
_2
  6
CONTINUOUS
 62
     6
100
AcDbVertex
100
AcDb2dVertex
 10
759.12758
 20
2589.38351
 30
0.0
  0
VERTEX
  5
801
100
AcDbEntity
  8
_2
  6
CONTINUOUS
 62
     6
100
AcDbVertex
100
AcDb2dVertex
 10
757.300162
 20
2589.609387
 30
0.0
  0
VERTEX
  5
802
100
AcDbEntity
  8
_2
  6
CONTINUOUS
 62
     6
100
AcDbVertex
100
AcDb2dVertex
 10
755.375082
 20
2590.0
 30
0.0
  0
VERTEX
  5
803
100
AcDbEntity
  8
_2
  6
CONTINUOUS
 62
     6
100
AcDbVertex
100
AcDb2dVertex
 10
754.263449
 20
2590.288421
 30
0.0
  0
VERTEX
  5
804
100
AcDbEntity
  8
_2
  6
CONTINUOUS
 62
     6
100
AcDbVertex
100
AcDb2dVertex
 10
753.144885
 20
2590.615507
 30
0.0
  0
VERTEX
  5
805
100
AcDbEntity
  8
_2
  6
CONTINUOUS
 62
     6
100
AcDbVertex
100
AcDb2dVertex
 10
752.043158
 20
2590.967323
 30
0.0
  0
VERTEX
  5
806
100
AcDbEntity
  8
_2
  6
CONTINUOUS
 62
     6
100
AcDbVertex
100
AcDb2dVertex
 10
750.982035
 20
2591.329934
 30
0.0
  0
VERTEX
  5
807
100
AcDbEntity
  8
_2
  6
CONTINUOUS
 62
     6
100
AcDbVertex
100
AcDb2dVertex
 10
749.985283
 20
2591.689406
 30
0.0
  0
VERTEX
  5
808
100
AcDbEntity
  8
_2
  6
CONTINUOUS
 62
     6
100
AcDbVertex
100
AcDb2dVertex
 10
749.07667
 20
2592.031805
 30
0.0
  0
VERTEX
  5
809
100
AcDbEntity
  8
_2
  6
CONTINUOUS
 62
     6
100
AcDbVertex
100
AcDb2dVertex
 10
748.279963
 20
2592.343197
 30
0.0
  0
VERTEX
  5
80A
100
AcDbEntity
  8
_2
  6
CONTINUOUS
 62
     6
100
AcDbVertex
100
AcDb2dVertex
 10
747.618929
 20
2592.609647
 30
0.0
  0
VERTEX
  5
80B
100
AcDbEntity
  8
_2
  6
CONTINUOUS
 62
     6
100
AcDbVertex
100
AcDb2dVertex
 10
747.117336
 20
2592.81722
 30
0.0
  0
VERTEX
  5
80C
100
AcDbEntity
  8
_2
  6
CONTINUOUS
 62
     6
100
AcDbVertex
100
AcDb2dVertex
 10
746.798951
 20
2592.951983
 30
0.0
  0
VERTEX
  5
80D
100
AcDbEntity
  8
_2
  6
CONTINUOUS
 62
     6
100
AcDbVertex
100
AcDb2dVertex
 10
746.687541
 20
2593.0
 30
0.0
  0
SEQEND
  5
80E
100
AcDbEntity
  8
_2
  6
CONTINUOUS
 62
     6
  0
TEXT
  5
80F
100
AcDbEntity
  8
_2
  6
CONTINUOUS
 62
     6
100
AcDbText
 10
1678.924316
 20
2208.089661
 30
0.0
 40
17.5
  1
２
 41
0.96
  7
EXCADSTD
 72
     5
 11
1694.924316
 21
2208.089661
 31
0.0
100
AcDbText
  0
TEXT
  5
810
100
AcDbEntity
  8
_2
  6
CONTINUOUS
 62
     6
100
AcDbText
 10
1917.037384
 20
2158.169922
 30
0.0
 40
17.5
  1
２
 41
0.96
  7
EXCADSTD
 72
     5
 11
1933.037384
 21
2158.169922
 31
0.0
100
AcDbText
  0
TEXT
  5
811
100
AcDbEntity
  8
_2
  6
CONTINUOUS
 62
     2
100
AcDbText
 10
1238.391876
 20
2177.240204
 30
0.0
 40
45.0
  1
　　｛０．７Ｋｇｆ／ｃｍ｝（最高水圧　
 41
0.717193
  7
EXCADSTD
 72
     5
 11
1968.391856
 21
2177.240204
 31
0.0
100
AcDbText
  0
TEXT
  5
812
100
AcDbEntity
  8
_2
  6
CONTINUOUS
 62
     2
100
AcDbText
 10
1238.391876
 20
2127.240204
 30
0.0
 40
45.0
  1
　　０．６９ＭＰａ｛７．０Ｋｇｆ／ｃｍ｝
 41
0.690667
  7
EXCADSTD
 72
     5
 11
1978.391907
 21
2127.240204
 31
0.0
100
AcDbText
  0
TEXT
  5
813
100
AcDbEntity
  8
_2
  6
CONTINUOUS
 62
     2
100
AcDbText
 10
1238.391876
 20
2077.240204
 30
0.0
 40
45.0
  1
　　）確保してください。
 41
0.721778
  7
EXCADSTD
 72
     5
 11
1702.391863
 21
2077.240204
 31
0.0
100
AcDbText
  0
TEXT
  5
814
100
AcDbEntity
  8
_2
  6
CONTINUOUS
 62
     2
100
AcDbText
 10
1238.391876
 20
2227.240204
 30
0.0
 40
45.0
  1
注：給水には最低必要水圧０．０７ＭＰａ
 41
0.717193
  7
EXCADSTD
 72
     5
 11
1968.391856
 21
2227.240204
 31
0.0
100
AcDbText
  0
LINE
  5
815
100
AcDbEntity
  8
_3
  6
CONTINUOUS
 62
     6
100
AcDbLine
 10
1642.945557
 20
1529.004273
 30
0.0
 11
1698.628693
 21
1529.004273
 31
0.0
  0
LINE
  5
816
100
AcDbEntity
  8
_3
  6
CONTINUOUS
 62
     6
100
AcDbLine
 10
1708.628693
 20
1529.004273
 30
0.0
 11
1716.628723
 21
1529.004273
 31
0.0
  0
LINE
  5
817
100
AcDbEntity
  8
_3
  6
CONTINUOUS
 62
     6
100
AcDbLine
 10
1726.628723
 20
1529.004273
 30
0.0
 11
1776.354981
 21
1529.004273
 31
0.0
  0
LINE
  5
818
100
AcDbEntity
  8
_3
  6
CONTINUOUS
 62
     6
100
AcDbLine
 10
1782.31842
 20
1587.898163
 30
0.0
 11
1899.0
 21
1587.898163
 31
0.0
  0
TEXT
  5
819
100
AcDbEntity
  8
_3
  6
CONTINUOUS
 62
     2
100
AcDbText
 10
1775.636841
 20
1591.398224
 30
0.0
 40
40.0
  1
ＰＪ
 41
0.861
  7
EXCADSTD
 72
     5
 11
1850.798041
 21
1591.398224
 31
0.0
100
AcDbText
  0
TEXT
  5
81A
100
AcDbEntity
  8
_3
  6
CONTINUOUS
 62
     2
100
AcDbText
 10
1875.946472
 20
1591.679749
 30
0.0
 40
25.0
  1
２
 41
0.9912
  7
EXCADSTD
 72
     5
 11
1899.546473
 21
1591.679749
 31
0.0
100
AcDbText
  0
TEXT
  5
81B
100
AcDbEntity
  8
_3
  6
CONTINUOUS
 62
     6
100
AcDbText
 10
1849.845856
 20
1591.398224
 30
0.0
 40
40.0
  1
／ 
 41
0.9912
  7
EXCADSTD
 72
     5
 11
1887.605854
 21
1591.398224
 31
0.0
100
AcDbText
  0
TEXT
  5
81C
100
AcDbEntity
  8
_3
  6
CONTINUOUS
 62
     2
100
AcDbText
 10
1842.183044
 20
1606.8685
 30
0.0
 40
25.0
  1
１
 41
0.9912
  7
EXCADSTD
 72
     5
 11
1865.783045
 21
1606.8685
 31
0.0
100
AcDbText
  0
LINE
  5
81D
100
AcDbEntity
  8
_3
  6
CONTINUOUS
 62
     6
100
AcDbLine
 10
613.996277
 20
1529.0
 30
0.0
 11
636.810455
 21
1529.0
 31
0.0
  0
LINE
  5
81E
100
AcDbEntity
  8
_3
  6
CONTINUOUS
 62
     6
100
AcDbLine
 10
646.810455
 20
1529.0
 30
0.0
 11
654.810333
 21
1529.0
 31
0.0
  0
LINE
  5
81F
100
AcDbEntity
  8
_3
  6
CONTINUOUS
 62
     6
100
AcDbLine
 10
662.529939
 20
2024.5
 30
0.0
 11
639.09085
 21
2024.5
 31
0.0
  0
LINE
  5
820
100
AcDbEntity
  8
_3
  6
CONTINUOUS
 62
     6
100
AcDbLine
 10
662.529939
 20
2012.5
 30
0.0
 11
639.09085
 21
2012.5
 31
0.0
  0
LINE
  5
821
100
AcDbEntity
  8
_3
  6
CONTINUOUS
 62
     6
100
AcDbLine
 10
659.810394
 20
2007.0
 30
0.0
 11
641.810394
 21
2007.0
 31
0.0
  0
LINE
  5
822
100
AcDbEntity
  8
_3
  6
CONTINUOUS
 62
     6
100
AcDbLine
 10
660.310394
 20
2007.5
 30
0.0
 11
660.310394
 21
2012.5
 31
0.0
  0
LINE
  5
823
100
AcDbEntity
  8
_3
  6
CONTINUOUS
 62
     6
100
AcDbLine
 10
641.310394
 20
2007.5
 30
0.0
 11
641.310394
 21
2012.5
 31
0.0
  0
ARC
  5
824
100
AcDbEntity
  8
_3
  6
CONTINUOUS
 62
     6
100
AcDbCircle
 10
659.810394
 20
2007.5
 30
0.0
 40
0.5
100
AcDbArc
 50
270.0
 51
0.0
  0
ARC
  5
825
100
AcDbEntity
  8
_3
  6
CONTINUOUS
 62
     6
100
AcDbCircle
 10
641.810394
 20
2007.5
 30
0.0
 40
0.5
100
AcDbArc
 50
180.0
 51
270.0
  0
LINE
  5
826
100
AcDbEntity
  8
_3
  6
CONTINUOUS
 62
     6
100
AcDbLine
 10
638.310394
 20
2013.917424
 30
0.0
 11
638.310394
 21
2023.082576
 31
0.0
  0
LINE
  5
827
100
AcDbEntity
  8
_3
  6
CONTINUOUS
 62
     6
100
AcDbLine
 10
663.310394
 20
2013.917424
 30
0.0
 11
663.310394
 21
2023.082576
 31
0.0
  0
ARC
  5
828
100
AcDbEntity
  8
_3
  6
CONTINUOUS
 62
     6
100
AcDbCircle
 10
648.310394
 20
2018.5
 30
0.0
 40
11.0
100
AcDbArc
 50
146.944269
 51
155.380023
  0
ARC
  5
829
100
AcDbEntity
  8
_3
  6
CONTINUOUS
 62
     6
100
AcDbCircle
 10
648.310394
 20
2018.5
 30
0.0
 40
11.0
100
AcDbArc
 50
204.619977
 51
213.055731
  0
ARC
  5
82A
100
AcDbEntity
  8
_3
  6
CONTINUOUS
 62
     6
100
AcDbCircle
 10
653.310394
 20
2018.5
 30
0.0
 40
11.0
100
AcDbArc
 50
326.944269
 51
335.380023
  0
ARC
  5
82B
100
AcDbEntity
  8
_3
  6
CONTINUOUS
 62
     6
100
AcDbCircle
 10
653.310394
 20
2018.5
 30
0.0
 40
11.0
100
AcDbArc
 50
24.619977
 51
33.055731
  0
ELLIPSE
  5
82C
100
AcDbEntity
  8
_3
  6
CONTINUOUS
 62
     6
100
AcDbEllipse
 10
657.060394
 20
2018.5
 30
0.0
 11
-0.0000000000000008
 21
-4.5825756949560024
 31
0.0
210
0.0
220
0.0
230
1.0
 40
0.963624
 41
0.0
 42
6.2831853071796004
  0
ELLIPSE
  5
82D
100
AcDbEntity
  8
_3
  6
CONTINUOUS
 62
     6
100
AcDbEllipse
 10
644.560394
 20
2018.5
 30
0.0
 11
0.0000000000000003
 21
4.5825756949560024
 31
0.0
210
0.0
220
0.0
230
1.0
 40
0.963624
 41
0.0
 42
6.2831853071796004
  0
CIRCLE
  5
82E
100
AcDbEntity
  8
_3
  6
CONTINUOUS
 62
     6
100
AcDbCircle
 10
650.810394
 20
2055.0
 30
0.0
 40
25.0
  0
CIRCLE
  5
82F
100
AcDbEntity
  8
_3
  6
CONTINUOUS
 62
     6
100
AcDbCircle
 10
650.810394
 20
2055.0
 30
0.0
 40
9.5
  0
LINE
  5
830
100
AcDbEntity
  8
_3
  6
CONTINUOUS
 62
     6
100
AcDbLine
 10
659.310394
 20
2059.242641
 30
0.0
 11
659.310394
 21
2050.757359
 31
0.0
  0
LINE
  5
831
100
AcDbEntity
  8
_3
  6
CONTINUOUS
 62
     6
100
AcDbLine
 10
651.38616
 20
2064.482536
 30
0.0
 11
658.734629
 21
2060.239896
 31
0.0
  0
LINE
  5
832
100
AcDbEntity
  8
_3
  6
CONTINUOUS
 62
     6
100
AcDbLine
 10
642.88616
 20
2060.239896
 30
0.0
 11
650.234629
 21
2064.482536
 31
0.0
  0
LINE
  5
833
100
AcDbEntity
  8
_3
  6
CONTINUOUS
 62
     6
100
AcDbLine
 10
642.310394
 20
2050.757359
 30
0.0
 11
642.310394
 21
2059.242641
 31
0.0
  0
LINE
  5
834
100
AcDbEntity
  8
_3
  6
CONTINUOUS
 62
     6
100
AcDbLine
 10
650.234629
 20
2045.517464
 30
0.0
 11
642.88616
 21
2049.760104
 31
0.0
  0
LINE
  5
835
100
AcDbEntity
  8
_3
  6
CONTINUOUS
 62
     6
100
AcDbLine
 10
658.734629
 20
2049.760104
 30
0.0
 11
651.38616
 21
2045.517464
 31
0.0
  0
LINE
  5
836
100
AcDbEntity
  8
_3
  6
CONTINUOUS
 62
     6
100
AcDbLine
 10
645.911415
 20
2056.0
 30
0.0
 11
655.709374
 21
2056.0
 31
0.0
  0
LINE
  5
837
100
AcDbEntity
  8
_3
  6
CONTINUOUS
 62
     6
100
AcDbLine
 10
645.911415
 20
2054.0
 30
0.0
 11
655.709374
 21
2054.0
 31
0.0
  0
CIRCLE
  5
838
100
AcDbEntity
  8
_3
  6
CONTINUOUS
 62
     6
100
AcDbCircle
 10
650.810394
 20
2055.0
 30
0.0
 40
5.0
  0
CIRCLE
  5
839
100
AcDbEntity
  8
_3
  6
CONTINUOUS
 62
     6
100
AcDbCircle
 10
650.810394
 20
2104.0
 30
0.0
 40
4.9
  0
LINE
  5
83A
100
AcDbEntity
  8
_3
  6
CONTINUOUS
 62
     6
100
AcDbLine
 10
646.01352
 20
2105.0
 30
0.0
 11
655.607268
 21
2105.0
 31
0.0
  0
LINE
  5
83B
100
AcDbEntity
  8
_3
  6
CONTINUOUS
 62
     6
100
AcDbLine
 10
646.01352
 20
2103.0
 30
0.0
 11
655.607268
 21
2103.0
 31
0.0
  0
CIRCLE
  5
83C
100
AcDbEntity
  8
_3
  6
CONTINUOUS
 62
     6
100
AcDbCircle
 10
650.810394
 20
2104.0
 30
0.0
 40
11.0
  0
LINE
  5
83D
100
AcDbEntity
  8
_3
  6
CONTINUOUS
 62
     6
100
AcDbLine
 10
660.810394
 20
2108.582576
 30
0.0
 11
660.810394
 21
2099.417424
 31
0.0
  0
LINE
  5
83E
100
AcDbEntity
  8
_3
  6
CONTINUOUS
 62
     6
100
AcDbLine
 10
651.841767
 20
2114.951542
 30
0.0
 11
659.779021
 21
2110.368966
 31
0.0
  0
LINE
  5
83F
100
AcDbEntity
  8
_3
  6
CONTINUOUS
 62
     6
100
AcDbLine
 10
641.841767
 20
2110.368966
 30
0.0
 11
649.779021
 21
2114.951542
 31
0.0
  0
LINE
  5
840
100
AcDbEntity
  8
_3
  6
CONTINUOUS
 62
     6
100
AcDbLine
 10
640.810394
 20
2099.417424
 30
0.0
 11
640.810394
 21
2108.582576
 31
0.0
  0
LINE
  5
841
100
AcDbEntity
  8
_3
  6
CONTINUOUS
 62
     6
100
AcDbLine
 10
649.779021
 20
2093.048458
 30
0.0
 11
641.841767
 21
2097.631034
 31
0.0
  0
LINE
  5
842
100
AcDbEntity
  8
_3
  6
CONTINUOUS
 62
     6
100
AcDbLine
 10
659.779021
 20
2097.631034
 30
0.0
 11
651.841767
 21
2093.048458
 31
0.0
  0
CIRCLE
  5
843
100
AcDbEntity
  8
_3
  6
CONTINUOUS
 62
     6
100
AcDbCircle
 10
650.810394
 20
2104.0
 30
0.0
 40
7.0
  0
LINE
  5
844
100
AcDbEntity
  8
_3
  6
CONTINUOUS
 62
     6
100
AcDbLine
 10
663.810394
 20
2125.0
 30
0.0
 11
673.810394
 21
2133.0
 31
0.0
  0
LINE
  5
845
100
AcDbEntity
  8
_3
  6
CONTINUOUS
 62
     6
100
AcDbLine
 10
637.810394
 20
2125.0
 30
0.0
 11
627.810394
 21
2133.0
 31
0.0
  0
LINE
  5
846
100
AcDbEntity
  8
_3
  6
CONTINUOUS
 62
     6
100
AcDbLine
 10
663.810394
 20
2125.0
 30
0.0
 11
637.810394
 21
2125.0
 31
0.0
  0
LINE
  5
847
100
AcDbEntity
  8
_3
  6
CONTINUOUS
 62
     6
100
AcDbLine
 10
627.810394
 20
2133.0
 30
0.0
 11
673.810394
 21
2133.0
 31
0.0
  0
LINE
  5
848
100
AcDbEntity
  8
_3
  6
CONTINUOUS
 62
     6
100
AcDbLine
 10
627.810394
 20
2135.0
 30
0.0
 11
627.810394
 21
2133.0
 31
0.0
  0
LINE
  5
849
100
AcDbEntity
  8
_3
  6
CONTINUOUS
 62
     6
100
AcDbLine
 10
673.810394
 20
2135.0
 30
0.0
 11
673.810394
 21
2133.0
 31
0.0
  0
LINE
  5
84A
100
AcDbEntity
  8
_3
  6
CONTINUOUS
 62
     6
100
AcDbLine
 10
659.560394
 20
2149.0
 30
0.0
 11
642.060394
 21
2149.0
 31
0.0
  0
LINE
  5
84B
100
AcDbEntity
  8
_3
  6
CONTINUOUS
 62
     6
100
AcDbLine
 10
659.560394
 20
2149.0
 30
0.0
 11
661.310394
 21
2147.25
 31
0.0
  0
LINE
  5
84C
100
AcDbEntity
  8
_3
  6
CONTINUOUS
 62
     6
100
AcDbLine
 10
642.060394
 20
2149.0
 30
0.0
 11
640.310394
 21
2147.25
 31
0.0
  0
LINE
  5
84D
100
AcDbEntity
  8
_3
  6
CONTINUOUS
 62
     6
100
AcDbLine
 10
660.110394
 20
2122.0
 30
0.0
 11
661.310394
 21
2119.921539
 31
0.0
  0
LINE
  5
84E
100
AcDbEntity
  8
_3
  6
CONTINUOUS
 62
     6
100
AcDbLine
 10
641.510394
 20
2122.0
 30
0.0
 11
640.310394
 21
2119.921539
 31
0.0
  0
LINE
  5
84F
100
AcDbEntity
  8
_3
  6
CONTINUOUS
 62
     6
100
AcDbLine
 10
661.310394
 20
2147.25
 30
0.0
 11
640.310394
 21
2147.25
 31
0.0
  0
LINE
  5
850
100
AcDbEntity
  8
_3
  6
CONTINUOUS
 62
     6
100
AcDbLine
 10
661.310394
 20
2122.0
 30
0.0
 11
640.310394
 21
2122.0
 31
0.0
  0
LINE
  5
851
100
AcDbEntity
  8
_3
  6
CONTINUOUS
 62
     6
100
AcDbLine
 10
661.310394
 20
2147.25
 30
0.0
 11
661.310394
 21
2135.0
 31
0.0
  0
LINE
  5
852
100
AcDbEntity
  8
_3
  6
CONTINUOUS
 62
     6
100
AcDbLine
 10
661.310394
 20
2125.0
 30
0.0
 11
661.310394
 21
2119.921539
 31
0.0
  0
LINE
  5
853
100
AcDbEntity
  8
_3
  6
CONTINUOUS
 62
     6
100
AcDbLine
 10
660.110394
 20
2148.45
 30
0.0
 11
660.110394
 21
2135.0
 31
0.0
  0
LINE
  5
854
100
AcDbEntity
  8
_3
  6
CONTINUOUS
 62
     6
100
AcDbLine
 10
660.110394
 20
2125.0
 30
0.0
 11
660.110394
 21
2122.0
 31
0.0
  0
LINE
  5
855
100
AcDbEntity
  8
_3
  6
CONTINUOUS
 62
     6
100
AcDbLine
 10
641.510394
 20
2148.45
 30
0.0
 11
641.510394
 21
2135.0
 31
0.0
  0
LINE
  5
856
100
AcDbEntity
  8
_3
  6
CONTINUOUS
 62
     6
100
AcDbLine
 10
641.510394
 20
2125.0
 30
0.0
 11
641.510394
 21
2122.0
 31
0.0
  0
LINE
  5
857
100
AcDbEntity
  8
_3
  6
CONTINUOUS
 62
     6
100
AcDbLine
 10
640.310394
 20
2147.25
 30
0.0
 11
640.310394
 21
2135.0
 31
0.0
  0
LINE
  5
858
100
AcDbEntity
  8
_3
  6
CONTINUOUS
 62
     6
100
AcDbLine
 10
640.310394
 20
2125.0
 30
0.0
 11
640.310394
 21
2119.921539
 31
0.0
  0
LINE
  5
859
100
AcDbEntity
  8
_3
  6
CONTINUOUS
 62
     6
100
AcDbLine
 10
661.810394
 20
2032.550056
 30
0.0
 11
661.810394
 21
2024.5
 31
0.0
  0
LINE
  5
85A
100
AcDbEntity
  8
_3
  6
CONTINUOUS
 62
     6
100
AcDbLine
 10
660.997394
 20
2025.5
 30
0.0
 11
660.997394
 21
2024.5
 31
0.0
  0
LINE
  5
85B
100
AcDbEntity
  8
_3
  6
CONTINUOUS
 62
     6
100
AcDbLine
 10
640.623394
 20
2025.5
 30
0.0
 11
640.623394
 21
2024.5
 31
0.0
  0
LINE
  5
85C
100
AcDbEntity
  8
_3
  6
CONTINUOUS
 62
     6
100
AcDbLine
 10
640.623394
 20
2025.5
 30
0.0
 11
639.810394
 21
2026.908157
 31
0.0
  0
LINE
  5
85D
100
AcDbEntity
  8
_3
  6
CONTINUOUS
 62
     6
100
AcDbLine
 10
660.997394
 20
2025.5
 30
0.0
 11
661.859649
 21
2026.993468
 31
0.0
  0
LINE
  5
85E
100
AcDbEntity
  8
_3
  6
CONTINUOUS
 62
     6
100
AcDbLine
 10
661.810394
 20
2025.5
 30
0.0
 11
639.810394
 21
2025.5
 31
0.0
  0
LINE
  5
85F
100
AcDbEntity
  8
_3
  6
CONTINUOUS
 62
     6
100
AcDbLine
 10
639.810394
 20
2032.550056
 30
0.0
 11
639.810394
 21
2024.5
 31
0.0
  0
LINE
  5
860
100
AcDbEntity
  8
_3
  6
CONTINUOUS
 62
     6
100
AcDbLine
 10
658.210394
 20
2001.0
 30
0.0
 11
658.210394
 21
2007.0
 31
0.0
  0
LINE
  5
861
100
AcDbEntity
  8
_3
  6
CONTINUOUS
 62
     6
100
AcDbLine
 10
643.410394
 20
2001.0
 30
0.0
 11
643.410394
 21
2007.0
 31
0.0
  0
LINE
  5
862
100
AcDbEntity
  8
_3
  6
CONTINUOUS
 62
     6
100
AcDbLine
 10
663.810394
 20
2001.0
 30
0.0
 11
637.810394
 21
2001.0
 31
0.0
  0
LINE
  5
863
100
AcDbEntity
  8
_3
  6
CONTINUOUS
 62
     6
100
AcDbLine
 10
663.810394
 20
1999.795707
 30
0.0
 11
663.810394
 21
2001.0
 31
0.0
  0
LINE
  5
864
100
AcDbEntity
  8
_3
  6
CONTINUOUS
 62
     6
100
AcDbLine
 10
637.810394
 20
1999.795707
 30
0.0
 11
637.810394
 21
2001.0
 31
0.0
  0
ARC
  5
865
100
AcDbEntity
  8
_3
  6
CONTINUOUS
 62
     6
100
AcDbCircle
 10
650.810394
 20
2082.5
 30
0.0
 40
85.0
100
AcDbArc
 50
262.083803
 51
277.916197
  0
ARC
  5
866
100
AcDbEntity
  8
_3
  6
CONTINUOUS
 62
     6
100
AcDbCircle
 10
662.310394
 20
1999.795707
 30
0.0
 40
1.5
100
AcDbArc
 50
277.916197
 51
0.0
  0
ARC
  5
867
100
AcDbEntity
  8
_3
  6
CONTINUOUS
 62
     6
100
AcDbCircle
 10
639.310394
 20
1999.795707
 30
0.0
 40
1.5
100
AcDbArc
 50
180.0
 51
262.083803
  0
ARC
  5
868
100
AcDbEntity
  8
_3
  6
CONTINUOUS
 62
     6
100
AcDbCircle
 10
650.810394
 20
2104.0
 30
0.0
 40
13.0
100
AcDbArc
 50
0.0
 51
180.0
  0
ARC
  5
869
100
AcDbEntity
  8
_3
  6
CONTINUOUS
 62
     6
100
AcDbCircle
 10
703.810394
 20
2092.629775
 30
0.0
 40
40.0
100
AcDbArc
 50
180.0
 51
215.37459
  0
ARC
  5
86A
100
AcDbEntity
  8
_3
  6
CONTINUOUS
 62
     6
100
AcDbCircle
 10
597.810394
 20
2092.629775
 30
0.0
 40
40.0
100
AcDbArc
 50
324.62541
 51
0.0
  0
ARC
  5
86B
100
AcDbEntity
  8
_3
  6
CONTINUOUS
 62
     6
100
AcDbCircle
 10
694.810394
 20
2103.225731
 30
0.0
 40
57.0
100
AcDbArc
 50
162.967811
 51
180.0
  0
ARC
  5
86C
100
AcDbEntity
  8
_3
  6
CONTINUOUS
 62
     6
100
AcDbCircle
 10
606.810394
 20
2103.225731
 30
0.0
 40
57.0
100
AcDbArc
 50
0.0
 51
17.032189
  0
LINE
  5
86D
100
AcDbEntity
  8
_3
  6
CONTINUOUS
 62
     6
100
AcDbLine
 10
663.810394
 20
2103.225731
 30
0.0
 11
663.810394
 21
2092.629775
 31
0.0
  0
LINE
  5
86E
100
AcDbEntity
  8
_3
  6
CONTINUOUS
 62
     6
100
AcDbLine
 10
637.810394
 20
2103.225731
 30
0.0
 11
637.810394
 21
2092.629775
 31
0.0
  0
CIRCLE
  5
86F
100
AcDbEntity
  8
_3
  6
CONTINUOUS
 62
     6
100
AcDbCircle
 10
650.810394
 20
1503.0
 30
0.0
 40
13.0
  0
LINE
  5
870
100
AcDbEntity
  8
_3
  6
CONTINUOUS
 62
     6
100
AcDbLine
 10
625.810394
 20
1550.0
 30
0.0
 11
675.810394
 21
1550.0
 31
0.0
  0
LINE
  5
871
100
AcDbEntity
  8
_3
  6
CONTINUOUS
 62
     6
100
AcDbLine
 10
643.310394
 20
1575.5
 30
0.0
 11
658.310394
 21
1575.5
 31
0.0
  0
LINE
  5
872
100
AcDbEntity
  8
_3
  6
CONTINUOUS
 62
     6
100
AcDbLine
 10
625.810394
 20
1556.672266
 30
0.0
 11
625.810394
 21
1516.899799
 31
0.0
  0
LINE
  5
873
100
AcDbEntity
  8
_3
  6
CONTINUOUS
 62
     6
100
AcDbLine
 10
641.310394
 20
1566.5
 30
0.0
 11
641.310394
 21
1563.902851
 31
0.0
  0
LINE
  5
874
100
AcDbEntity
  8
_3
  6
CONTINUOUS
 62
     6
100
AcDbLine
 10
660.310394
 20
1566.5
 30
0.0
 11
660.310394
 21
1563.902851
 31
0.0
  0
ARC
  5
875
100
AcDbEntity
  8
_3
  6
CONTINUOUS
 62
     6
100
AcDbCircle
 10
628.810394
 20
1556.672266
 30
0.0
 40
3.0
100
AcDbArc
 50
99.240792
 51
180.0
  0
ARC
  5
876
100
AcDbEntity
  8
_3
  6
CONTINUOUS
 62
     6
100
AcDbCircle
 10
638.310394
 20
1563.902851
 30
0.0
 40
3.0
100
AcDbArc
 50
275.014772
 51
0.0
  0
ARC
  5
877
100
AcDbEntity
  8
_3
  6
CONTINUOUS
 62
     6
100
AcDbCircle
 10
663.310394
 20
1563.902851
 30
0.0
 40
3.0
100
AcDbArc
 50
180.0
 51
264.985228
  0
ARC
  5
878
100
AcDbEntity
  8
_3
  6
CONTINUOUS
 62
     6
100
AcDbCircle
 10
672.810394
 20
1556.672266
 30
0.0
 40
3.0
100
AcDbArc
 50
0.0
 51
80.759208
  0
ARC
  5
879
100
AcDbEntity
  8
_3
  6
CONTINUOUS
 62
     6
100
AcDbCircle
 10
650.810394
 20
1421.450227
 30
0.0
 40
140.0
100
AcDbArc
 50
80.759208
 51
84.985228
  0
ARC
  5
87A
100
AcDbEntity
  8
_3
  6
CONTINUOUS
 62
     6
100
AcDbCircle
 10
650.810394
 20
1421.450227
 30
0.0
 40
140.0
100
AcDbArc
 50
95.014772
 51
99.240792
  0
LINE
  5
87B
100
AcDbEntity
  8
_3
  6
CONTINUOUS
 62
     6
100
AcDbLine
 10
640.572632
 20
1560.914334
 30
0.0
 11
661.048157
 21
1560.914334
 31
0.0
  0
ARC
  5
87C
100
AcDbEntity
  8
_3
  6
CONTINUOUS
 62
     6
100
AcDbCircle
 10
643.310394
 20
1573.5
 30
0.0
 40
2.0
100
AcDbArc
 50
90.0
 51
120.0
  0
ARC
  5
87D
100
AcDbEntity
  8
_3
  6
CONTINUOUS
 62
     6
100
AcDbCircle
 10
658.310394
 20
1573.5
 30
0.0
 40
2.0
100
AcDbArc
 50
60.0
 51
90.0
  0
LINE
  5
87E
100
AcDbEntity
  8
_3
  6
CONTINUOUS
 62
     6
100
AcDbLine
 10
675.810394
 20
1556.672266
 30
0.0
 11
675.810394
 21
1516.899799
 31
0.0
  0
LINE
  5
87F
100
AcDbEntity
  8
_3
  6
CONTINUOUS
 62
     6
100
AcDbLine
 10
662.810394
 20
1489.4
 30
0.0
 11
662.810394
 21
1484.0
 31
0.0
  0
LINE
  5
880
100
AcDbEntity
  8
_3
  6
CONTINUOUS
 62
     6
100
AcDbLine
 10
639.623394
 20
1486.0
 30
0.0
 11
639.623394
 21
1484.0
 31
0.0
  0
LINE
  5
881
100
AcDbEntity
  8
_3
  6
CONTINUOUS
 62
     6
100
AcDbLine
 10
661.997394
 20
1486.0
 30
0.0
 11
661.997394
 21
1484.0
 31
0.0
  0
LINE
  5
882
100
AcDbEntity
  8
_3
  6
CONTINUOUS
 62
     6
100
AcDbLine
 10
661.997394
 20
1486.0
 30
0.0
 11
662.810394
 21
1487.408157
 31
0.0
  0
LINE
  5
883
100
AcDbEntity
  8
_3
  6
CONTINUOUS
 62
     6
100
AcDbLine
 10
639.623394
 20
1486.0
 30
0.0
 11
638.810394
 21
1487.408157
 31
0.0
  0
LINE
  5
884
100
AcDbEntity
  8
_3
  6
CONTINUOUS
 62
     6
100
AcDbLine
 10
638.810394
 20
1486.0
 30
0.0
 11
662.810394
 21
1486.0
 31
0.0
  0
ARC
  5
885
100
AcDbEntity
  8
_3
  6
CONTINUOUS
 62
     6
100
AcDbCircle
 10
665.410394
 20
1489.4
 30
0.0
 40
2.6
100
AcDbArc
 50
90.0
 51
180.0
  0
LINE
  5
886
100
AcDbEntity
  8
_3
  6
CONTINUOUS
 62
     6
100
AcDbLine
 10
638.09085
 20
1484.0
 30
0.0
 11
663.529939
 21
1484.0
 31
0.0
  0
LINE
  5
887
100
AcDbEntity
  8
_3
  6
CONTINUOUS
 62
     6
100
AcDbLine
 10
638.09085
 20
1472.0
 30
0.0
 11
663.529939
 21
1472.0
 31
0.0
  0
ARC
  5
888
100
AcDbEntity
  8
_3
  6
CONTINUOUS
 62
     6
100
AcDbCircle
 10
661.810394
 20
1516.899799
 30
0.0
 40
36.0
100
AcDbArc
 50
180.0
 51
223.761743
  0
ARC
  5
889
100
AcDbEntity
  8
_3
  6
CONTINUOUS
 62
     6
100
AcDbCircle
 10
639.810394
 20
1516.899799
 30
0.0
 40
36.0
100
AcDbArc
 50
316.238257
 51
0.0
  0
LINE
  5
88A
100
AcDbEntity
  8
_3
  6
CONTINUOUS
 62
     6
100
AcDbLine
 10
638.810394
 20
1489.4
 30
0.0
 11
638.810394
 21
1484.0
 31
0.0
  0
ARC
  5
88B
100
AcDbEntity
  8
_3
  6
CONTINUOUS
 62
     6
100
AcDbCircle
 10
636.210394
 20
1489.4
 30
0.0
 40
2.6
100
AcDbArc
 50
0.0
 51
90.0
  0
LINE
  5
88C
100
AcDbEntity
  8
_3
  6
CONTINUOUS
 62
     6
100
AcDbLine
 10
635.810394
 20
1492.0
 30
0.0
 11
643.882191
 21
1492.0
 31
0.0
  0
LINE
  5
88D
100
AcDbEntity
  8
_3
  6
CONTINUOUS
 62
     6
100
AcDbLine
 10
657.738598
 20
1492.0
 30
0.0
 11
665.410394
 21
1492.0
 31
0.0
  0
ARC
  5
88E
100
AcDbEntity
  8
_3
  6
CONTINUOUS
 62
     6
100
AcDbCircle
 10
647.310394
 20
1478.0
 30
0.0
 40
11.0
100
AcDbArc
 50
146.944269
 51
152.419801
  0
ARC
  5
88F
100
AcDbEntity
  8
_3
  6
CONTINUOUS
 62
     6
100
AcDbCircle
 10
647.310394
 20
1478.0
 30
0.0
 40
11.0
100
AcDbArc
 50
207.580199
 51
213.055731
  0
ARC
  5
890
100
AcDbEntity
  8
_3
  6
CONTINUOUS
 62
     6
100
AcDbCircle
 10
654.310394
 20
1478.0
 30
0.0
 40
11.0
100
AcDbArc
 50
326.944269
 51
332.419801
  0
ARC
  5
891
100
AcDbEntity
  8
_3
  6
CONTINUOUS
 62
     6
100
AcDbCircle
 10
654.310394
 20
1478.0
 30
0.0
 40
11.0
100
AcDbArc
 50
27.580199
 51
33.055731
  0
LINE
  5
892
100
AcDbEntity
  8
_3
  6
CONTINUOUS
 62
     6
100
AcDbLine
 10
637.560394
 20
1483.092887
 30
0.0
 11
637.560394
 21
1472.907113
 31
0.0
  0
LINE
  5
893
100
AcDbEntity
  8
_3
  6
CONTINUOUS
 62
     6
100
AcDbLine
 10
664.060394
 20
1483.092887
 30
0.0
 11
664.060394
 21
1472.907113
 31
0.0
  0
ELLIPSE
  5
894
100
AcDbEntity
  8
_3
  6
CONTINUOUS
 62
     6
100
AcDbEllipse
 10
644.185394
 20
1478.0
 30
0.0
 11
5.100551440776
 21
0.0000000000000033
 31
0.0
210
0.0
220
0.0
230
1.0
 40
0.998497
 41
0.0
 42
6.2831853071796004
  0
ELLIPSE
  5
895
100
AcDbEntity
  8
_3
  6
CONTINUOUS
 62
     6
100
AcDbEllipse
 10
657.435394
 20
1478.0
 30
0.0
 11
5.100551440776
 21
0.0000000000000033
 31
0.0
210
0.0
220
0.0
230
1.0
 40
0.998497
 41
0.0
 42
6.2831853071796004
  0
LINE
  5
896
100
AcDbEntity
  8
_3
  6
CONTINUOUS
 62
     6
100
AcDbLine
 10
642.870394
 20
1472.0
 30
0.0
 11
642.870394
 21
1380.999969
 31
0.0
  0
LINE
  5
897
100
AcDbEntity
  8
_3
  6
CONTINUOUS
 62
     6
100
AcDbLine
 10
658.750394
 20
1472.0
 30
0.0
 11
658.750394
 21
1380.999969
 31
0.0
  0
ARC
  5
898
100
AcDbEntity
  8
_3
  6
CONTINUOUS
 62
     6
100
AcDbCircle
 10
655.060394
 20
1570.468911
 30
0.0
 40
4.76314
100
AcDbArc
 50
39.521196
 51
140.478804
  0
ARC
  5
899
100
AcDbEntity
  8
_3
  6
CONTINUOUS
 62
     6
100
AcDbCircle
 10
646.560394
 20
1570.468911
 30
0.0
 40
4.76314
100
AcDbArc
 50
39.521196
 51
140.478804
  0
ARC
  5
89A
100
AcDbEntity
  8
_3
  6
CONTINUOUS
 62
     6
100
AcDbCircle
 10
646.560394
 20
1573.75
 30
0.0
 40
7.25
100
AcDbArc
 50
239.549686
 51
300.450314
  0
ARC
  5
89B
100
AcDbEntity
  8
_3
  6
CONTINUOUS
 62
     6
100
AcDbCircle
 10
655.060394
 20
1573.75
 30
0.0
 40
7.25
100
AcDbArc
 50
239.549686
 51
300.450314
  0
LINE
  5
89C
100
AcDbEntity
  8
_3
  6
CONTINUOUS
 62
     6
100
AcDbLine
 10
641.310394
 20
1566.5
 30
0.0
 11
642.310394
 21
1567.5
 31
0.0
  0
LINE
  5
89D
100
AcDbEntity
  8
_3
  6
CONTINUOUS
 62
     6
100
AcDbLine
 10
660.310394
 20
1566.5
 30
0.0
 11
659.310394
 21
1567.5
 31
0.0
  0
LINE
  5
89E
100
AcDbEntity
  8
_3
  6
CONTINUOUS
 62
     6
100
AcDbLine
 10
642.310394
 20
1567.5
 30
0.0
 11
642.310394
 21
1575.232051
 31
0.0
  0
LINE
  5
89F
100
AcDbEntity
  8
_3
  6
CONTINUOUS
 62
     6
100
AcDbLine
 10
659.310394
 20
1567.5
 30
0.0
 11
659.310394
 21
1575.232051
 31
0.0
  0
LINE
  5
8A0
100
AcDbEntity
  8
_3
  6
CONTINUOUS
 62
     6
100
AcDbLine
 10
658.734629
 20
1567.5
 30
0.0
 11
658.734629
 21
1573.5
 31
0.0
  0
LINE
  5
8A1
100
AcDbEntity
  8
_3
  6
CONTINUOUS
 62
     6
100
AcDbLine
 10
651.38616
 20
1573.5
 30
0.0
 11
651.38616
 21
1567.5
 31
0.0
  0
LINE
  5
8A2
100
AcDbEntity
  8
_3
  6
CONTINUOUS
 62
     6
100
AcDbLine
 10
650.234629
 20
1573.5
 30
0.0
 11
650.234629
 21
1567.5
 31
0.0
  0
LINE
  5
8A3
100
AcDbEntity
  8
_3
  6
CONTINUOUS
 62
     6
100
AcDbLine
 10
642.88616
 20
1573.5
 30
0.0
 11
642.88616
 21
1567.5
 31
0.0
  0
LINE
  5
8A4
100
AcDbEntity
  8
_3
  6
CONTINUOUS
 62
     6
100
AcDbLine
 10
642.310394
 20
1573.5
 30
0.0
 11
642.88616
 21
1573.5
 31
0.0
  0
LINE
  5
8A5
100
AcDbEntity
  8
_3
  6
CONTINUOUS
 62
     6
100
AcDbLine
 10
650.234629
 20
1573.5
 30
0.0
 11
651.38616
 21
1573.5
 31
0.0
  0
LINE
  5
8A6
100
AcDbEntity
  8
_3
  6
CONTINUOUS
 62
     6
100
AcDbLine
 10
658.734629
 20
1573.5
 30
0.0
 11
659.310394
 21
1573.5
 31
0.0
  0
LINE
  5
8A7
100
AcDbEntity
  8
_3
  6
CONTINUOUS
 62
     6
100
AcDbLine
 10
1764.810394
 20
1537.754273
 30
0.0
 11
1764.810394
 21
1520.254273
 31
0.0
  0
LINE
  5
8A8
100
AcDbEntity
  8
_3
  6
CONTINUOUS
 62
     6
100
AcDbLine
 10
1695.810394
 20
1550.004273
 30
0.0
 11
1645.810394
 21
1550.004273
 31
0.0
  0
LINE
  5
8A9
100
AcDbEntity
  8
_3
  6
CONTINUOUS
 62
     6
100
AcDbLine
 10
1732.810394
 20
1545.004273
 30
0.0
 11
1692.164551
 21
1545.004273
 31
0.0
  0
LINE
  5
8AA
100
AcDbEntity
  8
_3
  6
CONTINUOUS
 62
     6
100
AcDbLine
 10
1645.810394
 20
1556.676539
 30
0.0
 11
1645.810394
 21
1517.604273
 31
0.0
  0
LINE
  5
8AB
100
AcDbEntity
  8
_3
  6
CONTINUOUS
 62
     6
100
AcDbLine
 10
1642.210394
 20
1514.004273
 30
0.0
 11
1640.310394
 21
1514.004273
 31
0.0
  0
LINE
  5
8AC
100
AcDbEntity
  8
_3
  6
CONTINUOUS
 62
     6
100
AcDbLine
 10
1674.810394
 20
1492.004272
 30
0.0
 11
1640.310394
 21
1492.004272
 31
0.0
  0
LINE
  5
8AD
100
AcDbEntity
  8
_3
  6
CONTINUOUS
 62
     6
100
AcDbLine
 10
1663.810394
 20
1489.404272
 30
0.0
 11
1663.810394
 21
1484.004273
 31
0.0
  0
LINE
  5
8AE
100
AcDbEntity
  8
_3
  6
CONTINUOUS
 62
     6
100
AcDbLine
 10
1687.810394
 20
1491.794683
 30
0.0
 11
1687.810394
 21
1484.004273
 31
0.0
  0
LINE
  5
8AF
100
AcDbEntity
  8
_3
  6
CONTINUOUS
 62
     6
100
AcDbLine
 10
1715.810394
 20
1504.504272
 30
0.0
 11
1691.410394
 21
1504.504272
 31
0.0
  0
ARC
  5
8B0
100
AcDbEntity
  8
_3
  6
CONTINUOUS
 62
     6
100
AcDbCircle
 10
1718.410394
 20
1513.410155
 30
0.0
 40
2.6
100
AcDbArc
 50
90.0
 51
180.0
  0
LINE
  5
8B1
100
AcDbEntity
  8
_3
  6
CONTINUOUS
 62
     6
100
AcDbLine
 10
1718.410394
 20
1516.010155
 30
0.0
 11
1719.810394
 21
1516.010155
 31
0.0
  0
ARC
  5
8B2
100
AcDbEntity
  8
_3
  6
CONTINUOUS
 62
     6
100
AcDbCircle
 10
1719.810394
 20
1572.410155
 30
0.0
 40
56.4
100
AcDbArc
 50
270.0
 51
287.102916
  0
LINE
  5
8B3
100
AcDbEntity
  8
_3
  6
CONTINUOUS
 62
     6
100
AcDbLine
 10
1715.810394
 20
1504.504272
 30
0.0
 11
1715.810394
 21
1513.410155
 31
0.0
  0
LINE
  5
8B4
100
AcDbEntity
  8
_3
  6
CONTINUOUS
 62
     6
100
AcDbLine
 10
1732.810394
 20
1545.004273
 30
0.0
 11
1732.810394
 21
1543.104273
 31
0.0
  0
ARC
  5
8B5
100
AcDbEntity
  8
_3
  6
CONTINUOUS
 62
     6
100
AcDbCircle
 10
1736.410394
 20
1543.104273
 30
0.0
 40
3.6
100
AcDbArc
 50
180.0
 51
270.0
  0
ARC
  5
8B6
100
AcDbEntity
  8
_3
  6
CONTINUOUS
 62
     6
100
AcDbCircle
 10
1699.410394
 20
1548.604272
 30
0.0
 40
3.6
100
AcDbArc
 50
180.0
 51
270.0
  0
ARC
  5
8B7
100
AcDbEntity
  8
_3
  6
CONTINUOUS
 62
     6
100
AcDbCircle
 10
1642.210394
 20
1517.604273
 30
0.0
 40
3.6
100
AcDbArc
 50
270.0
 51
0.0
  0
ARC
  5
8B8
100
AcDbEntity
  8
_3
  6
CONTINUOUS
 62
     6
100
AcDbCircle
 10
1691.410394
 20
1501.904272
 30
0.0
 40
2.6
100
AcDbArc
 50
90.0
 51
180.0
  0
LINE
  5
8B9
100
AcDbEntity
  8
_3
  6
CONTINUOUS
 62
     6
100
AcDbLine
 10
1688.810394
 20
1493.136323
 30
0.0
 11
1688.810394
 21
1501.904272
 31
0.0
  0
ARC
  5
8BA
100
AcDbEntity
  8
_3
  6
CONTINUOUS
 62
     6
100
AcDbCircle
 10
1687.410394
 20
1493.136323
 30
0.0
 40
1.4
100
AcDbArc
 50
286.60155
 51
0.0
  0
LINE
  5
8BB
100
AcDbEntity
  8
_3
  6
CONTINUOUS
 62
     6
100
AcDbLine
 10
1764.810394
 20
1537.754273
 30
0.0
 11
1763.060394
 21
1539.504272
 31
0.0
  0
LINE
  5
8BC
100
AcDbEntity
  8
_3
  6
CONTINUOUS
 62
     6
100
AcDbLine
 10
1764.810394
 20
1520.254273
 30
0.0
 11
1763.060394
 21
1518.504272
 31
0.0
  0
LINE
  5
8BD
100
AcDbEntity
  8
_3
  6
CONTINUOUS
 62
     6
100
AcDbLine
 10
1737.810394
 20
1538.304273
 30
0.0
 11
1735.552145
 21
1539.608073
 31
0.0
  0
LINE
  5
8BE
100
AcDbEntity
  8
_3
  6
CONTINUOUS
 62
     6
100
AcDbLine
 10
1737.810394
 20
1519.704273
 30
0.0
 11
1735.041678
 21
1518.105753
 31
0.0
  0
LINE
  5
8BF
100
AcDbEntity
  8
_3
  6
CONTINUOUS
 62
     6
100
AcDbLine
 10
1763.060394
 20
1539.504272
 30
0.0
 11
1763.060394
 21
1518.504272
 31
0.0
  0
LINE
  5
8C0
100
AcDbEntity
  8
_3
  6
CONTINUOUS
 62
     6
100
AcDbLine
 10
1737.810394
 20
1539.504272
 30
0.0
 11
1737.810394
 21
1518.504272
 31
0.0
  0
LINE
  5
8C1
100
AcDbEntity
  8
_3
  6
CONTINUOUS
 62
     6
100
AcDbLine
 10
1686.997394
 20
1486.004272
 30
0.0
 11
1686.997394
 21
1484.004273
 31
0.0
  0
LINE
  5
8C2
100
AcDbEntity
  8
_3
  6
CONTINUOUS
 62
     6
100
AcDbLine
 10
1664.623394
 20
1486.004272
 30
0.0
 11
1664.623394
 21
1484.004273
 31
0.0
  0
LINE
  5
8C3
100
AcDbEntity
  8
_3
  6
CONTINUOUS
 62
     6
100
AcDbLine
 10
1664.623394
 20
1486.004272
 30
0.0
 11
1663.810394
 21
1487.41243
 31
0.0
  0
LINE
  5
8C4
100
AcDbEntity
  8
_3
  6
CONTINUOUS
 62
     6
100
AcDbLine
 10
1686.997394
 20
1486.004272
 30
0.0
 11
1687.810394
 21
1487.41243
 31
0.0
  0
LINE
  5
8C5
100
AcDbEntity
  8
_3
  6
CONTINUOUS
 62
     6
100
AcDbLine
 10
1687.810394
 20
1486.004272
 30
0.0
 11
1663.810394
 21
1486.004272
 31
0.0
  0
LINE
  5
8C6
100
AcDbEntity
  8
_3
  6
CONTINUOUS
 62
     6
100
AcDbLine
 10
1641.310394
 20
1513.191273
 30
0.0
 11
1640.310394
 21
1513.191273
 31
0.0
  0
LINE
  5
8C7
100
AcDbEntity
  8
_3
  6
CONTINUOUS
 62
     6
100
AcDbLine
 10
1641.310394
 20
1492.817272
 30
0.0
 11
1640.310394
 21
1492.817272
 31
0.0
  0
LINE
  5
8C8
100
AcDbEntity
  8
_3
  6
CONTINUOUS
 62
     6
100
AcDbLine
 10
1641.310394
 20
1492.817272
 30
0.0
 11
1642.718552
 21
1492.004272
 31
0.0
  0
LINE
  5
8C9
100
AcDbEntity
  8
_3
  6
CONTINUOUS
 62
     6
100
AcDbLine
 10
1641.310394
 20
1513.191273
 30
0.0
 11
1642.803862
 21
1514.053527
 31
0.0
  0
LINE
  5
8CA
100
AcDbEntity
  8
_3
  6
CONTINUOUS
 62
     6
100
AcDbLine
 10
1641.310394
 20
1514.004273
 30
0.0
 11
1641.310394
 21
1492.004272
 31
0.0
  0
ARC
  5
8CB
100
AcDbEntity
  8
_3
  6
CONTINUOUS
 62
     6
100
AcDbCircle
 10
1661.210394
 20
1489.404272
 30
0.0
 40
2.6
100
AcDbArc
 50
0.0
 51
90.0
  0
ARC
  5
8CC
100
AcDbEntity
  8
_3
  6
CONTINUOUS
 62
     6
100
AcDbCircle
 10
1691.410394
 20
1494.504272
 30
0.0
 40
10.0
100
AcDbArc
 50
90.0
 51
180.0
  0
ARC
  5
8CD
100
AcDbEntity
  8
_3
  6
CONTINUOUS
 62
     6
100
AcDbCircle
 10
1692.164551
 20
1561.004272
 30
0.0
 40
16.0
100
AcDbArc
 50
234.053066
 51
270.0
  0
LINE
  5
8CE
100
AcDbEntity
  8
_3
  6
CONTINUOUS
 62
     6
100
AcDbLine
 10
1678.310394
 20
1575.504273
 30
0.0
 11
1663.310394
 21
1575.504273
 31
0.0
  0
LINE
  5
8CF
100
AcDbEntity
  8
_3
  6
CONTINUOUS
 62
     6
100
AcDbLine
 10
1695.810394
 20
1556.676539
 30
0.0
 11
1695.810394
 21
1548.604272
 31
0.0
  0
LINE
  5
8D0
100
AcDbEntity
  8
_3
  6
CONTINUOUS
 62
     6
100
AcDbLine
 10
1680.310394
 20
1573.504272
 30
0.0
 11
1680.310394
 21
1563.907123
 31
0.0
  0
LINE
  5
8D1
100
AcDbEntity
  8
_3
  6
CONTINUOUS
 62
     6
100
AcDbLine
 10
1661.310394
 20
1573.504272
 30
0.0
 11
1661.310394
 21
1563.907123
 31
0.0
  0
ARC
  5
8D2
100
AcDbEntity
  8
_3
  6
CONTINUOUS
 62
     6
100
AcDbCircle
 10
1692.810394
 20
1556.676539
 30
0.0
 40
3.0
100
AcDbArc
 50
0.0
 51
80.759208
  0
ARC
  5
8D3
100
AcDbEntity
  8
_3
  6
CONTINUOUS
 62
     6
100
AcDbCircle
 10
1683.310394
 20
1563.907123
 30
0.0
 40
3.0
100
AcDbArc
 50
180.0
 51
264.985228
  0
ARC
  5
8D4
100
AcDbEntity
  8
_3
  6
CONTINUOUS
 62
     6
100
AcDbCircle
 10
1658.310394
 20
1563.907123
 30
0.0
 40
3.0
100
AcDbArc
 50
275.014772
 51
0.0
  0
ARC
  5
8D5
100
AcDbEntity
  8
_3
  6
CONTINUOUS
 62
     6
100
AcDbCircle
 10
1648.810394
 20
1556.676539
 30
0.0
 40
3.0
100
AcDbArc
 50
99.240792
 51
180.0
  0
ARC
  5
8D6
100
AcDbEntity
  8
_3
  6
CONTINUOUS
 62
     6
100
AcDbCircle
 10
1670.810394
 20
1421.454499
 30
0.0
 40
140.0
100
AcDbArc
 50
95.014772
 51
99.240792
  0
ARC
  5
8D7
100
AcDbEntity
  8
_3
  6
CONTINUOUS
 62
     6
100
AcDbCircle
 10
1670.810394
 20
1421.454499
 30
0.0
 40
140.0
100
AcDbArc
 50
80.759208
 51
84.985228
  0
LINE
  5
8D8
100
AcDbEntity
  8
_3
  6
CONTINUOUS
 62
     6
100
AcDbLine
 10
1681.048157
 20
1560.918606
 30
0.0
 11
1660.572632
 21
1560.918606
 31
0.0
  0
ARC
  5
8D9
100
AcDbEntity
  8
_3
  6
CONTINUOUS
 62
     6
100
AcDbCircle
 10
1678.310394
 20
1573.504272
 30
0.0
 40
2.0
100
AcDbArc
 50
0.0
 51
90.0
  0
ARC
  5
8DA
100
AcDbEntity
  8
_3
  6
CONTINUOUS
 62
     6
100
AcDbCircle
 10
1663.310394
 20
1573.504272
 30
0.0
 40
2.0
100
AcDbArc
 50
90.0
 51
180.0
  0
LINE
  5
8DB
100
AcDbEntity
  8
_3
  6
CONTINUOUS
 62
     6
100
AcDbLine
 10
1676.05029
 20
1573.504272
 30
0.0
 11
1676.05029
 21
1567.504273
 31
0.0
  0
LINE
  5
8DC
100
AcDbEntity
  8
_3
  6
CONTINUOUS
 62
     6
100
AcDbLine
 10
1675.053035
 20
1573.504272
 30
0.0
 11
1675.053035
 21
1567.504273
 31
0.0
  0
LINE
  5
8DD
100
AcDbEntity
  8
_3
  6
CONTINUOUS
 62
     6
100
AcDbLine
 10
1666.567754
 20
1573.504272
 30
0.0
 11
1666.567754
 21
1567.504273
 31
0.0
  0
LINE
  5
8DE
100
AcDbEntity
  8
_3
  6
CONTINUOUS
 62
     6
100
AcDbLine
 10
1665.570499
 20
1573.504272
 30
0.0
 11
1665.570499
 21
1567.504273
 31
0.0
  0
ARC
  5
8DF
100
AcDbEntity
  8
_3
  6
CONTINUOUS
 62
     6
100
AcDbCircle
 10
1670.810394
 20
1569.174145
 30
0.0
 40
6.062178
100
AcDbArc
 50
45.584691
 51
134.415309
  0
ARC
  5
8E0
100
AcDbEntity
  8
_3
  6
CONTINUOUS
 62
     6
100
AcDbCircle
 10
1678.180342
 20
1573.060543
 30
0.0
 40
2.17578
100
AcDbArc
 50
11.767468
 51
168.232532
  0
ELLIPSE
  5
8E1
100
AcDbEntity
  8
_3
  6
CONTINUOUS
 62
     6
100
AcDbEllipse
 10
1678.180342
 20
1567.504273
 30
0.0
 11
-2.1300522056960003
 21
0.0000000000000003
 31
0.0
210
0.0
220
0.0
230
1.0
 40
0.469472
 41
0.0
 42
3.1415926535897931
  0
ELLIPSE
  5
8E2
100
AcDbEntity
  8
_3
  6
CONTINUOUS
 62
     6
100
AcDbEllipse
 10
1670.810394
 20
1567.504273
 30
0.0
 11
-4.2426406871190006
 21
0.0000000000000005
 31
0.0
210
0.0
220
0.0
230
1.0
 40
0.235702
 41
0.0
 42
3.1415926535897931
  0
ARC
  5
8E3
100
AcDbEntity
  8
_3
  6
CONTINUOUS
 62
     6
100
AcDbCircle
 10
1663.440447
 20
1573.060543
 30
0.0
 40
2.17578
100
AcDbArc
 50
11.767468
 51
168.232532
  0
ELLIPSE
  5
8E4
100
AcDbEntity
  8
_3
  6
CONTINUOUS
 62
     6
100
AcDbEllipse
 10
1663.440447
 20
1567.504273
 30
0.0
 11
2.1300522056960003
 21
0.0
 31
0.0
210
0.0
220
0.0
230
1.0
 40
0.469472
 41
3.1415926535897931
 42
0.0
  0
LINE
  5
8E5
100
AcDbEntity
  8
_3
  6
CONTINUOUS
 62
     6
100
AcDbLine
 10
1676.05029
 20
1573.504272
 30
0.0
 11
1675.053035
 21
1573.504272
 31
0.0
  0
LINE
  5
8E6
100
AcDbEntity
  8
_3
  6
CONTINUOUS
 62
     6
100
AcDbLine
 10
1666.567754
 20
1573.504272
 30
0.0
 11
1665.570499
 21
1573.504272
 31
0.0
  0
LINE
  5
8E7
100
AcDbEntity
  8
_3
  6
CONTINUOUS
 62
     6
100
AcDbLine
 10
1676.05029
 20
1567.504273
 30
0.0
 11
1675.053035
 21
1567.504273
 31
0.0
  0
LINE
  5
8E8
100
AcDbEntity
  8
_3
  6
CONTINUOUS
 62
     6
100
AcDbLine
 10
1666.567754
 20
1567.504273
 30
0.0
 11
1665.570499
 21
1567.504273
 31
0.0
  0
LINE
  5
8E9
100
AcDbEntity
  8
_3
  6
CONTINUOUS
 62
     6
100
AcDbLine
 10
1616.810394
 20
1516.004272
 30
0.0
 11
1616.810394
 21
1490.004273
 31
0.0
  0
LINE
  5
8EA
100
AcDbEntity
  8
_3
  6
CONTINUOUS
 62
     6
100
AcDbLine
 10
1615.606102
 20
1516.004272
 30
0.0
 11
1616.810394
 21
1516.004272
 31
0.0
  0
LINE
  5
8EB
100
AcDbEntity
  8
_3
  6
CONTINUOUS
 62
     6
100
AcDbLine
 10
1615.606102
 20
1490.004273
 30
0.0
 11
1616.810394
 21
1490.004273
 31
0.0
  0
LINE
  5
8EC
100
AcDbEntity
  8
_3
  6
CONTINUOUS
 62
     6
100
AcDbLine
 10
1616.810394
 20
1510.404272
 30
0.0
 11
1622.810394
 21
1510.404272
 31
0.0
  0
LINE
  5
8ED
100
AcDbEntity
  8
_3
  6
CONTINUOUS
 62
     6
100
AcDbLine
 10
1616.810394
 20
1495.604273
 30
0.0
 11
1622.810394
 21
1495.604273
 31
0.0
  0
ARC
  5
8EE
100
AcDbEntity
  8
_3
  6
CONTINUOUS
 62
     6
100
AcDbCircle
 10
1698.310394
 20
1503.004273
 30
0.0
 40
85.0
100
AcDbArc
 50
172.083803
 51
187.916197
  0
ARC
  5
8EF
100
AcDbEntity
  8
_3
  6
CONTINUOUS
 62
     6
100
AcDbCircle
 10
1615.606102
 20
1514.504272
 30
0.0
 40
1.5
100
AcDbArc
 50
90.0
 51
172.083803
  0
ARC
  5
8F0
100
AcDbEntity
  8
_3
  6
CONTINUOUS
 62
     6
100
AcDbCircle
 10
1615.606102
 20
1491.504273
 30
0.0
 40
1.5
100
AcDbArc
 50
187.916197
 51
270.0
  0
ARC
  5
8F1
100
AcDbEntity
  8
_3
  6
CONTINUOUS
 62
     6
100
AcDbCircle
 10
1634.310394
 20
1500.504273
 30
0.0
 40
11.0
100
AcDbArc
 50
236.944269
 51
303.055731
  0
ARC
  5
8F2
100
AcDbEntity
  8
_3
  6
CONTINUOUS
 62
     6
100
AcDbCircle
 10
1634.310394
 20
1505.504273
 30
0.0
 40
11.0
100
AcDbArc
 50
56.944269
 51
123.055731
  0
LINE
  5
8F3
100
AcDbEntity
  8
_3
  6
CONTINUOUS
 62
     6
100
AcDbLine
 10
1623.310394
 20
1512.504273
 30
0.0
 11
1628.310394
 21
1512.504273
 31
0.0
  0
LINE
  5
8F4
100
AcDbEntity
  8
_3
  6
CONTINUOUS
 62
     6
100
AcDbLine
 10
1623.310394
 20
1493.504272
 30
0.0
 11
1628.310394
 21
1493.504272
 31
0.0
  0
ARC
  5
8F5
100
AcDbEntity
  8
_3
  6
CONTINUOUS
 62
     6
100
AcDbCircle
 10
1623.310394
 20
1512.004272
 30
0.0
 40
0.5
100
AcDbArc
 50
90.0
 51
180.0
  0
ARC
  5
8F6
100
AcDbEntity
  8
_3
  6
CONTINUOUS
 62
     6
100
AcDbCircle
 10
1623.310394
 20
1494.004273
 30
0.0
 40
0.5
100
AcDbArc
 50
180.0
 51
270.0
  0
ELLIPSE
  5
8F7
100
AcDbEntity
  8
_3
  6
CONTINUOUS
 62
     6
100
AcDbEllipse
 10
1634.310394
 20
1513.892176
 30
0.0
 11
4.5825756949560024
 21
0.0000000000000029
 31
0.0
210
0.0
220
0.0
230
1.0
 40
0.570006
 41
0.0
 42
6.2831853071796004
  0
LINE
  5
8F8
100
AcDbEntity
  8
_3
  6
CONTINUOUS
 62
     6
100
AcDbLine
 10
1628.310394
 20
1514.723817
 30
0.0
 11
1628.310394
 21
1491.284728
 31
0.0
  0
LINE
  5
8F9
100
AcDbEntity
  8
_3
  6
CONTINUOUS
 62
     6
100
AcDbLine
 10
1640.310394
 20
1514.723817
 30
0.0
 11
1640.310394
 21
1491.284728
 31
0.0
  0
LINE
  5
8FA
100
AcDbEntity
  8
_3
  6
CONTINUOUS
 62
     6
100
AcDbLine
 10
1622.810394
 20
1512.004272
 30
0.0
 11
1622.810394
 21
1494.004273
 31
0.0
  0
LINE
  5
8FB
100
AcDbEntity
  8
_3
  6
CONTINUOUS
 62
     6
100
AcDbLine
 10
1708.810394
 20
1551.504273
 30
0.0
 11
1708.810394
 21
1545.004273
 31
0.0
  0
LINE
  5
8FC
100
AcDbEntity
  8
_3
  6
CONTINUOUS
 62
     6
100
AcDbLine
 10
1712.810394
 20
1560.004273
 30
0.0
 11
1712.810394
 21
1553.504272
 31
0.0
  0
ARC
  5
8FD
100
AcDbEntity
  8
_3
  6
CONTINUOUS
 62
     6
100
AcDbCircle
 10
1709.810394
 20
1551.504273
 30
0.0
 40
1.0
100
AcDbArc
 50
90.0
 51
180.0
  0
ARC
  5
8FE
100
AcDbEntity
  8
_3
  6
CONTINUOUS
 62
     6
100
AcDbCircle
 10
1713.810394
 20
1560.004273
 30
0.0
 40
1.0
100
AcDbArc
 50
90.0
 51
180.0
  0
ARC
  5
8FF
100
AcDbEntity
  8
_3
  6
CONTINUOUS
 62
     6
100
AcDbCircle
 10
1711.810394
 20
1553.504272
 30
0.0
 40
1.0
100
AcDbArc
 50
270.0
 51
0.0
  0
LINE
  5
900
100
AcDbEntity
  8
_3
  6
CONTINUOUS
 62
     6
100
AcDbLine
 10
1725.810394
 20
1561.004272
 30
0.0
 11
1713.810394
 21
1561.004272
 31
0.0
  0
LINE
  5
901
100
AcDbEntity
  8
_3
  6
CONTINUOUS
 62
     6
100
AcDbLine
 10
1730.810394
 20
1551.504273
 30
0.0
 11
1730.810394
 21
1545.004273
 31
0.0
  0
LINE
  5
902
100
AcDbEntity
  8
_3
  6
CONTINUOUS
 62
     6
100
AcDbLine
 10
1726.810394
 20
1560.004273
 30
0.0
 11
1726.810394
 21
1553.504272
 31
0.0
  0
LINE
  5
903
100
AcDbEntity
  8
_3
  6
CONTINUOUS
 62
     6
100
AcDbLine
 10
1729.810394
 20
1552.504273
 30
0.0
 11
1709.810394
 21
1552.504273
 31
0.0
  0
ARC
  5
904
100
AcDbEntity
  8
_3
  6
CONTINUOUS
 62
     6
100
AcDbCircle
 10
1725.810394
 20
1560.004273
 30
0.0
 40
1.0
100
AcDbArc
 50
0.0
 51
90.0
  0
ARC
  5
905
100
AcDbEntity
  8
_3
  6
CONTINUOUS
 62
     6
100
AcDbCircle
 10
1729.810394
 20
1551.504273
 30
0.0
 40
1.0
100
AcDbArc
 50
0.0
 51
90.0
  0
ARC
  5
906
100
AcDbEntity
  8
_3
  6
CONTINUOUS
 62
     6
100
AcDbCircle
 10
1727.810394
 20
1553.504272
 30
0.0
 40
1.0
100
AcDbArc
 50
180.0
 51
270.0
  0
LINE
  5
907
100
AcDbEntity
  8
_3
  6
CONTINUOUS
 62
     6
100
AcDbLine
 10
1726.17936
 20
1551.504273
 30
0.0
 11
1726.17936
 21
1547.004272
 31
0.0
  0
LINE
  5
908
100
AcDbEntity
  8
_3
  6
CONTINUOUS
 62
     6
100
AcDbLine
 10
1724.39297
 20
1551.504273
 30
0.0
 11
1724.39297
 21
1547.004272
 31
0.0
  0
ARC
  5
909
100
AcDbEntity
  8
_3
  6
CONTINUOUS
 62
     6
100
AcDbCircle
 10
1719.810394
 20
1541.504273
 30
0.0
 40
11.0
100
AcDbArc
 50
65.380023
 51
114.619977
  0
ARC
  5
90A
100
AcDbEntity
  8
_3
  6
CONTINUOUS
 62
     6
100
AcDbCircle
 10
1728.494877
 20
1549.323463
 30
0.0
 40
3.180809
100
AcDbArc
 50
90.0
 51
136.716039
  0
LINE
  5
90B
100
AcDbEntity
  8
_3
  6
CONTINUOUS
 62
     6
100
AcDbLine
 10
1730.810394
 20
1547.004272
 30
0.0
 11
1726.17936
 21
1547.004272
 31
0.0
  0
LINE
  5
90C
100
AcDbEntity
  8
_3
  6
CONTINUOUS
 62
     6
100
AcDbLine
 10
1724.39297
 20
1547.004272
 30
0.0
 11
1715.227819
 21
1547.004272
 31
0.0
  0
LINE
  5
90D
100
AcDbEntity
  8
_3
  6
CONTINUOUS
 62
     6
100
AcDbLine
 10
1726.17936
 20
1551.504273
 30
0.0
 11
1724.39297
 21
1551.504273
 31
0.0
  0
LINE
  5
90E
100
AcDbEntity
  8
_3
  6
CONTINUOUS
 62
     6
100
AcDbLine
 10
1714.560394
 20
1504.004273
 30
0.0
 11
1714.560394
 21
1504.504272
 31
0.0
  0
LINE
  5
90F
100
AcDbEntity
  8
_3
  6
CONTINUOUS
 62
     6
100
AcDbLine
 10
1691.060394
 20
1504.004273
 30
0.0
 11
1714.560394
 21
1504.004273
 31
0.0
  0
LINE
  5
910
100
AcDbEntity
  8
_3
  6
CONTINUOUS
 62
     6
100
AcDbLine
 10
1691.060394
 20
1504.004273
 30
0.0
 11
1691.060394
 21
1504.504272
 31
0.0
  0
ARC
  5
911
100
AcDbEntity
  8
_3
  6
CONTINUOUS
 62
     6
100
AcDbCircle
 10
1702.810394
 20
1537.519898
 30
0.0
 40
35.515625
100
AcDbArc
 50
250.680214
 51
289.319786
  0
LINE
  5
912
100
AcDbEntity
  8
_3
  6
CONTINUOUS
 62
     6
100
AcDbLine
 10
1715.227819
 20
1551.504273
 30
0.0
 11
1715.227819
 21
1547.004272
 31
0.0
  0
LINE
  5
913
100
AcDbEntity
  8
_3
  6
CONTINUOUS
 62
     6
100
AcDbLine
 10
1713.441428
 20
1551.504273
 30
0.0
 11
1715.227819
 21
1551.504273
 31
0.0
  0
LINE
  5
914
100
AcDbEntity
  8
_3
  6
CONTINUOUS
 62
     6
100
AcDbLine
 10
1713.441428
 20
1551.504273
 30
0.0
 11
1713.441428
 21
1547.004272
 31
0.0
  0
ARC
  5
915
100
AcDbEntity
  8
_3
  6
CONTINUOUS
 62
     6
100
AcDbCircle
 10
1711.125911
 20
1549.323463
 30
0.0
 40
3.180809
100
AcDbArc
 50
43.283961
 51
90.0
  0
LINE
  5
916
100
AcDbEntity
  8
_3
  6
CONTINUOUS
 62
     6
100
AcDbLine
 10
1708.810394
 20
1547.004272
 30
0.0
 11
1713.441428
 21
1547.004272
 31
0.0
  0
ELLIPSE
  5
917
100
AcDbEntity
  8
_3
  6
CONTINUOUS
 62
     6
100
AcDbEllipse
 10
1634.310394
 20
1492.116369
 30
0.0
 11
-4.5825756949560024
 21
-0.0000000000000035
 31
0.0
210
0.0
220
0.0
230
1.0
 40
0.570006
 41
0.0
 42
6.2831853071796004
  0
ELLIPSE
  5
918
100
AcDbEntity
  8
_3
  6
CONTINUOUS
 62
     6
100
AcDbEllipse
 10
1634.310394
 20
1503.004273
 30
0.0
 11
0.0000000000000003
 21
5.0990195135930003
 31
0.0
210
0.0
220
0.0
230
1.0
 40
0.898717
 41
0.0
 42
6.2831853071796004
  0
LINE
  5
919
100
AcDbEntity
  8
_3
  6
CONTINUOUS
 62
     6
100
AcDbLine
 10
1740.810394
 20
1542.004272
 30
0.0
 11
1748.810394
 21
1552.004272
 31
0.0
  0
LINE
  5
91A
100
AcDbEntity
  8
_3
  6
CONTINUOUS
 62
     6
100
AcDbLine
 10
1740.810394
 20
1516.004272
 30
0.0
 11
1748.810394
 21
1506.004272
 31
0.0
  0
LINE
  5
91B
100
AcDbEntity
  8
_3
  6
CONTINUOUS
 62
     6
100
AcDbLine
 10
1740.810394
 20
1542.004272
 30
0.0
 11
1740.810394
 21
1516.004272
 31
0.0
  0
LINE
  5
91C
100
AcDbEntity
  8
_3
  6
CONTINUOUS
 62
     6
100
AcDbLine
 10
1748.810394
 20
1506.004272
 30
0.0
 11
1748.810394
 21
1552.004272
 31
0.0
  0
LINE
  5
91D
100
AcDbEntity
  8
_3
  6
CONTINUOUS
 62
     6
100
AcDbLine
 10
1750.810394
 20
1506.004272
 30
0.0
 11
1748.810394
 21
1506.004272
 31
0.0
  0
LINE
  5
91E
100
AcDbEntity
  8
_3
  6
CONTINUOUS
 62
     6
100
AcDbLine
 10
1750.810394
 20
1552.004272
 30
0.0
 11
1748.810394
 21
1552.004272
 31
0.0
  0
LINE
  5
91F
100
AcDbEntity
  8
_3
  6
CONTINUOUS
 62
     6
100
AcDbLine
 10
1763.060394
 20
1539.504272
 30
0.0
 11
1750.810394
 21
1539.504272
 31
0.0
  0
LINE
  5
920
100
AcDbEntity
  8
_3
  6
CONTINUOUS
 62
     6
100
AcDbLine
 10
1740.810394
 20
1539.504272
 30
0.0
 11
1736.410394
 21
1539.504272
 31
0.0
  0
LINE
  5
921
100
AcDbEntity
  8
_3
  6
CONTINUOUS
 62
     6
100
AcDbLine
 10
1764.260394
 20
1538.304273
 30
0.0
 11
1750.810394
 21
1538.304273
 31
0.0
  0
LINE
  5
922
100
AcDbEntity
  8
_3
  6
CONTINUOUS
 62
     6
100
AcDbLine
 10
1740.810394
 20
1538.304273
 30
0.0
 11
1737.810394
 21
1538.304273
 31
0.0
  0
LINE
  5
923
100
AcDbEntity
  8
_3
  6
CONTINUOUS
 62
     6
100
AcDbLine
 10
1764.260394
 20
1519.704273
 30
0.0
 11
1750.810394
 21
1519.704273
 31
0.0
  0
LINE
  5
924
100
AcDbEntity
  8
_3
  6
CONTINUOUS
 62
     6
100
AcDbLine
 10
1740.810394
 20
1519.704273
 30
0.0
 11
1737.810394
 21
1519.704273
 31
0.0
  0
LINE
  5
925
100
AcDbEntity
  8
_3
  6
CONTINUOUS
 62
     6
100
AcDbLine
 10
1763.060394
 20
1518.504272
 30
0.0
 11
1750.810394
 21
1518.504272
 31
0.0
  0
LINE
  5
926
100
AcDbEntity
  8
_3
  6
CONTINUOUS
 62
     6
100
AcDbLine
 10
1740.810394
 20
1518.504272
 30
0.0
 11
1736.397012
 21
1518.504272
 31
0.0
  0
LINE
  5
927
100
AcDbEntity
  8
_3
  6
CONTINUOUS
 62
     6
100
AcDbLine
 10
1688.529939
 20
1484.004273
 30
0.0
 11
1663.09085
 21
1484.004273
 31
0.0
  0
LINE
  5
928
100
AcDbEntity
  8
_3
  6
CONTINUOUS
 62
     6
100
AcDbLine
 10
1688.529939
 20
1472.004272
 30
0.0
 11
1663.09085
 21
1472.004272
 31
0.0
  0
ARC
  5
929
100
AcDbEntity
  8
_3
  6
CONTINUOUS
 62
     6
100
AcDbCircle
 10
1679.310394
 20
1478.004273
 30
0.0
 40
11.0
100
AcDbArc
 50
326.944269
 51
33.055731
  0
ARC
  5
92A
100
AcDbEntity
  8
_3
  6
CONTINUOUS
 62
     6
100
AcDbCircle
 10
1672.310394
 20
1478.004273
 30
0.0
 40
11.0
100
AcDbArc
 50
146.944269
 51
213.055731
  0
ELLIPSE
  5
92B
100
AcDbEntity
  8
_3
  6
CONTINUOUS
 62
     6
100
AcDbEllipse
 10
1687.285231
 20
1478.004273
 30
0.0
 11
0.0000000000000036
 21
-5.0928871968660001
 31
0.0
210
0.0
220
0.0
230
1.0
 40
0.578219
 41
0.0
 42
6.2831853071796004
  0
ELLIPSE
  5
92C
100
AcDbEntity
  8
_3
  6
CONTINUOUS
 62
     6
100
AcDbEllipse
 10
1675.810394
 20
1478.004273
 30
0.0
 11
5.8896094946950006
 21
0.0000000000000038
 31
0.0
210
0.0
220
0.0
230
1.0
 40
0.864724
 41
0.0
 42
6.2831853071796004
  0
ELLIPSE
  5
92D
100
AcDbEntity
  8
_3
  6
CONTINUOUS
 62
     6
100
AcDbEllipse
 10
1664.335558
 20
1478.004273
 30
0.0
 11
0.0000000000000036
 21
-5.0928871968660001
 31
0.0
210
0.0
220
0.0
230
1.0
 40
0.578219
 41
0.0
 42
6.2831853071796004
  0
LINE
  5
92E
100
AcDbEntity
  8
_3
  6
CONTINUOUS
 62
     6
100
AcDbLine
 10
1683.750394
 20
1472.004272
 30
0.0
 11
1683.750394
 21
1380.995697
 31
0.0
  0
LINE
  5
92F
100
AcDbEntity
  8
_3
  6
CONTINUOUS
 62
     6
100
AcDbLine
 10
1667.870394
 20
1472.004272
 30
0.0
 11
1667.870394
 21
1380.995697
 31
0.0
  0
LINE
  5
930
100
AcDbEntity
  8
_4
  6
CONTINUOUS
 62
     6
100
AcDbLine
 10
1250.0
 20
2299.000305
 30
0.0
 11
1950.0
 21
2299.000305
 31
0.0
  0
LINE
  5
931
100
AcDbEntity
  8
_4
  6
CONTINUOUS
 62
     6
100
AcDbLine
 10
1250.0
 20
2429.000305
 30
0.0
 11
1950.0
 21
2429.000305
 31
0.0
  0
LINE
  5
932
100
AcDbEntity
  8
_4
  6
CONTINUOUS
 62
     6
100
AcDbLine
 10
1250.0
 20
2494.0
 30
0.0
 11
1950.0
 21
2494.0
 31
0.0
  0
LINE
  5
933
100
AcDbEntity
  8
_4
  6
CONTINUOUS
 62
     6
100
AcDbLine
 10
1250.0
 20
2559.0
 30
0.0
 11
1950.0
 21
2559.0
 31
0.0
  0
LINE
  5
934
100
AcDbEntity
  8
_4
  6
CONTINUOUS
 62
     6
100
AcDbLine
 10
1250.0
 20
2624.0
 30
0.0
 11
1950.0
 21
2624.0
 31
0.0
  0
LINE
  5
935
100
AcDbEntity
  8
_4
  6
CONTINUOUS
 62
     6
100
AcDbLine
 10
1250.0
 20
2689.0
 30
0.0
 11
1950.0
 21
2689.0
 31
0.0
  0
LINE
  5
936
100
AcDbEntity
  8
_4
  6
CONTINUOUS
 62
     6
100
AcDbLine
 10
1250.0
 20
2689.0
 30
0.0
 11
1250.0
 21
2299.000305
 31
0.0
  0
LINE
  5
937
100
AcDbEntity
  8
_4
  6
CONTINUOUS
 62
     6
100
AcDbLine
 10
1950.0
 20
2689.0
 30
0.0
 11
1950.0
 21
2299.000305
 31
0.0
  0
TEXT
  5
938
100
AcDbEntity
  8
_4
  6
CONTINUOUS
 62
     2
100
AcDbText
 10
1267.050781
 20
2701.004395
 30
0.0
 40
60.0
  1
器　具　明　細
 41
0.91
  7
EXCADSTD
 72
     5
 11
1722.050781
 21
2701.004395
 31
0.0
100
AcDbText
  0
TEXT
  5
939
100
AcDbEntity
  8
_4
  6
CONTINUOUS
 62
     2
100
AcDbText
 10
1860.0
 20
2629.0
 30
0.0
 40
55.0
  1
個数
 41
0.702545
  7
EXCADSTD
 72
     5
 11
1944.3272
 21
2629.0
 31
0.0
100
AcDbText
  0
TEXT
  5
93A
100
AcDbEntity
  8
_4
  6
CONTINUOUS
 62
     2
100
AcDbText
 10
1402.01709
 20
2629.0
 30
0.0
 40
55.0
  1
品　　名
 41
1.145455
  7
EXCADSTD
 72
     5
 11
1702.01709
 21
2629.0
 31
0.0
100
AcDbText
  0
TEXT
  5
93B
100
AcDbEntity
  8
_4
  6
CONTINUOUS
 62
     2
100
AcDbText
 10
1880.0
 20
2502.613281
 30
0.0
 40
47.5
  1
１
 41
0.834695
  7
EXCADSTD
 72
     5
 11
1917.759998
 21
2502.613281
 31
0.0
100
AcDbText
  0
TEXT
  5
93C
100
AcDbEntity
  8
_4
  6
CONTINUOUS
 62
     2
100
AcDbText
 10
1880.0
 20
2436.466126
 30
0.0
 40
47.5
  1
１
 41
0.834695
  7
EXCADSTD
 72
     5
 11
1917.759998
 21
2436.466126
 31
0.0
100
AcDbText
  0
TEXT
  5
93D
100
AcDbEntity
  8
_4
  6
CONTINUOUS
 62
     2
100
AcDbText
 10
1880.0
 20
2307.381653
 30
0.0
 40
47.5
  1
１
 41
0.834695
  7
EXCADSTD
 72
     5
 11
1917.759998
 21
2307.381653
 31
0.0
100
AcDbText
  0
TEXT
  5
93E
100
AcDbEntity
  8
_4
  6
CONTINUOUS
 62
     2
100
AcDbText
 10
1253.918457
 20
2564.0
 30
0.0
 40
50.0
  1
小便器
 41
0.8848
  7
EXCADSTD
 72
     5
 11
1411.918457
 21
2564.0
 31
0.0
100
AcDbText
  0
TEXT
  5
93F
100
AcDbEntity
  8
_4
  6
CONTINUOUS
 62
     2
100
AcDbText
 10
1880.0
 20
2567.981934
 30
0.0
 40
47.5
  1
１
 41
0.834695
  7
EXCADSTD
 72
     5
 11
1917.759998
 21
2567.981934
 31
0.0
100
AcDbText
  0
INSERT
  5
940
100
AcDbEntity
  8
_4
  6
CONTINUOUS
 62
     0
100
AcDbBlockReference
  2
NC510LSK
 10
1352.534424
 20
2773.388184
 30
0.0
 41
10.0
 42
10.0
  0
LINE
  5
941
100
AcDbEntity
  8
_4
  6
CONTINUOUS
 62
     6
100
AcDbLine
 10
1850.0
 20
2689.0
 30
0.0
 11
1850.0
 21
2299.000305
 31
0.0
  0
TEXT
  5
942
100
AcDbEntity
  8
_4
  6
CONTINUOUS
 62
     2
100
AcDbText
 10
1253.918457
 20
2499.0
 30
0.0
 40
50.0
  1
フラッシュバルブ
 41
0.87255
  7
EXCADSTD
 72
     5
 11
1669.418457
 21
2499.0
 31
0.0
100
AcDbText
  0
TEXT
  5
943
100
AcDbEntity
  8
_4
  6
CONTINUOUS
 62
     2
100
AcDbText
 10
1253.918457
 20
2434.0
 30
0.0
 40
50.0
  1
スパッド
 41
0.8799
  7
EXCADSTD
 72
     5
 11
1463.418457
 21
2434.0
 31
0.0
100
AcDbText
  0
TEXT
  5
944
100
AcDbEntity
  8
_4
  6
CONTINUOUS
 62
     2
100
AcDbText
 10
1253.918457
 20
2304.000305
 30
0.0
 40
50.0
  1
ガスケット
 41
0.87696
  7
EXCADSTD
 72
     5
 11
1514.918457
 21
2304.000305
 31
0.0
100
AcDbText
  0
LINE
  5
945
100
AcDbEntity
  8
_4
  6
CONTINUOUS
 62
     6
100
AcDbLine
 10
1250.0
 20
2364.000305
 30
0.0
 11
1950.0
 21
2364.000305
 31
0.0
  0
TEXT
  5
946
100
AcDbEntity
  8
_4
  6
CONTINUOUS
 62
     2
100
AcDbText
 10
1880.0
 20
2371.466126
 30
0.0
 40
47.5
  1
１
 41
0.834695
  7
EXCADSTD
 72
     5
 11
1917.759998
 21
2371.466126
 31
0.0
100
AcDbText
  0
TEXT
  5
947
100
AcDbEntity
  8
_4
  6
CONTINUOUS
 62
     2
100
AcDbText
 10
1253.918457
 20
2369.0
 30
0.0
 40
50.0
  1
排水金具
 41
0.8799
  7
EXCADSTD
 72
     5
 11
1463.418457
 21
2369.0
 31
0.0
100
AcDbText
  0
ENDSEC
  0
SECTION
  2
OBJECTS
  0
DICTIONARY
  5
19
100
AcDbDictionary
  3
ACAD_GROUP
350
1A
  3
ACAD_MLINESTYLE
350
1B
  0
DICTIONARY
  5
1A
102
{ACAD_REACTORS
330
19
102
}
100
AcDbDictionary
  0
DICTIONARY
  5
1B
102
{ACAD_REACTORS
330
19
102
}
100
AcDbDictionary
  3
STANDARD
350
1C
  0
MLINESTYLE
  5
1C
102
{ACAD_REACTORS
330
1B
102
}
100
AcDbMlineStyle
  2
Standard
 70
     0
  3

 62
     0
 51
90.0
 52
90.0
 71
     2
 49
0.5
 62
   256
  6
ByLayer
 49
-0.5
 62
   256
  6
ByLayer
  0
ENDSEC
  0
EOF
