  0
SECTION
  2
HEADER
  9
$ACADVER
  1
AC1014
  9
$ACADMAINTVER
 70
     0
  9
$DWGCODEPAGE
  3
ANSI_932
  9
$INSBASE
 10
0.0
 20
0.0
 30
0.0
  9
$EXTMIN
 10
-2.1
 20
11.5
 30
0.0
  9
$EXTMAX
 10
199.9
 20
291.5
 30
0.0
  9
$LIMMIN
 10
0.0
 20
0.0
  9
$LIMMAX
 10
210.0
 20
297.0
  9
$ORTHOMODE
 70
     0
  9
$REGENMODE
 70
     1
  9
$FILLMODE
 70
     1
  9
$QTEXTMODE
 70
     0
  9
$MIRRTEXT
 70
     1
  9
$DRAGMODE
 70
     2
  9
$LTSCALE
 40
1.0
  9
$OSMODE
 70
     0
  9
$ATTMODE
 70
     1
  9
$TEXTSIZE
 40
0.2
  9
$TRACEWID
 40
0.05
  9
$TEXTSTYLE
  7
STANDARD
  9
$CLAYER
  8
枠_
  9
$CELTYPE
  6
CONTINUOUS
  9
$CECOLOR
 62
   256
  9
$CELTSCALE
 40
1.0
  9
$DELOBJ
 70
     1
  9
$DISPSILH
 70
     0
  9
$DIMSCALE
 40
1.0
  9
$DIMASZ
 40
0.18
  9
$DIMEXO
 40
0.0625
  9
$DIMDLI
 40
0.38
  9
$DIMRND
 40
0.0
  9
$DIMDLE
 40
0.0
  9
$DIMEXE
 40
0.18
  9
$DIMTP
 40
0.0
  9
$DIMTM
 40
0.0
  9
$DIMTXT
 40
0.18
  9
$DIMCEN
 40
0.09
  9
$DIMTSZ
 40
0.0
  9
$DIMTOL
 70
     0
  9
$DIMLIM
 70
     0
  9
$DIMTIH
 70
     1
  9
$DIMTOH
 70
     1
  9
$DIMSE1
 70
     0
  9
$DIMSE2
 70
     0
  9
$DIMTAD
 70
     0
  9
$DIMZIN
 70
     0
  9
$DIMBLK
  1

  9
$DIMASO
 70
     1
  9
$DIMSHO
 70
     1
  9
$DIMPOST
  1

  9
$DIMAPOST
  1

  9
$DIMALT
 70
     0
  9
$DIMALTD
 70
     2
  9
$DIMALTF
 40
25.4
  9
$DIMLFAC
 40
1.0
  9
$DIMTOFL
 70
     0
  9
$DIMTVP
 40
0.0
  9
$DIMTIX
 70
     0
  9
$DIMSOXD
 70
     0
  9
$DIMSAH
 70
     0
  9
$DIMBLK1
  1

  9
$DIMBLK2
  1

  9
$DIMSTYLE
  2
STANDARD
  9
$DIMCLRD
 70
     0
  9
$DIMCLRE
 70
     0
  9
$DIMCLRT
 70
     0
  9
$DIMTFAC
 40
1.0
  9
$DIMGAP
 40
0.09
  9
$DIMJUST
 70
     0
  9
$DIMSD1
 70
     0
  9
$DIMSD2
 70
     0
  9
$DIMTOLJ
 70
     1
  9
$DIMTZIN
 70
     0
  9
$DIMALTZ
 70
     0
  9
$DIMALTTZ
 70
     0
  9
$DIMFIT
 70
     3
  9
$DIMUPT
 70
     0
  9
$DIMUNIT
 70
     2
  9
$DIMDEC
 70
     4
  9
$DIMTDEC
 70
     4
  9
$DIMALTU
 70
     2
  9
$DIMALTTD
 70
     2
  9
$DIMTXSTY
  7
STANDARD
  9
$DIMAUNIT
 70
     0
  9
$LUNITS
 70
     2
  9
$LUPREC
 70
     4
  9
$SKETCHINC
 40
0.1
  9
$FILLETRAD
 40
0.0
  9
$AUNITS
 70
     0
  9
$AUPREC
 70
     0
  9
$MENU
  1
acad
  9
$ELEVATION
 40
0.0
  9
$PELEVATION
 40
0.0
  9
$THICKNESS
 40
0.0
  9
$LIMCHECK
 70
     0
  9
$BLIPMODE
 70
     1
  9
$CHAMFERA
 40
0.0
  9
$CHAMFERB
 40
0.0
  9
$CHAMFERC
 40
0.0
  9
$CHAMFERD
 40
0.0
  9
$SKPOLY
 70
     0
  9
$TDCREATE
 40
2454512.421390590
  9
$TDUPDATE
 40
2454512.421390590
  9
$TDINDWG
 40
0.0000000000
  9
$TDUSRTIMER
 40
0.0000000000
  9
$USRTIMER
 70
     1
  9
$ANGBASE
 50
0.0
  9
$ANGDIR
 70
     0
  9
$PDMODE
 70
     0
  9
$PDSIZE
 40
0.0
  9
$PLINEWID
 40
0.0
  9
$COORDS
 70
     1
  9
$SPLFRAME
 70
     0
  9
$SPLINETYPE
 70
     6
  9
$SPLINESEGS
 70
     8
  9
$ATTDIA
 70
     0
  9
$ATTREQ
 70
     1
  9
$HANDLING
 70
     1
  9
$HANDSEED
  5
5EA
  9
$SURFTAB1
 70
     6
  9
$SURFTAB2
 70
     6
  9
$SURFTYPE
 70
     6
  9
$SURFU
 70
     6
  9
$SURFV
 70
     6
  9
$UCSNAME
  2

  9
$UCSORG
 10
0.0
 20
0.0
 30
0.0
  9
$UCSXDIR
 10
1.0
 20
0.0
 30
0.0
  9
$UCSYDIR
 10
0.0
 20
1.0
 30
0.0
  9
$PUCSNAME
  2

  9
$PUCSORG
 10
0.0
 20
0.0
 30
0.0
  9
$PUCSXDIR
 10
1.0
 20
0.0
 30
0.0
  9
$PUCSYDIR
 10
0.0
 20
1.0
 30
0.0
  9
$USERI1
 70
     0
  9
$USERI2
 70
     0
  9
$USERI3
 70
     0
  9
$USERI4
 70
     0
  9
$USERI5
 70
     0
  9
$USERR1
 40
0.0
  9
$USERR2
 40
0.0
  9
$USERR3
 40
0.0
  9
$USERR4
 40
0.0
  9
$USERR5
 40
0.0
  9
$WORLDVIEW
 70
     1
  9
$SHADEDGE
 70
     3
  9
$SHADEDIF
 70
    70
  9
$TILEMODE
 70
     1
  9
$MAXACTVP
 70
    16
  9
$PINSBASE
 10
0.0
 20
0.0
 30
0.0
  9
$PLIMCHECK
 70
     0
  9
$PEXTMIN
 10
1.000000E+20
 20
1.000000E+20
 30
1.000000E+20
  9
$PEXTMAX
 10
-1.000000E+20
 20
-1.000000E+20
 30
-1.000000E+20
  9
$PLIMMIN
 10
0.0
 20
0.0
  9
$PLIMMAX
 10
12.0
 20
9.0
  9
$UNITMODE
 70
     0
  9
$VISRETAIN
 70
     0
  9
$PLINEGEN
 70
     1
  9
$PSLTSCALE
 70
     0
  9
$TREEDEPTH
 70
  3020
  9
$PICKSTYLE
 70
     1
  9
$CMLSTYLE
  2
Standard
  9
$CMLJUST
 70
     0
  9
$CMLSCALE
 40
1.0
  9
$PROXYGRAPHICS
 70
     0
  9
$MEASUREMENT
 70
     0
  0
ENDSEC
  0
SECTION
  2
CLASSES
  0
CLASS
  1
LWPOLYLINE
  2
AcDbPolyline
  3
"AutoCAD"
 90
        0
280
     0
281
     1
  0
CLASS
  1
IMAGE
  2
AcDbRasterImage
  3
ISM
 90
      127
280
     0
281
     1
  0
CLASS
  1
OLE2FRAME
  2
AcDbOle2Frame
  3
""
 90
        0
280
     0
281
     1
  0
CLASS
  1
HATCH
  2
AcDbHatch
  3
"ACAD_SEDONA"
 90
        0
280
     0
281
     1
  0
CLASS
  1
DICTIONARYVAR
  2
AcDbDictionaryVar
  3
"AutoCAD"
 90
        0
280
     0
281
     0
  0
CLASS
  1
RASTERVARIABLES
  2
AcDbRasterVariables
  3
ISM
 90
        0
280
     0
281
     0
  0
CLASS
  1
IMAGEDEF
  2
AcDbRasterImageDef
  3
ISM
 90
        0
280
     0
281
     0
  0
CLASS
  1
IMAGEDEF_REACTOR
  2
AcDbRasterImageDefReactor
  3
ISM
 90
        1
280
     0
281
     0
  0
CLASS
  1
IDBUFFER
  2
AcDbIdBuffer
  3
"Acad"
 90
        0
280
     0
281
     0
  0
CLASS
  1
SPATIAL_FILTER
  2
AcDbSpatialFilter
  3
"Acad"
 90
        0
280
     0
281
     0
  0
CLASS
  1
XRECORD
  2
AcDbXrecord
  3
"<Built In>"
 90
        0
280
     0
281
     0
  0
CLASS
  1
SORTENTSTABLE
  2
AcDbSortentsTable
  3
"AutoCAD"
 90
        0
280
     0
281
     0
  0
CLASS
  1
LAYER_INDEX
  2
AcDbLayerIndex
  3
"Acad"
 90
        0
280
     0
281
     0
  0
CLASS
  1
SPATIAL_INDEX
  2
AcDbSpatialIndex
  3
"Acad"
 90
        0
280
     0
281
     0
  0
CLASS
  1
OBJECT_PTR
  2
CAseDLPNTableRecord
  3
"ASE-LPNTableRecord"
 90
        1
280
     0
281
     0
  0
CLASS
  1
LAYOUT
  2
AcDbLayout
  3
"AutoCAD 2000"
 90
        1
280
     0
281
     0
  0
CLASS
  1
PLOTSETTINGS
  2
AcDbPlotSettings
  3
"AutoCAD 2000"
 90
        1
280
     0
281
     0
  0
CLASS
  1
ACDBDICTIONARYWDFLT
  2
AcDbDictionaryWithDefault
  3
"AutoCAD 2000"
 90
        1
280
     0
281
     0
  0
CLASS
  1
ACDBPLACEHOLDER
  2
AcDbPlaceHolder
  3
"AutoCAD 2000"
 90
        1
280
     0
281
     0
  0
CLASS
  1
VBA_PROJECT
  2
AcDbVbaProject
  3
"acadvba"
 90
        1
280
     0
281
     0
  0
CLASS
  1
WIPEOUT
  2
AcDbWipeout
  3
WipeOut|AutoCAD Express Tool|expresstools@autodesk.com
 90
      127
280
     0
281
     1
  0
CLASS
  1
WIPEOUTVARIABLES
  2
AcDbWipeoutVariables
  3
WipeOut|AutoCAD Express Tool|expresstools@autodesk.com
 90
        0
280
     0
281
     0
  0
CLASS
  1
RTEXT
  2
RText
  3
RText|AutoCAD Express Tool|expresstools@autodesk.com
 90
        0
280
     0
281
     1
  0
CLASS
  1
ARCALIGNEDTEXT
  2
AcDbArcAlignedText
  3
ATEXT|AutoCAD Express Tool|expresstools@autodesk.com
 90
        0
280
     0
281
     1
  0
ENDSEC
  0
SECTION
  2
TABLES
  0
TABLE
  2
VPORT
  5
7
100
AcDbSymbolTable
 70
     1
  0
VPORT
  5
15
100
AcDbSymbolTableRecord
100
AcDbViewportTableRecord
  2
*ACTIVE
 70
     0
 10
0.0
 20
0.0
 11
1.0
 21
1.0
 12
989.0
 22
1515.0
 13
0.0
 23
0.0
 14
1.0
 24
1.0
 15
0.0
 25
0.0
 16
0.0
 26
0.0
 36
1.0
 17
0.0
 27
0.0
 37
0.0
 40
2800.0
 41
1.722533
 42
50.0
 43
0.0
 44
0.0
 50
0.0
 51
0.0
 71
     0
 72
   100
 73
     1
 74
     1
 75
     0
 76
     0
 77
     0
 78
     0
  0
ENDTAB
  0
TABLE
  2
LTYPE
  5
4
100
AcDbSymbolTable
 70
     9
  0
LTYPE
  5
11
100
AcDbSymbolTableRecord
100
AcDbLinetypeTableRecord
  2
BYBLOCK
 70
    64
  3

 72
    65
 73
     0
 40
0.0
  0
LTYPE
  5
12
100
AcDbSymbolTableRecord
100
AcDbLinetypeTableRecord
  2
BYLAYER
 70
    64
  3

 72
    65
 73
     0
 40
0.0
  0
LTYPE
  5
13
100
AcDbSymbolTableRecord
100
AcDbLinetypeTableRecord
  2
CONTINUOUS
 70
    64
  3
実線
 72
    65
 73
     0
 40
0.0
  0
LTYPE
  5
1D
100
AcDbSymbolTableRecord
100
AcDbLinetypeTableRecord
  2
EXLTYPE1
 70
    64
  3
破線
 72
    65
 73
     2
 40
3.0
 49
2.0
 74
     0
 49
-1.0
 74
     0
  0
LTYPE
  5
1E
100
AcDbSymbolTableRecord
100
AcDbLinetypeTableRecord
  2
EXLTYPE2
 70
    64
  3
点線
 72
    65
 73
     2
 40
2.0
 49
1.0
 74
     0
 49
-1.0
 74
     0
  0
LTYPE
  5
1F
100
AcDbSymbolTableRecord
100
AcDbLinetypeTableRecord
  2
EXLTYPE3
 70
    64
  3
一点鎖線
 72
    65
 73
     4
 40
10.0
 49
7.0
 74
     0
 49
-1.0
 74
     0
 49
1.0
 74
     0
 49
-1.0
 74
     0
  0
LTYPE
  5
20
100
AcDbSymbolTableRecord
100
AcDbLinetypeTableRecord
  2
EXLTYPE4
 70
    64
  3
二点鎖線
 72
    65
 73
     6
 40
12.0
 49
7.0
 74
     0
 49
-1.0
 74
     0
 49
1.0
 74
     0
 49
-1.0
 74
     0
 49
1.0
 74
     0
 49
-1.0
 74
     0
  0
LTYPE
  5
21
100
AcDbSymbolTableRecord
100
AcDbLinetypeTableRecord
  2
EXLTYPE5
 70
    64
  3
三点鎖線
 72
    65
 73
     8
 40
37.0
 49
30.0
 74
     0
 49
-1.0
 74
     0
 49
1.0
 74
     0
 49
-1.0
 74
     0
 49
1.0
 74
     0
 49
-1.0
 74
     0
 49
1.0
 74
     0
 49
-1.0
 74
     0
  0
LTYPE
  5
22
100
AcDbSymbolTableRecord
100
AcDbLinetypeTableRecord
  2
EXLTYPE6
 70
    64
  3
四点鎖線
 72
    65
 73
    10
 40
39.0
 49
30.0
 74
     0
 49
-1.0
 74
     0
 49
1.0
 74
     0
 49
-1.0
 74
     0
 49
1.0
 74
     0
 49
-1.0
 74
     0
 49
1.0
 74
     0
 49
-1.0
 74
     0
 49
1.0
 74
     0
 49
-1.0
 74
     0
  0
ENDTAB
  0
TABLE
  2
LAYER
  5
2
100
AcDbSymbolTable
 70
     7
  0
LAYER
  5
14
100
AcDbSymbolTableRecord
100
AcDbLayerTableRecord
  2
0
 70
     0
 62
     7
  6
CONTINUOUS
  0
LAYER
  5
25
100
AcDbSymbolTableRecord
100
AcDbLayerTableRecord
  2
枠_
 70
    64
 62
     7
  6
CONTINUOUS
  0
LAYER
  5
26
100
AcDbSymbolTableRecord
100
AcDbLayerTableRecord
  2
洗面器
 70
    64
 62
     7
  6
CONTINUOUS
  0
LAYER
  5
27
100
AcDbSymbolTableRecord
100
AcDbLayerTableRecord
  2
水栓
 70
    64
 62
     7
  6
CONTINUOUS
  0
LAYER
  5
28
100
AcDbSymbolTableRecord
100
AcDbLayerTableRecord
  2
トラップ
 70
    64
 62
     7
  6
CONTINUOUS
  0
LAYER
  5
29
100
AcDbSymbolTableRecord
100
AcDbLayerTableRecord
  2
寸法
 70
    64
 62
     7
  6
CONTINUOUS
  0
LAYER
  5
2A
100
AcDbSymbolTableRecord
100
AcDbLayerTableRecord
  2
器具明細表
 70
    64
 62
     7
  6
CONTINUOUS
  0
ENDTAB
  0
TABLE
  2
STYLE
  5
3
100
AcDbSymbolTable
 70
     3
  0
STYLE
  5
17
100
AcDbSymbolTableRecord
100
AcDbTextStyleTableRecord
  2
STANDARD
 70
     0
 40
0.0
 41
1.0
 50
0.0
 71
     0
 42
0.0
  3
monotxt
  4
extfont
  0
STYLE
  5
23
100
AcDbSymbolTableRecord
100
AcDbTextStyleTableRecord
  2
EXCADSTD
 70
    64
 40
0.0
 41
1.0
 50
0.0
 71
     0
 42
0.2
  3
monotxt
  4
extfont
  0
STYLE
  5
24
100
AcDbSymbolTableRecord
100
AcDbTextStyleTableRecord
  2
EXCADVERT
 70
    68
 40
0.0
 41
1.0
 50
0.0
 71
     0
 42
0.286885
  3
monotxt
  4
extfont
  0
ENDTAB
  0
TABLE
  2
VIEW
  5
5
100
AcDbSymbolTable
 70
     0
  0
ENDTAB
  0
TABLE
  2
UCS
  5
6
100
AcDbSymbolTable
 70
     0
  0
ENDTAB
  0
TABLE
  2
APPID
  5
8
100
AcDbSymbolTable
 70
     1
  0
APPID
  5
16
100
AcDbSymbolTableRecord
100
AcDbRegAppTableRecord
  2
ACAD
 70
     0
  0
ENDTAB
  0
TABLE
  2
DIMSTYLE
  5
9
100
AcDbSymbolTable
 70
     1
  0
DIMSTYLE
105
18
100
AcDbSymbolTableRecord
100
AcDbDimStyleTableRecord
  2
STANDARD
 70
     0
  3

  4

  5

  6

  7

 40
1.0
 41
0.18
 42
0.0625
 43
0.38
 44
0.18
 45
0.0
 46
0.0
 47
0.0
 48
0.0
 71
     0
 72
     0
 73
     1
 74
     1
 75
     0
 76
     0
 77
     0
 78
     0
140
0.18
141
0.09
142
0.0
143
25.4
144
1.0
145
0.0
146
1.0
147
0.09
170
     0
171
     2
172
     1
173
     0
174
     0
175
     0
176
     0
177
     0
178
     0
270
     2
271
     4
272
     4
273
     2
274
     2
275
     0
280
     0
281
     0
282
     0
283
     1
284
     0
285
     0
286
     0
287
     0
288
     0
340
17
  0
ENDTAB
  0
TABLE
  2
BLOCK_RECORD
  5
1
100
AcDbSymbolTable
 70
    14
  0
BLOCK_RECORD
  5
A
100
AcDbSymbolTableRecord
100
AcDbBlockTableRecord
  2
*MODEL_SPACE
  0
BLOCK_RECORD
  5
B
100
AcDbSymbolTableRecord
100
AcDbBlockTableRecord
  2
*PAPER_SPACE
  0
BLOCK_RECORD
  5
2B
100
AcDbSymbolTableRecord
100
AcDbBlockTableRecord
  2
_EX_NORM
  0
BLOCK_RECORD
  5
2C
100
AcDbSymbolTableRecord
100
AcDbBlockTableRecord
  2
_EX_BNORM
  0
BLOCK_RECORD
  5
2D
100
AcDbSymbolTableRecord
100
AcDbBlockTableRecord
  2
_EX_BCIR
  0
BLOCK_RECORD
  5
2E
100
AcDbSymbolTableRecord
100
AcDbBlockTableRecord
  2
_EX_RCIVIL
  0
BLOCK_RECORD
  5
2F
100
AcDbSymbolTableRecord
100
AcDbBlockTableRecord
  2
_EX_SLANT
  0
BLOCK_RECORD
  5
30
100
AcDbSymbolTableRecord
100
AcDbBlockTableRecord
  2
_EX_NONE
  0
BLOCK_RECORD
  5
31
100
AcDbSymbolTableRecord
100
AcDbBlockTableRecord
  2
_EX_CIVIL
  0
BLOCK_RECORD
  5
32
100
AcDbSymbolTableRecord
100
AcDbBlockTableRecord
  2
_EX_WCIR
  0
BLOCK_RECORD
  5
33
100
AcDbSymbolTableRecord
100
AcDbBlockTableRecord
  2
_EX_WCIR2
  0
BLOCK_RECORD
  5
34
100
AcDbSymbolTableRecord
100
AcDbBlockTableRecord
  2
_EX_WNORM
  0
BLOCK_RECORD
  5
35
100
AcDbSymbolTableRecord
100
AcDbBlockTableRecord
  2
_EX_NNORM
  0
BLOCK_RECORD
  5
36
100
AcDbSymbolTableRecord
100
AcDbBlockTableRecord
  2
_EX_BBOX
  0
BLOCK_RECORD
  5
37
100
AcDbSymbolTableRecord
100
AcDbBlockTableRecord
  2
_EX_WBOX
  0
BLOCK_RECORD
  5
38
100
AcDbSymbolTableRecord
100
AcDbBlockTableRecord
  2
_EX_INTEGRAL
  0
ENDTAB
  0
ENDSEC
  0
SECTION
  2
BLOCKS
  0
BLOCK
  5
D
100
AcDbEntity
  8
0
100
AcDbBlockBegin
  2
*MODEL_SPACE
 70
     0
 10
0.0
 20
0.0
 30
0.0
  3
*MODEL_SPACE
  1

  0
ENDBLK
  5
E
100
AcDbEntity
  8
0
100
AcDbBlockEnd
  0
BLOCK
  5
F
100
AcDbEntity
 67
     1
  8
0
100
AcDbBlockBegin
  2
*PAPER_SPACE
 70
     0
 10
0.0
 20
0.0
 30
0.0
  3
*PAPER_SPACE
  1

  0
ENDBLK
  5
10
100
AcDbEntity
 67
     1
  8
0
100
AcDbBlockEnd
  0
BLOCK
  5
39
100
AcDbEntity
  8
0
100
AcDbBlockBegin
  2
_EX_NORM
 70
     0
 10
0.0
 20
0.0
 30
0.0
  3
_EX_NORM
  1

  0
LINE
  5
3A
100
AcDbEntity
  8
0
  6
CONTINUOUS
 62
     0
100
AcDbLine
 10
0.0
 20
0.0
 30
0.0
 11
-1.0
 21
0.0
 31
0.0
  0
LINE
  5
3B
100
AcDbEntity
  8
0
  6
CONTINUOUS
 62
     0
100
AcDbLine
 10
0.0
 20
0.0
 30
0.0
 11
-1.0
 21
0.166667
 31
0.0
  0
LINE
  5
3C
100
AcDbEntity
  8
0
  6
CONTINUOUS
 62
     0
100
AcDbLine
 10
0.0
 20
0.0
 30
0.0
 11
-1.0
 21
-0.166667
 31
0.0
  0
ENDBLK
  5
3D
100
AcDbEntity
  8
0
100
AcDbBlockEnd
  0
BLOCK
  5
3E
100
AcDbEntity
  8
0
100
AcDbBlockBegin
  2
_EX_BNORM
 70
     0
 10
0.0
 20
0.0
 30
0.0
  3
_EX_BNORM
  1

  0
LINE
  5
3F
100
AcDbEntity
  8
0
  6
CONTINUOUS
 62
     0
100
AcDbLine
 10
0.0
 20
0.0
 30
0.0
 11
-1.0
 21
0.0
 31
0.0
  0
LINE
  5
40
100
AcDbEntity
  8
0
  6
CONTINUOUS
 62
     0
100
AcDbLine
 10
0.0
 20
0.0
 30
0.0
 11
-1.0
 21
0.166667
 31
0.0
  0
LINE
  5
41
100
AcDbEntity
  8
0
  6
CONTINUOUS
 62
     0
100
AcDbLine
 10
0.0
 20
0.0
 30
0.0
 11
-1.0
 21
-0.166667
 31
0.0
  0
LINE
  5
42
100
AcDbEntity
  8
0
  6
CONTINUOUS
 62
     0
100
AcDbLine
 10
0.0
 20
0.0
 30
0.0
 11
-1.0
 21
0.083333
 31
0.0
  0
LINE
  5
43
100
AcDbEntity
  8
0
  6
CONTINUOUS
 62
     0
100
AcDbLine
 10
0.0
 20
0.0
 30
0.0
 11
-1.0
 21
-0.083333
 31
0.0
  0
LINE
  5
44
100
AcDbEntity
  8
0
  6
CONTINUOUS
 62
     0
100
AcDbLine
 10
-1.0
 20
0.166667
 30
0.0
 11
-1.0
 21
-0.166667
 31
0.0
  0
ENDBLK
  5
45
100
AcDbEntity
  8
0
100
AcDbBlockEnd
  0
BLOCK
  5
46
100
AcDbEntity
  8
0
100
AcDbBlockBegin
  2
_EX_BCIR
 70
     0
 10
0.0
 20
0.0
 30
0.0
  3
_EX_BCIR
  1

  0
LINE
  5
47
100
AcDbEntity
  8
0
  6
CONTINUOUS
 62
     0
100
AcDbLine
 10
0.0
 20
0.0
 30
0.0
 11
-1.0
 21
0.0
 31
0.0
  0
CIRCLE
  5
48
100
AcDbEntity
  8
0
  6
CONTINUOUS
 62
     0
100
AcDbCircle
 10
0.0
 20
0.0
 30
0.0
 40
0.5
  0
CIRCLE
  5
49
100
AcDbEntity
  8
0
  6
CONTINUOUS
 62
     0
100
AcDbCircle
 10
0.0
 20
0.0
 30
0.0
 40
0.25
  0
ENDBLK
  5
4A
100
AcDbEntity
  8
0
100
AcDbBlockEnd
  0
BLOCK
  5
4B
100
AcDbEntity
  8
0
100
AcDbBlockBegin
  2
_EX_RCIVIL
 70
     0
 10
0.0
 20
0.0
 30
0.0
  3
_EX_RCIVIL
  1

  0
LINE
  5
4C
100
AcDbEntity
  8
0
  6
CONTINUOUS
 62
     0
100
AcDbLine
 10
0.0
 20
0.0
 30
0.0
 11
-1.0
 21
0.0
 31
0.0
  0
LINE
  5
4D
100
AcDbEntity
  8
0
  6
CONTINUOUS
 62
     0
100
AcDbLine
 10
-1.0
 20
-0.25
 30
0.0
 11
0.0
 21
-0.25
 31
0.0
  0
LINE
  5
4E
100
AcDbEntity
  8
0
  6
CONTINUOUS
 62
     0
100
AcDbLine
 10
-1.0
 20
-0.125
 30
0.0
 11
0.0
 21
-0.125
 31
0.0
  0
ENDBLK
  5
4F
100
AcDbEntity
  8
0
100
AcDbBlockEnd
  0
BLOCK
  5
50
100
AcDbEntity
  8
0
100
AcDbBlockBegin
  2
_EX_SLANT
 70
     0
 10
0.0
 20
0.0
 30
0.0
  3
_EX_SLANT
  1

  0
LINE
  5
51
100
AcDbEntity
  8
0
  6
CONTINUOUS
 62
     0
100
AcDbLine
 10
0.0
 20
0.0
 30
0.0
 11
-1.0
 21
0.0
 31
0.0
  0
LINE
  5
52
100
AcDbEntity
  8
0
  6
CONTINUOUS
 62
     0
100
AcDbLine
 10
0.707107
 20
0.707107
 30
0.0
 11
-0.707107
 21
-0.707107
 31
0.0
  0
ENDBLK
  5
53
100
AcDbEntity
  8
0
100
AcDbBlockEnd
  0
BLOCK
  5
54
100
AcDbEntity
  8
0
100
AcDbBlockBegin
  2
_EX_NONE
 70
     0
 10
0.0
 20
0.0
 30
0.0
  3
_EX_NONE
  1

  0
LINE
  5
55
100
AcDbEntity
  8
0
  6
CONTINUOUS
 62
     0
100
AcDbLine
 10
0.0
 20
0.0
 30
0.0
 11
-1.0
 21
0.0
 31
0.0
  0
ENDBLK
  5
56
100
AcDbEntity
  8
0
100
AcDbBlockEnd
  0
BLOCK
  5
57
100
AcDbEntity
  8
0
100
AcDbBlockBegin
  2
_EX_CIVIL
 70
     0
 10
0.0
 20
0.0
 30
0.0
  3
_EX_CIVIL
  1

  0
LINE
  5
58
100
AcDbEntity
  8
0
  6
CONTINUOUS
 62
     0
100
AcDbLine
 10
0.0
 20
0.0
 30
0.0
 11
-1.0
 21
0.0
 31
0.0
  0
LINE
  5
59
100
AcDbEntity
  8
0
  6
CONTINUOUS
 62
     0
100
AcDbLine
 10
-1.0
 20
0.25
 30
0.0
 11
0.0
 21
0.25
 31
0.0
  0
LINE
  5
5A
100
AcDbEntity
  8
0
  6
CONTINUOUS
 62
     0
100
AcDbLine
 10
-1.0
 20
0.125
 30
0.0
 11
0.0
 21
0.125
 31
0.0
  0
ENDBLK
  5
5B
100
AcDbEntity
  8
0
100
AcDbBlockEnd
  0
BLOCK
  5
5C
100
AcDbEntity
  8
0
100
AcDbBlockBegin
  2
_EX_WCIR
 70
     0
 10
0.0
 20
0.0
 30
0.0
  3
_EX_WCIR
  1

  0
LINE
  5
5D
100
AcDbEntity
  8
0
  6
CONTINUOUS
 62
     0
100
AcDbLine
 10
0.0
 20
0.0
 30
0.0
 11
-1.0
 21
0.0
 31
0.0
  0
CIRCLE
  5
5E
100
AcDbEntity
  8
0
  6
CONTINUOUS
 62
     0
100
AcDbCircle
 10
0.0
 20
0.0
 30
0.0
 40
0.5
  0
ENDBLK
  5
5F
100
AcDbEntity
  8
0
100
AcDbBlockEnd
  0
BLOCK
  5
60
100
AcDbEntity
  8
0
100
AcDbBlockBegin
  2
_EX_WCIR2
 70
     0
 10
0.0
 20
0.0
 30
0.0
  3
_EX_WCIR2
  1

  0
LINE
  5
61
100
AcDbEntity
  8
0
  6
CONTINUOUS
 62
     0
100
AcDbLine
 10
-0.5
 20
0.0
 30
0.0
 11
-1.0
 21
0.0
 31
0.0
  0
CIRCLE
  5
62
100
AcDbEntity
  8
0
  6
CONTINUOUS
 62
     0
100
AcDbCircle
 10
0.0
 20
0.0
 30
0.0
 40
0.5
  0
ENDBLK
  5
63
100
AcDbEntity
  8
0
100
AcDbBlockEnd
  0
BLOCK
  5
64
100
AcDbEntity
  8
0
100
AcDbBlockBegin
  2
_EX_WNORM
 70
     0
 10
0.0
 20
0.0
 30
0.0
  3
_EX_WNORM
  1

  0
LINE
  5
65
100
AcDbEntity
  8
0
  6
CONTINUOUS
 62
     0
100
AcDbLine
 10
-1.0
 20
0.0
 30
0.0
 11
-1.0
 21
0.0
 31
0.0
  0
LINE
  5
66
100
AcDbEntity
  8
0
  6
CONTINUOUS
 62
     0
100
AcDbLine
 10
0.0
 20
0.0
 30
0.0
 11
-1.0
 21
0.166667
 31
0.0
  0
LINE
  5
67
100
AcDbEntity
  8
0
  6
CONTINUOUS
 62
     0
100
AcDbLine
 10
0.0
 20
0.0
 30
0.0
 11
-1.0
 21
-0.166667
 31
0.0
  0
LINE
  5
68
100
AcDbEntity
  8
0
  6
CONTINUOUS
 62
     0
100
AcDbLine
 10
-1.0
 20
0.166667
 30
0.0
 11
-1.0
 21
-0.166667
 31
0.0
  0
ENDBLK
  5
69
100
AcDbEntity
  8
0
100
AcDbBlockEnd
  0
BLOCK
  5
6A
100
AcDbEntity
  8
0
100
AcDbBlockBegin
  2
_EX_NNORM
 70
     0
 10
0.0
 20
0.0
 30
0.0
  3
_EX_NNORM
  1

  0
LINE
  5
6B
100
AcDbEntity
  8
0
  6
CONTINUOUS
 62
     0
100
AcDbLine
 10
0.0
 20
0.0
 30
0.0
 11
-1.0
 21
0.0
 31
0.0
  0
LINE
  5
6C
100
AcDbEntity
  8
0
  6
CONTINUOUS
 62
     0
100
AcDbLine
 10
0.0
 20
0.0
 30
0.0
 11
-1.0
 21
0.166667
 31
0.0
  0
LINE
  5
6D
100
AcDbEntity
  8
0
  6
CONTINUOUS
 62
     0
100
AcDbLine
 10
0.0
 20
0.0
 30
0.0
 11
-1.0
 21
-0.166667
 31
0.0
  0
LINE
  5
6E
100
AcDbEntity
  8
0
  6
CONTINUOUS
 62
     0
100
AcDbLine
 10
-1.0
 20
0.166667
 30
0.0
 11
-1.0
 21
-0.166667
 31
0.0
  0
ENDBLK
  5
6F
100
AcDbEntity
  8
0
100
AcDbBlockEnd
  0
BLOCK
  5
70
100
AcDbEntity
  8
0
100
AcDbBlockBegin
  2
_EX_BBOX
 70
     0
 10
0.0
 20
0.0
 30
0.0
  3
_EX_BBOX
  1

  0
LINE
  5
71
100
AcDbEntity
  8
0
  6
CONTINUOUS
 62
     0
100
AcDbLine
 10
0.0
 20
0.0
 30
0.0
 11
-1.0
 21
0.0
 31
0.0
  0
LINE
  5
72
100
AcDbEntity
  8
0
  6
CONTINUOUS
 62
     0
100
AcDbLine
 10
-0.5
 20
0.5
 30
0.0
 11
0.5
 21
0.5
 31
0.0
  0
LINE
  5
73
100
AcDbEntity
  8
0
  6
CONTINUOUS
 62
     0
100
AcDbLine
 10
0.5
 20
0.5
 30
0.0
 11
0.5
 21
-0.5
 31
0.0
  0
LINE
  5
74
100
AcDbEntity
  8
0
  6
CONTINUOUS
 62
     0
100
AcDbLine
 10
0.5
 20
-0.5
 30
0.0
 11
-0.5
 21
-0.5
 31
0.0
  0
LINE
  5
75
100
AcDbEntity
  8
0
  6
CONTINUOUS
 62
     0
100
AcDbLine
 10
-0.5
 20
-0.5
 30
0.0
 11
-0.5
 21
0.5
 31
0.0
  0
LINE
  5
76
100
AcDbEntity
  8
0
  6
CONTINUOUS
 62
     0
100
AcDbLine
 10
-0.25
 20
0.25
 30
0.0
 11
0.25
 21
0.25
 31
0.0
  0
LINE
  5
77
100
AcDbEntity
  8
0
  6
CONTINUOUS
 62
     0
100
AcDbLine
 10
0.25
 20
0.25
 30
0.0
 11
0.25
 21
-0.25
 31
0.0
  0
LINE
  5
78
100
AcDbEntity
  8
0
  6
CONTINUOUS
 62
     0
100
AcDbLine
 10
0.25
 20
-0.25
 30
0.0
 11
-0.25
 21
-0.25
 31
0.0
  0
LINE
  5
79
100
AcDbEntity
  8
0
  6
CONTINUOUS
 62
     0
100
AcDbLine
 10
-0.25
 20
-0.25
 30
0.0
 11
-0.25
 21
0.25
 31
0.0
  0
ENDBLK
  5
7A
100
AcDbEntity
  8
0
100
AcDbBlockEnd
  0
BLOCK
  5
7B
100
AcDbEntity
  8
0
100
AcDbBlockBegin
  2
_EX_WBOX
 70
     0
 10
0.0
 20
0.0
 30
0.0
  3
_EX_WBOX
  1

  0
LINE
  5
7C
100
AcDbEntity
  8
0
  6
CONTINUOUS
 62
     0
100
AcDbLine
 10
-0.5
 20
0.0
 30
0.0
 11
-1.0
 21
0.0
 31
0.0
  0
LINE
  5
7D
100
AcDbEntity
  8
0
  6
CONTINUOUS
 62
     0
100
AcDbLine
 10
-0.5
 20
0.5
 30
0.0
 11
0.5
 21
0.5
 31
0.0
  0
LINE
  5
7E
100
AcDbEntity
  8
0
  6
CONTINUOUS
 62
     0
100
AcDbLine
 10
0.5
 20
0.5
 30
0.0
 11
0.5
 21
-0.5
 31
0.0
  0
LINE
  5
7F
100
AcDbEntity
  8
0
  6
CONTINUOUS
 62
     0
100
AcDbLine
 10
0.5
 20
-0.5
 30
0.0
 11
-0.5
 21
-0.5
 31
0.0
  0
LINE
  5
80
100
AcDbEntity
  8
0
  6
CONTINUOUS
 62
     0
100
AcDbLine
 10
-0.5
 20
-0.5
 30
0.0
 11
-0.5
 21
0.5
 31
0.0
  0
ENDBLK
  5
81
100
AcDbEntity
  8
0
100
AcDbBlockEnd
  0
BLOCK
  5
82
100
AcDbEntity
  8
0
100
AcDbBlockBegin
  2
_EX_INTEGRAL
 70
     0
 10
0.0
 20
0.0
 30
0.0
  3
_EX_INTEGRAL
  1

  0
LINE
  5
83
100
AcDbEntity
  8
0
  6
CONTINUOUS
 62
     0
100
AcDbLine
 10
0.0
 20
0.0
 30
0.0
 11
-1.0
 21
0.0
 31
0.0
  0
ARC
  5
84
100
AcDbEntity
  8
0
  6
CONTINUOUS
 62
     0
100
AcDbCircle
 10
0.542115
 20
0.164992
 30
0.0
 40
0.56667
100
AcDbArc
 50
73.07249
 51
196.927513
  0
ARC
  5
85
100
AcDbEntity
  8
0
  6
CONTINUOUS
 62
     0
100
AcDbCircle
 10
-0.542115
 20
-0.164992
 30
0.0
 40
0.56667
100
AcDbArc
 50
253.072487
 51
16.927513
  0
ENDBLK
  5
86
100
AcDbEntity
  8
0
100
AcDbBlockEnd
  0
ENDSEC
  0
SECTION
  2
ENTITIES
  0
TEXT
  5
87
100
AcDbEntity
  8
洗面器
  6
CONTINUOUS
 62
     2
100
AcDbText
 10
588.985305
 20
2495.5
 30
0.0
 40
40.0
  1
１１０
 41
0.833
  7
EXCADSTD
 72
     5
 11
707.985305
 21
2495.5
 31
0.0
100
AcDbText
  0
LINE
  5
88
100
AcDbEntity
  8
洗面器
  6
CONTINUOUS
 62
     3
100
AcDbLine
 10
593.485305
 20
2492.0
 30
0.0
 11
703.485305
 21
2492.0
 31
0.0
  0
LINE
  5
89
100
AcDbEntity
  8
洗面器
  6
CONTINUOUS
 62
     3
100
AcDbLine
 10
628.485305
 20
2497.833333
 30
0.0
 11
593.485305
 21
2492.0
 31
0.0
  0
LINE
  5
8A
100
AcDbEntity
  8
洗面器
  6
CONTINUOUS
 62
     3
100
AcDbLine
 10
593.485305
 20
2492.0
 30
0.0
 11
628.485305
 21
2486.166667
 31
0.0
  0
LINE
  5
8B
100
AcDbEntity
  8
洗面器
  6
CONTINUOUS
 62
     3
100
AcDbLine
 10
668.485305
 20
2486.166667
 30
0.0
 11
703.485305
 21
2492.0
 31
0.0
  0
LINE
  5
8C
100
AcDbEntity
  8
洗面器
  6
CONTINUOUS
 62
     3
100
AcDbLine
 10
703.485305
 20
2492.0
 30
0.0
 11
668.485305
 21
2497.833333
 31
0.0
  0
TEXT
  5
8D
100
AcDbEntity
  8
洗面器
  6
CONTINUOUS
 62
     2
100
AcDbText
 10
844.884375
 20
2230.690913
 30
0.0
 40
40.0
  1
２５０
 50
90.0
 41
0.833
  7
EXCADSTD
 72
     5
 11
844.884375
 21
2349.690913
 31
0.0
100
AcDbText
  0
LINE
  5
8E
100
AcDbEntity
  8
洗面器
  6
CONTINUOUS
 62
     3
100
AcDbLine
 10
848.384375
 20
2415.190918
 30
0.0
 11
848.384375
 21
2165.190909
 31
0.0
  0
LINE
  5
8F
100
AcDbEntity
  8
洗面器
  6
CONTINUOUS
 62
     3
100
AcDbLine
 10
854.217708
 20
2380.190918
 30
0.0
 11
848.384375
 21
2415.190918
 31
0.0
  0
LINE
  5
90
100
AcDbEntity
  8
洗面器
  6
CONTINUOUS
 62
     3
100
AcDbLine
 10
848.384375
 20
2415.190918
 30
0.0
 11
842.551042
 21
2380.190918
 31
0.0
  0
LINE
  5
91
100
AcDbEntity
  8
洗面器
  6
CONTINUOUS
 62
     3
100
AcDbLine
 10
842.551042
 20
2200.190909
 30
0.0
 11
848.384375
 21
2165.190909
 31
0.0
  0
LINE
  5
92
100
AcDbEntity
  8
洗面器
  6
CONTINUOUS
 62
     3
100
AcDbLine
 10
848.384375
 20
2165.190909
 30
0.0
 11
854.217708
 21
2200.190909
 31
0.0
  0
TEXT
  5
93
100
AcDbEntity
  8
洗面器
  6
CONTINUOUS
 62
     2
100
AcDbText
 10
588.984253
 20
2093.690908
 30
0.0
 40
40.0
  1
１８０
 41
0.833
  7
EXCADSTD
 72
     5
 11
707.984253
 21
2093.690908
 31
0.0
100
AcDbText
  0
LINE
  5
94
100
AcDbEntity
  8
洗面器
  6
CONTINUOUS
 62
     3
100
AcDbLine
 10
738.484253
 20
2090.190909
 30
0.0
 11
558.484253
 21
2090.190909
 31
0.0
  0
LINE
  5
95
100
AcDbEntity
  8
洗面器
  6
CONTINUOUS
 62
     3
100
AcDbLine
 10
703.484253
 20
2084.357575
 30
0.0
 11
738.484253
 21
2090.190909
 31
0.0
  0
LINE
  5
96
100
AcDbEntity
  8
洗面器
  6
CONTINUOUS
 62
     3
100
AcDbLine
 10
738.484253
 20
2090.190909
 30
0.0
 11
703.484253
 21
2096.024242
 31
0.0
  0
LINE
  5
97
100
AcDbEntity
  8
洗面器
  6
CONTINUOUS
 62
     3
100
AcDbLine
 10
593.484253
 20
2096.024242
 30
0.0
 11
558.484253
 21
2090.190909
 31
0.0
  0
LINE
  5
98
100
AcDbEntity
  8
洗面器
  6
CONTINUOUS
 62
     3
100
AcDbLine
 10
558.484253
 20
2090.190909
 30
0.0
 11
593.484253
 21
2084.357575
 31
0.0
  0
TEXT
  5
99
100
AcDbEntity
  8
洗面器
  6
CONTINUOUS
 62
     2
100
AcDbText
 10
588.984406
 20
2033.690908
 30
0.0
 40
40.0
  1
２５０
 41
0.833
  7
EXCADSTD
 72
     5
 11
707.984405
 21
2033.690908
 31
0.0
100
AcDbText
  0
LINE
  5
9A
100
AcDbEntity
  8
洗面器
  6
CONTINUOUS
 62
     3
100
AcDbLine
 10
523.584436
 20
2030.190909
 30
0.0
 11
773.384375
 21
2030.190909
 31
0.0
  0
LINE
  5
9B
100
AcDbEntity
  8
洗面器
  6
CONTINUOUS
 62
     3
100
AcDbLine
 10
558.584436
 20
2036.024242
 30
0.0
 11
523.584436
 21
2030.190909
 31
0.0
  0
LINE
  5
9C
100
AcDbEntity
  8
洗面器
  6
CONTINUOUS
 62
     3
100
AcDbLine
 10
523.584436
 20
2030.190909
 30
0.0
 11
558.584436
 21
2024.357575
 31
0.0
  0
LINE
  5
9D
100
AcDbEntity
  8
洗面器
  6
CONTINUOUS
 62
     3
100
AcDbLine
 10
738.384375
 20
2024.357575
 30
0.0
 11
773.384375
 21
2030.190909
 31
0.0
  0
LINE
  5
9E
100
AcDbEntity
  8
洗面器
  6
CONTINUOUS
 62
     3
100
AcDbLine
 10
773.384375
 20
2030.190909
 30
0.0
 11
738.384375
 21
2036.024242
 31
0.0
  0
TEXT
  5
9F
100
AcDbEntity
  8
洗面器
  6
CONTINUOUS
 62
     2
100
AcDbText
 10
844.884375
 20
1267.023743
 30
0.0
 40
40.0
  1
１４０
 50
90.0
 41
0.833
  7
EXCADSTD
 72
     5
 11
844.884375
 21
1386.023743
 31
0.0
100
AcDbText
  0
LINE
  5
A0
100
AcDbEntity
  8
洗面器
  6
CONTINUOUS
 62
     3
100
AcDbLine
 10
848.384375
 20
1256.523743
 30
0.0
 11
848.384375
 21
1396.523743
 31
0.0
  0
LINE
  5
A1
100
AcDbEntity
  8
洗面器
  6
CONTINUOUS
 62
     3
100
AcDbLine
 10
842.551042
 20
1291.523743
 30
0.0
 11
848.384375
 21
1256.523743
 31
0.0
  0
LINE
  5
A2
100
AcDbEntity
  8
洗面器
  6
CONTINUOUS
 62
     3
100
AcDbLine
 10
848.384375
 20
1256.523743
 30
0.0
 11
854.217708
 21
1291.523743
 31
0.0
  0
LINE
  5
A3
100
AcDbEntity
  8
洗面器
  6
CONTINUOUS
 62
     3
100
AcDbLine
 10
854.217708
 20
1361.523743
 30
0.0
 11
848.384375
 21
1396.523743
 31
0.0
  0
LINE
  5
A4
100
AcDbEntity
  8
洗面器
  6
CONTINUOUS
 62
     3
100
AcDbLine
 10
848.384375
 20
1396.523743
 30
0.0
 11
842.551042
 21
1361.523743
 31
0.0
  0
TEXT
  5
A5
100
AcDbEntity
  8
洗面器
  6
CONTINUOUS
 62
     2
100
AcDbText
 10
844.884375
 20
1464.523697
 30
0.0
 40
40.0
  1
４０
 50
90.0
 41
0.861
  7
EXCADSTD
 72
     5
 11
844.884375
 21
1539.684897
 31
0.0
100
AcDbText
  0
TEXT
  5
A6
100
AcDbEntity
  8
洗面器
  6
CONTINUOUS
 62
     2
100
AcDbText
 10
1733.32785
 20
1468.523903
 30
0.0
 40
40.0
  1
２０
 50
90.0
 41
0.861
  7
EXCADSTD
 72
     5
 11
1733.32785
 21
1543.685103
 31
0.0
100
AcDbText
  0
LINE
  5
A7
100
AcDbEntity
  8
洗面器
  6
CONTINUOUS
 62
     3
100
AcDbLine
 10
1736.82785
 20
1371.523912
 30
0.0
 11
1736.82785
 21
1536.000004
 31
0.0
  0
LINE
  5
A8
100
AcDbEntity
  8
洗面器
  6
CONTINUOUS
 62
     3
100
AcDbLine
 10
1742.661184
 20
1381.523912
 30
0.0
 11
1736.82785
 21
1416.523912
 31
0.0
  0
LINE
  5
A9
100
AcDbEntity
  8
洗面器
  6
CONTINUOUS
 62
     3
100
AcDbLine
 10
1736.82785
 20
1416.523912
 30
0.0
 11
1730.994517
 21
1381.523912
 31
0.0
  0
LINE
  5
AA
100
AcDbEntity
  8
洗面器
  6
CONTINUOUS
 62
     3
100
AcDbLine
 10
1730.994517
 20
1471.523895
 30
0.0
 11
1736.82785
 21
1436.523895
 31
0.0
  0
LINE
  5
AB
100
AcDbEntity
  8
洗面器
  6
CONTINUOUS
 62
     3
100
AcDbLine
 10
1736.82785
 20
1436.523895
 30
0.0
 11
1742.661184
 21
1471.523895
 31
0.0
  0
LEADER
  5
AC
100
AcDbEntity
  8
洗面器
  6
CONTINUOUS
 62
     6
100
AcDbLeader
  3
STANDARD
 73
     3
 74
     1
 75
     0
 40
0.0
 76
     2
 10
707.235321
 20
1423.018933
 30
0.0
 10
788.215944
 20
1563.281487
 30
0.0
 77
     6
1001
ACAD
1000
DSTYLE
1002
{
1070
    41
1040
35.0
1070
     5
1000
_EX_NORM
1070
     6
1000
_EX_NORM
1070
     7
1000
_EX_NORM
1070
   341
1005
2B
1002
}
  0
LEADER
  5
AD
100
AcDbEntity
  8
水栓
  6
CONTINUOUS
 62
     6
100
AcDbLeader
  3
STANDARD
 73
     3
 74
     1
 75
     0
 40
0.0
 76
     2
 10
1541.251646
 20
1549.401717
 30
0.0
 10
1431.929492
 20
1612.518893
 30
0.0
 77
     6
1001
ACAD
1000
DSTYLE
1002
{
1070
    41
1040
35.0
1070
     5
1000
_EX_NORM
1070
     6
1000
_EX_NORM
1070
     7
1000
_EX_NORM
1070
   341
1005
2B
1002
}
  0
POLYLINE
  5
AE
100
AcDbEntity
  8
水栓
  6
CONTINUOUS
 62
     6
100
AcDb2dPolyline
 66
     1
 10
0.0
 20
0.0
 30
0.0
 70
   128
  0
VERTEX
  5
AF
100
AcDbEntity
  8
水栓
  6
CONTINUOUS
 62
     6
100
AcDbVertex
100
AcDb2dVertex
 10
1666.97154
 20
1557.001395
 30
0.0
  0
VERTEX
  5
B0
100
AcDbEntity
  8
水栓
  6
CONTINUOUS
 62
     6
100
AcDbVertex
100
AcDb2dVertex
 10
1695.107944
 20
1605.735077
 30
0.0
  0
SEQEND
  5
B1
100
AcDbEntity
  8
水栓
  6
CONTINUOUS
 62
     6
  0
LINE
  5
B2
100
AcDbEntity
  8
水栓
  6
CONTINUOUS
 62
     6
100
AcDbLine
 10
1679.419725
 20
1590.228951
 30
0.0
 11
1666.97154
 21
1557.001395
 31
0.0
  0
LINE
  5
B3
100
AcDbEntity
  8
水栓
  6
CONTINUOUS
 62
     6
100
AcDbLine
 10
1666.97154
 20
1557.001395
 30
0.0
 11
1689.523354
 21
1584.395618
 31
0.0
  0
POLYLINE
  5
B4
100
AcDbEntity
  8
トラップ
  6
CONTINUOUS
 62
     6
100
AcDb2dPolyline
 66
     1
 10
0.0
 20
0.0
 30
0.0
 70
   128
  0
VERTEX
  5
B5
100
AcDbEntity
  8
トラップ
  6
CONTINUOUS
 62
     6
100
AcDbVertex
100
AcDb2dVertex
 10
1674.057141
 20
1134.223328
 30
0.0
  0
VERTEX
  5
B6
100
AcDbEntity
  8
トラップ
  6
CONTINUOUS
 62
     6
100
AcDbVertex
100
AcDb2dVertex
 10
1705.511851
 20
1188.704483
 30
0.0
  0
SEQEND
  5
B7
100
AcDbEntity
  8
トラップ
  6
CONTINUOUS
 62
     6
  0
LINE
  5
B8
100
AcDbEntity
  8
トラップ
  6
CONTINUOUS
 62
     6
100
AcDbLine
 10
1686.505327
 20
1167.450883
 30
0.0
 11
1674.057141
 21
1134.223328
 31
0.0
  0
LINE
  5
B9
100
AcDbEntity
  8
トラップ
  6
CONTINUOUS
 62
     6
100
AcDbLine
 10
1674.057141
 20
1134.223328
 30
0.0
 11
1696.608956
 21
1161.61755
 31
0.0
  0
LEADER
  5
BA
100
AcDbEntity
  8
トラップ
  6
CONTINUOUS
 62
     6
100
AcDbLeader
  3
STANDARD
 73
     3
 74
     1
 75
     0
 40
0.0
 76
     2
 10
1516.298981
 20
1125.487637
 30
0.0
 10
1423.153212
 20
1179.265372
 30
0.0
 77
     6
1001
ACAD
1000
DSTYLE
1002
{
1070
    41
1040
35.0
1070
     5
1000
_EX_NORM
1070
     6
1000
_EX_NORM
1070
     7
1000
_EX_NORM
1070
   341
1005
2B
1002
}
  0
LEADER
  5
BB
100
AcDbEntity
  8
トラップ
  6
CONTINUOUS
 62
     6
100
AcDbLeader
  3
STANDARD
 73
     3
 74
     1
 75
     0
 40
0.0
 76
     2
 10
1542.698975
 20
624.023575
 30
0.0
 10
1578.971143
 20
561.0
 30
0.0
 77
     6
1001
ACAD
1000
DSTYLE
1002
{
1070
    41
1040
35.0
1070
     5
1000
_EX_NORM
1070
     6
1000
_EX_NORM
1070
     7
1000
_EX_NORM
1070
   341
1005
2B
1002
}
  0
LEADER
  5
BC
100
AcDbEntity
  8
トラップ
  6
CONTINUOUS
 62
     6
100
AcDbLeader
  3
STANDARD
 73
     3
 74
     1
 75
     0
 40
0.0
 76
     2
 10
1516.298981
 20
815.487637
 30
0.0
 10
1423.153212
 20
869.265372
 30
0.0
 77
     6
1001
ACAD
1000
DSTYLE
1002
{
1070
    41
1040
35.0
1070
     5
1000
_EX_NORM
1070
     6
1000
_EX_NORM
1070
     7
1000
_EX_NORM
1070
   341
1005
2B
1002
}
  0
TEXT
  5
BD
100
AcDbEntity
  8
寸法
  6
CONTINUOUS
 62
     2
100
AcDbText
 10
904.884375
 20
1199.523514
 30
0.0
 40
40.0
  1
２７５
 50
90.0
 41
0.833
  7
EXCADSTD
 72
     5
 11
904.884375
 21
1318.523514
 31
0.0
100
AcDbText
  0
LINE
  5
BE
100
AcDbEntity
  8
寸法
  6
CONTINUOUS
 62
     3
100
AcDbLine
 10
908.384375
 20
1396.523743
 30
0.0
 11
908.384375
 21
1121.523285
 31
0.0
  0
LINE
  5
BF
100
AcDbEntity
  8
寸法
  6
CONTINUOUS
 62
     3
100
AcDbLine
 10
914.217708
 20
1361.523743
 30
0.0
 11
908.384375
 21
1396.523743
 31
0.0
  0
LINE
  5
C0
100
AcDbEntity
  8
寸法
  6
CONTINUOUS
 62
     3
100
AcDbLine
 10
908.384375
 20
1396.523743
 30
0.0
 11
902.551042
 21
1361.523743
 31
0.0
  0
LINE
  5
C1
100
AcDbEntity
  8
寸法
  6
CONTINUOUS
 62
     3
100
AcDbLine
 10
902.551042
 20
1156.523285
 30
0.0
 11
908.384375
 21
1121.523285
 31
0.0
  0
LINE
  5
C2
100
AcDbEntity
  8
寸法
  6
CONTINUOUS
 62
     3
100
AcDbLine
 10
908.384375
 20
1121.523285
 30
0.0
 11
914.217708
 21
1156.523285
 31
0.0
  0
TEXT
  5
C3
100
AcDbEntity
  8
寸法
  6
CONTINUOUS
 62
     2
100
AcDbText
 10
904.884375
 20
819.523469
 30
0.0
 40
40.0
  1
４８５
 50
90.0
 41
0.833
  7
EXCADSTD
 72
     5
 11
904.884375
 21
938.523469
 31
0.0
100
AcDbText
  0
LINE
  5
C4
100
AcDbEntity
  8
寸法
  6
CONTINUOUS
 62
     3
100
AcDbLine
 10
908.384375
 20
1121.523285
 30
0.0
 11
908.384375
 21
636.523654
 31
0.0
  0
LINE
  5
C5
100
AcDbEntity
  8
寸法
  6
CONTINUOUS
 62
     3
100
AcDbLine
 10
914.217708
 20
1086.523285
 30
0.0
 11
908.384375
 21
1121.523285
 31
0.0
  0
LINE
  5
C6
100
AcDbEntity
  8
寸法
  6
CONTINUOUS
 62
     3
100
AcDbLine
 10
908.384375
 20
1121.523285
 30
0.0
 11
902.551042
 21
1086.523285
 31
0.0
  0
LINE
  5
C7
100
AcDbEntity
  8
寸法
  6
CONTINUOUS
 62
     3
100
AcDbLine
 10
902.551042
 20
671.523654
 30
0.0
 11
908.384375
 21
636.523654
 31
0.0
  0
LINE
  5
C8
100
AcDbEntity
  8
寸法
  6
CONTINUOUS
 62
     3
100
AcDbLine
 10
908.384375
 20
636.523654
 30
0.0
 11
914.217708
 21
671.523654
 31
0.0
  0
TEXT
  5
C9
100
AcDbEntity
  8
寸法
  6
CONTINUOUS
 62
     2
100
AcDbText
 10
1789.82785
 20
1032.023278
 30
0.0
 40
40.0
  1
９１０
 50
90.0
 41
0.833
  7
EXCADSTD
 72
     5
 11
1789.82785
 21
1151.023278
 31
0.0
100
AcDbText
  0
LINE
  5
CA
100
AcDbEntity
  8
寸法
  6
CONTINUOUS
 62
     3
100
AcDbLine
 10
1793.32785
 20
636.523278
 30
0.0
 11
1793.32785
 21
1546.523278
 31
0.0
  0
LINE
  5
CB
100
AcDbEntity
  8
寸法
  6
CONTINUOUS
 62
     3
100
AcDbLine
 10
1787.494517
 20
671.523278
 30
0.0
 11
1793.32785
 21
636.523278
 31
0.0
  0
LINE
  5
CC
100
AcDbEntity
  8
寸法
  6
CONTINUOUS
 62
     3
100
AcDbLine
 10
1793.32785
 20
636.523278
 30
0.0
 11
1799.161184
 21
671.523278
 31
0.0
  0
LINE
  5
CD
100
AcDbEntity
  8
寸法
  6
CONTINUOUS
 62
     3
100
AcDbLine
 10
1799.161184
 20
1511.523278
 30
0.0
 11
1793.32785
 21
1546.523278
 31
0.0
  0
LINE
  5
CE
100
AcDbEntity
  8
寸法
  6
CONTINUOUS
 62
     3
100
AcDbLine
 10
1793.32785
 20
1546.523278
 30
0.0
 11
1787.494517
 21
1511.523278
 31
0.0
  0
TEXT
  5
CF
100
AcDbEntity
  8
寸法
  6
CONTINUOUS
 62
     2
100
AcDbText
 10
964.884375
 20
957.023679
 30
0.0
 40
40.0
  1
７６０
 50
90.0
 41
0.833
  7
EXCADSTD
 72
     5
 11
964.884375
 21
1076.023679
 31
0.0
100
AcDbText
  0
LINE
  5
D0
100
AcDbEntity
  8
寸法
  6
CONTINUOUS
 62
     3
100
AcDbLine
 10
968.384375
 20
1396.523743
 30
0.0
 11
968.384375
 21
636.523616
 31
0.0
  0
LINE
  5
D1
100
AcDbEntity
  8
寸法
  6
CONTINUOUS
 62
     3
100
AcDbLine
 10
974.217708
 20
1361.523743
 30
0.0
 11
968.384375
 21
1396.523743
 31
0.0
  0
LINE
  5
D2
100
AcDbEntity
  8
寸法
  6
CONTINUOUS
 62
     3
100
AcDbLine
 10
968.384375
 20
1396.523743
 30
0.0
 11
962.551042
 21
1361.523743
 31
0.0
  0
LINE
  5
D3
100
AcDbEntity
  8
寸法
  6
CONTINUOUS
 62
     3
100
AcDbLine
 10
962.551042
 20
671.523616
 30
0.0
 11
968.384375
 21
636.523616
 31
0.0
  0
LINE
  5
D4
100
AcDbEntity
  8
寸法
  6
CONTINUOUS
 62
     3
100
AcDbLine
 10
968.384375
 20
636.523616
 30
0.0
 11
974.217708
 21
671.523616
 31
0.0
  0
TEXT
  5
D5
100
AcDbEntity
  8
寸法
  6
CONTINUOUS
 62
     2
100
AcDbText
 10
1535.499466
 20
963.5
 30
0.0
 40
40.0
  1
１３０
 41
0.833
  7
EXCADSTD
 72
     5
 11
1654.499466
 21
963.5
 31
0.0
100
AcDbText
  0
LINE
  5
D6
100
AcDbEntity
  8
寸法
  6
CONTINUOUS
 62
     3
100
AcDbLine
 10
1529.998932
 20
960.0
 30
0.0
 11
1660.0
 21
960.0
 31
0.0
  0
LINE
  5
D7
100
AcDbEntity
  8
寸法
  6
CONTINUOUS
 62
     3
100
AcDbLine
 10
1564.998932
 20
965.833333
 30
0.0
 11
1529.998932
 21
960.0
 31
0.0
  0
LINE
  5
D8
100
AcDbEntity
  8
寸法
  6
CONTINUOUS
 62
     3
100
AcDbLine
 10
1529.998932
 20
960.0
 30
0.0
 11
1564.998932
 21
954.166667
 31
0.0
  0
LINE
  5
D9
100
AcDbEntity
  8
寸法
  6
CONTINUOUS
 62
     3
100
AcDbLine
 10
1625.0
 20
954.166667
 30
0.0
 11
1660.0
 21
960.0
 31
0.0
  0
LINE
  5
DA
100
AcDbEntity
  8
寸法
  6
CONTINUOUS
 62
     3
100
AcDbLine
 10
1660.0
 20
960.0
 30
0.0
 11
1625.0
 21
965.833333
 31
0.0
  0
TEXT
  5
DB
100
AcDbEntity
  8
枠_
  6
CONTINUOUS
 62
     2
100
AcDbText
 10
840.25
 20
243.75
 30
0.0
 40
62.5
  1
平付小形手洗器
 41
0.9744
  7
EXCADSTD
 72
     5
 11
1347.75
 21
243.75
 31
0.0
100
AcDbText
  0
TEXT
  5
DC
100
AcDbEntity
  8
枠_
  6
CONTINUOUS
 62
     2
100
AcDbText
 10
1458.0
 20
243.75
 30
0.0
 40
62.5
  1
Ｌ８１
 41
0.83552
  7
EXCADSTD
 72
     5
 11
1644.5
 21
243.75
 31
0.0
100
AcDbText
  0
LINE
  5
DD
100
AcDbEntity
  8
枠_
  6
CONTINUOUS
 62
     7
100
AcDbLine
 10
179.0
 20
115.0
 30
0.0
 11
1999.0
 21
115.0
 31
0.0
  0
LINE
  5
DE
100
AcDbEntity
  8
枠_
  6
CONTINUOUS
 62
     7
100
AcDbLine
 10
1999.0
 20
115.0
 30
0.0
 11
1999.0
 21
2915.0
 31
0.0
  0
LINE
  5
DF
100
AcDbEntity
  8
枠_
  6
CONTINUOUS
 62
     7
100
AcDbLine
 10
179.0
 20
115.0
 30
0.0
 11
179.0
 21
2915.0
 31
0.0
  0
LINE
  5
E0
100
AcDbEntity
  8
枠_
  6
CONTINUOUS
 62
     7
100
AcDbLine
 10
179.0
 20
2915.0
 30
0.0
 11
1999.0
 21
2915.0
 31
0.0
  0
LINE
  5
E1
100
AcDbEntity
  8
枠_
  6
CONTINUOUS
 62
     7
100
AcDbLine
 10
179.0
 20
335.0
 30
0.0
 11
1999.0
 21
335.0
 31
0.0
  0
LINE
  5
E2
100
AcDbEntity
  8
枠_
  6
CONTINUOUS
 62
     6
100
AcDbLine
 10
1999.0
 20
215.0
 30
0.0
 11
749.0
 21
215.0
 31
0.0
  0
LINE
  5
E3
100
AcDbEntity
  8
枠_
  6
CONTINUOUS
 62
     6
100
AcDbLine
 10
1859.0
 20
335.0
 30
0.0
 11
1859.0
 21
215.0
 31
0.0
  0
LINE
  5
E4
100
AcDbEntity
  8
枠_
  6
CONTINUOUS
 62
     6
100
AcDbLine
 10
1809.0
 20
335.0
 30
0.0
 11
1809.0
 21
215.0
 31
0.0
  0
LINE
  5
E5
100
AcDbEntity
  8
枠_
  6
CONTINUOUS
 62
     6
100
AcDbLine
 10
1439.0
 20
335.0
 30
0.0
 11
1439.0
 21
115.0
 31
0.0
  0
LINE
  5
E6
100
AcDbEntity
  8
枠_
  6
CONTINUOUS
 62
     6
100
AcDbLine
 10
1389.0
 20
335.0
 30
0.0
 11
1389.0
 21
115.0
 31
0.0
  0
LINE
  5
E7
100
AcDbEntity
  8
枠_
  6
CONTINUOUS
 62
     6
100
AcDbLine
 10
799.0
 20
335.0
 30
0.0
 11
799.0
 21
215.0
 31
0.0
  0
LINE
  5
E8
100
AcDbEntity
  8
枠_
  6
CONTINUOUS
 62
     6
100
AcDbLine
 10
749.0
 20
335.0
 30
0.0
 11
749.0
 21
115.0
 31
0.0
  0
LINE
  5
E9
100
AcDbEntity
  8
枠_
  6
CONTINUOUS
 62
     6
100
AcDbLine
 10
619.0
 20
335.0
 30
0.0
 11
619.0
 21
115.0
 31
0.0
  0
LINE
  5
EA
100
AcDbEntity
  8
枠_
  6
CONTINUOUS
 62
     6
100
AcDbLine
 10
489.0
 20
335.0
 30
0.0
 11
489.0
 21
115.0
 31
0.0
  0
LINE
  5
EB
100
AcDbEntity
  8
枠_
  6
CONTINUOUS
 62
     6
100
AcDbLine
 10
334.0
 20
335.0
 30
0.0
 11
334.0
 21
115.0
 31
0.0
  0
LINE
  5
EC
100
AcDbEntity
  8
枠_
  6
CONTINUOUS
 62
     6
100
AcDbLine
 10
179.0
 20
285.0
 30
0.0
 11
749.0
 21
285.0
 31
0.0
  0
LINE
  5
ED
100
AcDbEntity
  8
枠_
  6
CONTINUOUS
 62
     6
100
AcDbLine
 10
1891.653809
 20
238.00293
 30
0.0
 11
1968.993897
 21
316.699829
 31
0.0
  0
LINE
  5
EE
100
AcDbEntity
  8
枠_
  6
EXLTYPE2
 62
     6
100
AcDbLine
 10
179.0
 20
1515.0
 30
0.0
 11
-21.0
 21
1515.0
 31
0.0
  0
TEXT
  5
EF
100
AcDbEntity
  8
枠_
  6
CONTINUOUS
 62
     2
100
AcDbText
 10
1889.537109
 20
282.722778
 30
0.0
 40
30.0
  1
１
 41
0.826
  7
EXCADSTD
 72
     5
 11
1913.13711
 21
282.722778
 31
0.0
100
AcDbText
  0
TEXT
  5
F0
100
AcDbEntity
  8
枠_
  6
CONTINUOUS
 62
     2
100
AcDbText
 10
1930.279297
 20
238.348846
 30
0.0
 40
30.0
  1
１０
 41
0.791
  7
EXCADSTD
 72
     5
 11
1982.067198
 21
238.348846
 31
0.0
100
AcDbText
  0
TEXT
  5
F1
100
AcDbEntity
  8
枠_
  6
CONTINUOUS
 62
     2
100
AcDbText
 10
201.5
 20
288.75
 30
0.0
 40
42.5
  1
製図
 41
1.087059
  7
EXCADSTD
 72
     5
 11
302.326
 21
288.75
 31
0.0
100
AcDbText
  0
TEXT
  5
F2
100
AcDbEntity
  8
枠_
  6
CONTINUOUS
 62
     2
100
AcDbText
 10
356.5
 20
288.75
 30
0.0
 40
42.5
  1
写図
 41
1.087059
  7
EXCADSTD
 72
     5
 11
457.326
 21
288.75
 31
0.0
100
AcDbText
  0
TEXT
  5
F3
100
AcDbEntity
  8
枠_
  6
CONTINUOUS
 62
     2
100
AcDbText
 10
506.5
 20
288.75
 30
0.0
 40
42.5
  1
検図
 41
0.938824
  7
EXCADSTD
 72
     5
 11
593.577
 21
288.75
 31
0.0
100
AcDbText
  0
TEXT
  5
F4
100
AcDbEntity
  8
枠_
  6
CONTINUOUS
 62
     2
100
AcDbText
 10
636.5
 20
288.75
 30
0.0
 40
42.5
  1
承認
 41
0.938824
  7
EXCADSTD
 72
     5
 11
723.577
 21
288.75
 31
0.0
100
AcDbText
  0
TEXT
  5
F5
100
AcDbEntity
  8
枠_
  6
CONTINUOUS
 62
     2
100
AcDbText
 10
752.75
 20
278.75
 30
0.0
 40
42.5
  1
品
 41
0.84
  7
EXCADSTD
 72
     5
 11
786.75
 21
278.75
 31
0.0
100
AcDbText
  0
TEXT
  5
F6
100
AcDbEntity
  8
枠_
  6
CONTINUOUS
 62
     2
100
AcDbText
 10
752.75
 20
228.75
 30
0.0
 40
42.5
  1
名
 41
0.84
  7
EXCADSTD
 72
     5
 11
786.75
 21
228.75
 31
0.0
100
AcDbText
  0
TEXT
  5
F7
100
AcDbEntity
  8
枠_
  6
CONTINUOUS
 62
     2
100
AcDbText
 10
1392.75
 20
278.75
 30
0.0
 40
42.5
  1
品
 41
0.84
  7
EXCADSTD
 72
     5
 11
1426.75
 21
278.75
 31
0.0
100
AcDbText
  0
TEXT
  5
F8
100
AcDbEntity
  8
枠_
  6
CONTINUOUS
 62
     2
100
AcDbText
 10
1392.75
 20
228.75
 30
0.0
 40
42.5
  1
番
 41
0.84
  7
EXCADSTD
 72
     5
 11
1426.75
 21
228.75
 31
0.0
100
AcDbText
  0
TEXT
  5
F9
100
AcDbEntity
  8
枠_
  6
CONTINUOUS
 62
     2
100
AcDbText
 10
1812.75
 20
278.75
 30
0.0
 40
42.5
  1
尺
 41
0.84
  7
EXCADSTD
 72
     5
 11
1846.75
 21
278.75
 31
0.0
100
AcDbText
  0
TEXT
  5
FA
100
AcDbEntity
  8
枠_
  6
CONTINUOUS
 62
     2
100
AcDbText
 10
1812.75
 20
228.75
 30
0.0
 40
42.5
  1
度
 41
0.84
  7
EXCADSTD
 72
     5
 11
1846.75
 21
228.75
 31
0.0
100
AcDbText
  0
TEXT
  5
FB
100
AcDbEntity
  8
枠_
  6
CONTINUOUS
 62
     2
100
AcDbText
 10
1392.75
 20
165.75
 30
0.0
 40
42.5
  1
図
 41
0.84
  7
EXCADSTD
 72
     5
 11
1426.75
 21
165.75
 31
0.0
100
AcDbText
  0
TEXT
  5
FC
100
AcDbEntity
  8
枠_
  6
CONTINUOUS
 62
     2
100
AcDbText
 10
1392.75
 20
122.75
 30
0.0
 40
42.5
  1
番
 41
0.84
  7
EXCADSTD
 72
     5
 11
1426.75
 21
122.75
 31
0.0
100
AcDbText
  0
LINE
  5
FD
100
AcDbEntity
  8
枠_
  6
CONTINUOUS
 62
     3
100
AcDbLine
 10
826.447754
 20
180.287994
 30
0.0
 11
818.384094
 21
180.287994
 31
0.0
  0
LINE
  5
FE
100
AcDbEntity
  8
枠_
  6
CONTINUOUS
 62
     3
100
AcDbLine
 10
826.447754
 20
188.351959
 30
0.0
 11
826.447754
 21
180.287994
 31
0.0
  0
LINE
  5
FF
100
AcDbEntity
  8
枠_
  6
CONTINUOUS
 62
     3
100
AcDbLine
 10
818.384094
 20
188.351959
 30
0.0
 11
826.447754
 21
188.351959
 31
0.0
  0
LINE
  5
100
100
AcDbEntity
  8
枠_
  6
CONTINUOUS
 62
     3
100
AcDbLine
 10
818.384094
 20
188.351959
 30
0.0
 11
818.384094
 21
180.287994
 31
0.0
  0
LINE
  5
101
100
AcDbEntity
  8
枠_
  6
CONTINUOUS
 62
     3
100
AcDbLine
 10
815.359192
 20
180.287994
 30
0.0
 11
807.295532
 21
180.287994
 31
0.0
  0
LINE
  5
102
100
AcDbEntity
  8
枠_
  6
CONTINUOUS
 62
     3
100
AcDbLine
 10
815.359192
 20
188.351959
 30
0.0
 11
815.359192
 21
180.287994
 31
0.0
  0
LINE
  5
103
100
AcDbEntity
  8
枠_
  6
CONTINUOUS
 62
     3
100
AcDbLine
 10
807.295532
 20
188.351959
 30
0.0
 11
815.359192
 21
188.351959
 31
0.0
  0
LINE
  5
104
100
AcDbEntity
  8
枠_
  6
CONTINUOUS
 62
     3
100
AcDbLine
 10
807.295532
 20
188.351959
 30
0.0
 11
807.295532
 21
180.287994
 31
0.0
  0
LINE
  5
105
100
AcDbEntity
  8
枠_
  6
CONTINUOUS
 62
     3
100
AcDbLine
 10
798.887329
 20
144.0
 30
0.0
 11
770.0
 21
144.0
 31
0.0
  0
ARC
  5
106
100
AcDbEntity
  8
枠_
  6
CONTINUOUS
 62
     3
100
AcDbCircle
 10
798.887329
 20
162.144074
 30
0.0
 40
18.143997
100
AcDbArc
 50
270.000031
 51
334.000137
  0
LINE
  5
107
100
AcDbEntity
  8
枠_
  6
CONTINUOUS
 62
     3
100
AcDbLine
 10
826.447754
 20
177.264008
 30
0.0
 11
815.193024
 21
154.190125
 31
0.0
  0
LINE
  5
108
100
AcDbEntity
  8
枠_
  6
CONTINUOUS
 62
     3
100
AcDbLine
 10
814.112244
 20
177.264008
 30
0.0
 11
826.447754
 21
177.264008
 31
0.0
  0
LINE
  5
109
100
AcDbEntity
  8
枠_
  6
CONTINUOUS
 62
     3
100
AcDbLine
 10
805.01297
 20
158.60907
 30
0.0
 11
814.112244
 21
177.264008
 31
0.0
  0
ARC
  5
10A
100
AcDbEntity
  8
枠_
  6
CONTINUOUS
 62
     3
100
AcDbCircle
 10
797.765503
 20
162.144074
 30
0.0
 40
8.064
100
AcDbArc
 50
270.000031
 51
333.99855
  0
LINE
  5
10B
100
AcDbEntity
  8
枠_
  6
CONTINUOUS
 62
     3
100
AcDbLine
 10
770.0
 20
154.079956
 30
0.0
 11
797.765503
 21
154.079956
 31
0.0
  0
LINE
  5
10C
100
AcDbEntity
  8
枠_
  6
CONTINUOUS
 62
     3
100
AcDbLine
 10
770.0
 20
154.079956
 30
0.0
 11
770.0
 21
144.0
 31
0.0
  0
LINE
  5
10D
100
AcDbEntity
  8
枠_
  6
CONTINUOUS
 62
     3
100
AcDbLine
 10
798.224945
 20
167.183899
 30
0.0
 11
770.0
 21
167.183899
 31
0.0
  0
LINE
  5
10E
100
AcDbEntity
  8
枠_
  6
CONTINUOUS
 62
     3
100
AcDbLine
 10
798.224945
 20
176.256012
 30
0.0
 11
798.224945
 21
167.183899
 31
0.0
  0
LINE
  5
10F
100
AcDbEntity
  8
枠_
  6
CONTINUOUS
 62
     3
100
AcDbLine
 10
770.0
 20
176.256012
 30
0.0
 11
798.224945
 21
176.256012
 31
0.0
  0
LINE
  5
110
100
AcDbEntity
  8
枠_
  6
CONTINUOUS
 62
     3
100
AcDbLine
 10
770.0
 20
176.256012
 30
0.0
 11
770.0
 21
167.183899
 31
0.0
  0
LINE
  5
111
100
AcDbEntity
  8
枠_
  6
CONTINUOUS
 62
     3
100
AcDbLine
 10
798.224945
 20
179.279999
 30
0.0
 11
770.0
 21
179.279999
 31
0.0
  0
LINE
  5
112
100
AcDbEntity
  8
枠_
  6
CONTINUOUS
 62
     3
100
AcDbLine
 10
798.224945
 20
188.351959
 30
0.0
 11
798.224945
 21
179.279999
 31
0.0
  0
LINE
  5
113
100
AcDbEntity
  8
枠_
  6
CONTINUOUS
 62
     3
100
AcDbLine
 10
770.0
 20
188.351959
 30
0.0
 11
798.224945
 21
188.351959
 31
0.0
  0
LINE
  5
114
100
AcDbEntity
  8
枠_
  6
CONTINUOUS
 62
     3
100
AcDbLine
 10
770.0
 20
188.351959
 30
0.0
 11
770.0
 21
179.279999
 31
0.0
  0
LINE
  5
115
100
AcDbEntity
  8
枠_
  6
CONTINUOUS
 62
     3
100
AcDbLine
 10
829.472656
 20
177.264008
 30
0.0
 11
829.472656
 21
170.207886
 31
0.0
  0
LINE
  5
116
100
AcDbEntity
  8
枠_
  6
CONTINUOUS
 62
     3
100
AcDbLine
 10
829.472656
 20
177.264008
 30
0.0
 11
838.654022
 21
177.264008
 31
0.0
  0
LINE
  5
117
100
AcDbEntity
  8
枠_
  6
CONTINUOUS
 62
     3
100
AcDbLine
 10
837.536316
 20
184.319977
 30
0.0
 11
838.654022
 21
177.264008
 31
0.0
  0
LINE
  5
118
100
AcDbEntity
  8
枠_
  6
CONTINUOUS
 62
     3
100
AcDbLine
 10
837.536316
 20
184.319977
 30
0.0
 11
848.76236
 21
184.319977
 31
0.0
  0
LINE
  5
119
100
AcDbEntity
  8
枠_
  6
CONTINUOUS
 62
     3
100
AcDbLine
 10
848.76236
 20
184.319977
 30
0.0
 11
849.879913
 21
177.264008
 31
0.0
  0
LINE
  5
11A
100
AcDbEntity
  8
枠_
  6
CONTINUOUS
 62
     3
100
AcDbLine
 10
849.879913
 20
177.264008
 30
0.0
 11
877.856751
 21
177.264008
 31
0.0
  0
LINE
  5
11B
100
AcDbEntity
  8
枠_
  6
CONTINUOUS
 62
     3
100
AcDbLine
 10
877.856751
 20
177.264008
 30
0.0
 11
871.973114
 21
164.050507
 31
0.0
  0
ARC
  5
11C
100
AcDbEntity
  8
枠_
  6
CONTINUOUS
 62
     3
100
AcDbCircle
 10
858.161011
 20
170.200409
 30
0.0
 40
15.120106
100
AcDbArc
 50
263.465775
 51
335.998779
  0
LINE
  5
11D
100
AcDbEntity
  8
枠_
  6
CONTINUOUS
 62
     3
100
AcDbLine
 10
856.438446
 20
155.178589
 30
0.0
 11
855.337067
 21
162.144074
 31
0.0
  0
ARC
  5
11E
100
AcDbEntity
  8
枠_
  6
CONTINUOUS
 62
     3
100
AcDbCircle
 10
855.058136
 20
168.192047
 30
0.0
 40
6.048006
100
AcDbArc
 50
272.623749
 51
336.006531
  0
LINE
  5
11F
100
AcDbEntity
  8
枠_
  6
CONTINUOUS
 62
     3
100
AcDbLine
 10
860.585022
 20
165.732025
 30
0.0
 11
862.576294
 21
170.207886
 31
0.0
  0
LINE
  5
120
100
AcDbEntity
  8
枠_
  6
CONTINUOUS
 62
     3
100
AcDbLine
 10
862.576294
 20
170.207886
 30
0.0
 11
850.99762
 21
170.207886
 31
0.0
  0
LINE
  5
121
100
AcDbEntity
  8
枠_
  6
CONTINUOUS
 62
     3
100
AcDbLine
 10
850.99762
 20
170.207886
 30
0.0
 11
855.148468
 21
144.0
 31
0.0
  0
LINE
  5
122
100
AcDbEntity
  8
枠_
  6
CONTINUOUS
 62
     3
100
AcDbLine
 10
855.148468
 20
144.0
 30
0.0
 11
843.922424
 21
144.0
 31
0.0
  0
LINE
  5
123
100
AcDbEntity
  8
枠_
  6
CONTINUOUS
 62
     2
100
AcDbLine
 10
843.922424
 20
144.0
 30
0.0
 11
839.771729
 21
170.207886
 31
0.0
  0
LINE
  5
124
100
AcDbEntity
  8
枠_
  6
CONTINUOUS
 62
     2
100
AcDbLine
 10
839.771729
 20
170.207886
 30
0.0
 11
829.472656
 21
170.207886
 31
0.0
  0
LINE
  5
125
100
AcDbEntity
  8
枠_
  6
CONTINUOUS
 62
     3
100
AcDbLine
 10
876.847687
 20
144.0
 30
0.0
 11
876.847687
 21
154.079956
 31
0.0
  0
LINE
  5
126
100
AcDbEntity
  8
枠_
  6
CONTINUOUS
 62
     3
100
AcDbLine
 10
876.847687
 20
154.079956
 30
0.0
 11
933.295441
 21
154.079956
 31
0.0
  0
LINE
  5
127
100
AcDbEntity
  8
枠_
  6
CONTINUOUS
 62
     3
100
AcDbLine
 10
933.295441
 20
154.079956
 30
0.0
 11
933.295441
 21
144.0
 31
0.0
  0
LINE
  5
128
100
AcDbEntity
  8
枠_
  6
CONTINUOUS
 62
     3
100
AcDbLine
 10
933.295441
 20
144.0
 30
0.0
 11
876.847687
 21
144.0
 31
0.0
  0
LINE
  5
129
100
AcDbEntity
  8
枠_
  6
CONTINUOUS
 62
     3
100
AcDbLine
 10
880.879517
 20
188.351959
 30
0.0
 11
880.879517
 21
178.272003
 31
0.0
  0
LINE
  5
12A
100
AcDbEntity
  8
枠_
  6
CONTINUOUS
 62
     3
100
AcDbLine
 10
880.879517
 20
188.351959
 30
0.0
 11
929.263611
 21
188.351959
 31
0.0
  0
LINE
  5
12B
100
AcDbEntity
  8
枠_
  6
CONTINUOUS
 62
     3
100
AcDbLine
 10
929.263611
 20
188.351959
 30
0.0
 11
929.263611
 21
178.272003
 31
0.0
  0
LINE
  5
12C
100
AcDbEntity
  8
枠_
  6
CONTINUOUS
 62
     3
100
AcDbLine
 10
929.263611
 20
178.272003
 30
0.0
 11
880.879517
 21
178.272003
 31
0.0
  0
LINE
  5
12D
100
AcDbEntity
  8
枠_
  6
CONTINUOUS
 62
     3
100
AcDbLine
 10
940.352173
 20
188.351959
 30
0.0
 11
940.352173
 21
178.272003
 31
0.0
  0
LINE
  5
12E
100
AcDbEntity
  8
枠_
  6
CONTINUOUS
 62
     3
100
AcDbLine
 10
940.352173
 20
188.351959
 30
0.0
 11
992.768097
 21
188.351959
 31
0.0
  0
LINE
  5
12F
100
AcDbEntity
  8
枠_
  6
CONTINUOUS
 62
     3
100
AcDbLine
 10
992.768097
 20
188.351959
 30
0.0
 11
977.050934
 21
166.718964
 31
0.0
  0
LINE
  5
130
100
AcDbEntity
  8
枠_
  6
CONTINUOUS
 62
     3
100
AcDbLine
 10
977.050934
 20
166.718964
 30
0.0
 11
996.799927
 21
144.0
 31
0.0
  0
LINE
  5
131
100
AcDbEntity
  8
枠_
  6
CONTINUOUS
 62
     3
100
AcDbLine
 10
996.799927
 20
144.0
 30
0.0
 11
982.108154
 21
144.0
 31
0.0
  0
LINE
  5
132
100
AcDbEntity
  8
枠_
  6
CONTINUOUS
 62
     3
100
AcDbLine
 10
982.108154
 20
144.0
 30
0.0
 11
970.361328
 21
157.512726
 31
0.0
  0
LINE
  5
133
100
AcDbEntity
  8
枠_
  6
CONTINUOUS
 62
     3
100
AcDbLine
 10
970.361328
 20
157.512726
 30
0.0
 11
965.978851
 21
151.479248
 31
0.0
  0
ARC
  5
134
100
AcDbEntity
  8
枠_
  6
CONTINUOUS
 62
     3
100
AcDbCircle
 10
951.299286
 20
162.144074
 30
0.0
 40
18.143997
100
AcDbArc
 50
270.000031
 51
324.00116
  0
LINE
  5
135
100
AcDbEntity
  8
枠_
  6
CONTINUOUS
 62
     3
100
AcDbLine
 10
951.299286
 20
144.0
 30
0.0
 11
936.320343
 21
144.0
 31
0.0
  0
LINE
  5
136
100
AcDbEntity
  8
枠_
  6
CONTINUOUS
 62
     3
100
AcDbLine
 10
936.320343
 20
144.0
 30
0.0
 11
936.320343
 21
154.079956
 31
0.0
  0
LINE
  5
137
100
AcDbEntity
  8
枠_
  6
CONTINUOUS
 62
     3
100
AcDbLine
 10
936.320343
 20
154.079956
 30
0.0
 11
949.0271
 21
154.079956
 31
0.0
  0
ARC
  5
138
100
AcDbEntity
  8
枠_
  6
CONTINUOUS
 62
     3
100
AcDbCircle
 10
949.0271
 20
164.159912
 30
0.0
 40
10.079994
100
AcDbArc
 50
270.000031
 51
323.996597
  0
LINE
  5
139
100
AcDbEntity
  8
枠_
  6
CONTINUOUS
 62
     3
100
AcDbLine
 10
957.180939
 20
158.235077
 30
0.0
 11
971.739502
 21
178.272003
 31
0.0
  0
LINE
  5
13A
100
AcDbEntity
  8
枠_
  6
CONTINUOUS
 62
     3
100
AcDbLine
 10
971.739502
 20
178.272003
 30
0.0
 11
940.352173
 21
178.272003
 31
0.0
  0
LINE
  5
13B
100
AcDbEntity
  8
枠_
  6
CONTINUOUS
 62
     3
100
AcDbLine
 10
1008.895569
 20
188.351959
 30
0.0
 11
1008.895569
 21
181.29599
 31
0.0
  0
LINE
  5
13C
100
AcDbEntity
  8
枠_
  6
CONTINUOUS
 62
     3
100
AcDbLine
 10
1008.895569
 20
188.351959
 30
0.0
 11
1061.31134
 21
188.351959
 31
0.0
  0
LINE
  5
13D
100
AcDbEntity
  8
枠_
  6
CONTINUOUS
 62
     3
100
AcDbLine
 10
1061.31134
 20
188.351959
 30
0.0
 11
1061.31134
 21
181.29599
 31
0.0
  0
LINE
  5
13E
100
AcDbEntity
  8
枠_
  6
CONTINUOUS
 62
     3
100
AcDbLine
 10
1061.31134
 20
181.29599
 30
0.0
 11
1040.647736
 21
181.29599
 31
0.0
  0
LINE
  5
13F
100
AcDbEntity
  8
枠_
  6
CONTINUOUS
 62
     3
100
AcDbLine
 10
1040.647736
 20
181.29599
 30
0.0
 11
1040.647736
 21
152.064117
 31
0.0
  0
LINE
  5
140
100
AcDbEntity
  8
枠_
  6
CONTINUOUS
 62
     3
100
AcDbLine
 10
1040.647736
 20
152.064117
 30
0.0
 11
1063.327332
 21
152.064117
 31
0.0
  0
LINE
  5
141
100
AcDbEntity
  8
枠_
  6
CONTINUOUS
 62
     3
100
AcDbLine
 10
1063.327332
 20
152.064117
 30
0.0
 11
1063.327332
 21
144.0
 31
0.0
  0
LINE
  5
142
100
AcDbEntity
  8
枠_
  6
CONTINUOUS
 62
     3
100
AcDbLine
 10
1063.327332
 20
144.0
 30
0.0
 11
1006.879578
 21
144.0
 31
0.0
  0
LINE
  5
143
100
AcDbEntity
  8
枠_
  6
CONTINUOUS
 62
     3
100
AcDbLine
 10
1006.879578
 20
144.0
 30
0.0
 11
1006.879578
 21
152.064117
 31
0.0
  0
LINE
  5
144
100
AcDbEntity
  8
枠_
  6
CONTINUOUS
 62
     3
100
AcDbLine
 10
1006.879578
 20
152.064117
 30
0.0
 11
1029.559174
 21
152.064117
 31
0.0
  0
LINE
  5
145
100
AcDbEntity
  8
枠_
  6
CONTINUOUS
 62
     3
100
AcDbLine
 10
1029.559174
 20
152.064117
 30
0.0
 11
1029.559174
 21
181.29599
 31
0.0
  0
LINE
  5
146
100
AcDbEntity
  8
枠_
  6
CONTINUOUS
 62
     3
100
AcDbLine
 10
1029.559174
 20
181.29599
 30
0.0
 11
1008.895569
 21
181.29599
 31
0.0
  0
LINE
  5
147
100
AcDbEntity
  8
枠_
  6
CONTINUOUS
 62
     3
100
AcDbLine
 10
1064.336243
 20
182.303986
 30
0.0
 11
1064.336243
 21
177.667145
 31
0.0
  0
LINE
  5
148
100
AcDbEntity
  8
枠_
  6
CONTINUOUS
 62
     3
100
AcDbLine
 10
1064.336243
 20
182.303986
 30
0.0
 11
1073.093109
 21
182.303986
 31
0.0
  0
LINE
  5
149
100
AcDbEntity
  8
枠_
  6
CONTINUOUS
 62
     3
100
AcDbLine
 10
1073.093109
 20
182.303986
 30
0.0
 11
1068.368225
 21
188.351959
 31
0.0
  0
LINE
  5
14A
100
AcDbEntity
  8
枠_
  6
CONTINUOUS
 62
     3
100
AcDbLine
 10
1068.368225
 20
188.351959
 30
0.0
 11
1077.32193
 21
188.351959
 31
0.0
  0
LINE
  5
14B
100
AcDbEntity
  8
枠_
  6
CONTINUOUS
 62
     3
100
AcDbLine
 10
1077.32193
 20
188.351959
 30
0.0
 11
1082.046814
 21
182.303986
 31
0.0
  0
LINE
  5
14C
100
AcDbEntity
  8
枠_
  6
CONTINUOUS
 62
     3
100
AcDbLine
 10
1082.046814
 20
182.303986
 30
0.0
 11
1083.993073
 21
182.303986
 31
0.0
  0
LINE
  5
14D
100
AcDbEntity
  8
枠_
  6
CONTINUOUS
 62
     3
100
AcDbLine
 10
1083.993073
 20
182.303986
 30
0.0
 11
1083.993073
 21
188.351959
 31
0.0
  0
LINE
  5
14E
100
AcDbEntity
  8
枠_
  6
CONTINUOUS
 62
     3
100
AcDbLine
 10
1083.993073
 20
188.351959
 30
0.0
 11
1091.047669
 21
188.351959
 31
0.0
  0
LINE
  5
14F
100
AcDbEntity
  8
枠_
  6
CONTINUOUS
 62
     3
100
AcDbLine
 10
1091.047669
 20
188.351959
 30
0.0
 11
1091.047669
 21
182.303986
 31
0.0
  0
LINE
  5
150
100
AcDbEntity
  8
枠_
  6
CONTINUOUS
 62
     3
100
AcDbLine
 10
1091.047669
 20
182.303986
 30
0.0
 11
1094.072571
 21
182.303986
 31
0.0
  0
LINE
  5
151
100
AcDbEntity
  8
枠_
  6
CONTINUOUS
 62
     3
100
AcDbLine
 10
1094.072571
 20
182.303986
 30
0.0
 11
1094.072571
 21
188.351959
 31
0.0
  0
LINE
  5
152
100
AcDbEntity
  8
枠_
  6
CONTINUOUS
 62
     3
100
AcDbLine
 10
1094.072571
 20
188.351959
 30
0.0
 11
1101.127319
 21
188.351959
 31
0.0
  0
LINE
  5
153
100
AcDbEntity
  8
枠_
  6
CONTINUOUS
 62
     3
100
AcDbLine
 10
1101.127319
 20
188.351959
 30
0.0
 11
1101.127319
 21
182.303986
 31
0.0
  0
LINE
  5
154
100
AcDbEntity
  8
枠_
  6
CONTINUOUS
 62
     3
100
AcDbLine
 10
1101.127319
 20
182.303986
 30
0.0
 11
1103.073578
 21
182.303986
 31
0.0
  0
LINE
  5
155
100
AcDbEntity
  8
枠_
  6
CONTINUOUS
 62
     3
100
AcDbLine
 10
1103.073578
 20
182.303986
 30
0.0
 11
1107.798462
 21
188.351959
 31
0.0
  0
LINE
  5
156
100
AcDbEntity
  8
枠_
  6
CONTINUOUS
 62
     3
100
AcDbLine
 10
1107.798462
 20
188.351959
 30
0.0
 11
1116.752167
 21
188.351959
 31
0.0
  0
LINE
  5
157
100
AcDbEntity
  8
枠_
  6
CONTINUOUS
 62
     3
100
AcDbLine
 10
1116.752167
 20
188.351959
 30
0.0
 11
1112.027283
 21
182.303986
 31
0.0
  0
LINE
  5
158
100
AcDbEntity
  8
枠_
  6
CONTINUOUS
 62
     3
100
AcDbLine
 10
1112.027283
 20
182.303986
 30
0.0
 11
1120.783997
 21
182.303986
 31
0.0
  0
LINE
  5
159
100
AcDbEntity
  8
枠_
  6
CONTINUOUS
 62
     3
100
AcDbLine
 10
1120.783997
 20
182.303986
 30
0.0
 11
1120.783997
 21
177.667145
 31
0.0
  0
LINE
  5
15A
100
AcDbEntity
  8
枠_
  6
CONTINUOUS
 62
     3
100
AcDbLine
 10
1120.783997
 20
177.667145
 30
0.0
 11
1110.16098
 21
177.667145
 31
0.0
  0
LINE
  5
15B
100
AcDbEntity
  8
枠_
  6
CONTINUOUS
 62
     3
100
AcDbLine
 10
1110.16098
 20
177.667145
 30
0.0
 11
1108.327637
 21
172.627319
 31
0.0
  0
LINE
  5
15C
100
AcDbEntity
  8
枠_
  6
CONTINUOUS
 62
     3
100
AcDbLine
 10
1108.327637
 20
172.627319
 30
0.0
 11
1120.783997
 21
172.627319
 31
0.0
  0
LINE
  5
15D
100
AcDbEntity
  8
枠_
  6
CONTINUOUS
 62
     3
100
AcDbLine
 10
1120.783997
 20
172.627319
 30
0.0
 11
1120.783997
 21
167.990478
 31
0.0
  0
LINE
  5
15E
100
AcDbEntity
  8
枠_
  6
CONTINUOUS
 62
     3
100
AcDbLine
 10
1120.783997
 20
167.990478
 30
0.0
 11
1097.599945
 21
167.990478
 31
0.0
  0
LINE
  5
15F
100
AcDbEntity
  8
枠_
  6
CONTINUOUS
 62
     3
100
AcDbLine
 10
1097.599945
 20
167.990478
 30
0.0
 11
1097.599945
 21
165.672058
 31
0.0
  0
LINE
  5
160
100
AcDbEntity
  8
枠_
  6
CONTINUOUS
 62
     3
100
AcDbLine
 10
1097.599945
 20
165.672058
 30
0.0
 11
1120.783997
 21
165.672058
 31
0.0
  0
LINE
  5
161
100
AcDbEntity
  8
枠_
  6
CONTINUOUS
 62
     3
100
AcDbLine
 10
1120.783997
 20
165.672058
 30
0.0
 11
1120.783997
 21
161.035217
 31
0.0
  0
LINE
  5
162
100
AcDbEntity
  8
枠_
  6
CONTINUOUS
 62
     3
100
AcDbLine
 10
1120.783997
 20
161.035217
 30
0.0
 11
1097.599945
 21
161.035217
 31
0.0
  0
LINE
  5
163
100
AcDbEntity
  8
枠_
  6
CONTINUOUS
 62
     3
100
AcDbLine
 10
1097.599945
 20
161.035217
 30
0.0
 11
1097.599945
 21
158.716797
 31
0.0
  0
LINE
  5
164
100
AcDbEntity
  8
枠_
  6
CONTINUOUS
 62
     3
100
AcDbLine
 10
1097.599945
 20
158.716797
 30
0.0
 11
1120.783997
 21
158.716797
 31
0.0
  0
LINE
  5
165
100
AcDbEntity
  8
枠_
  6
CONTINUOUS
 62
     3
100
AcDbLine
 10
1120.783997
 20
158.716797
 30
0.0
 11
1120.783997
 21
154.079956
 31
0.0
  0
LINE
  5
166
100
AcDbEntity
  8
枠_
  6
CONTINUOUS
 62
     3
100
AcDbLine
 10
1120.783997
 20
154.079956
 30
0.0
 11
1109.627838
 21
154.079956
 31
0.0
  0
LINE
  5
167
100
AcDbEntity
  8
枠_
  6
CONTINUOUS
 62
     3
100
AcDbLine
 10
1109.627838
 20
154.079956
 30
0.0
 11
1120.783997
 21
144.0
 31
0.0
  0
LINE
  5
168
100
AcDbEntity
  8
枠_
  6
CONTINUOUS
 62
     3
100
AcDbLine
 10
1120.783997
 20
144.0
 30
0.0
 11
1108.756256
 21
144.0
 31
0.0
  0
LINE
  5
169
100
AcDbEntity
  8
枠_
  6
CONTINUOUS
 62
     3
100
AcDbLine
 10
1108.756256
 20
144.0
 30
0.0
 11
1097.599945
 21
154.079956
 31
0.0
  0
LINE
  5
16A
100
AcDbEntity
  8
枠_
  6
CONTINUOUS
 62
     3
100
AcDbLine
 10
1097.599945
 20
154.079956
 30
0.0
 11
1097.599945
 21
144.0
 31
0.0
  0
LINE
  5
16B
100
AcDbEntity
  8
枠_
  6
CONTINUOUS
 62
     3
100
AcDbLine
 10
1097.599945
 20
144.0
 30
0.0
 11
1087.520447
 21
144.0
 31
0.0
  0
LINE
  5
16C
100
AcDbEntity
  8
枠_
  6
CONTINUOUS
 62
     3
100
AcDbLine
 10
1087.520447
 20
144.0
 30
0.0
 11
1087.520447
 21
154.079956
 31
0.0
  0
LINE
  5
16D
100
AcDbEntity
  8
枠_
  6
CONTINUOUS
 62
     3
100
AcDbLine
 10
1087.520447
 20
154.079956
 30
0.0
 11
1076.364136
 21
144.0
 31
0.0
  0
LINE
  5
16E
100
AcDbEntity
  8
枠_
  6
CONTINUOUS
 62
     3
100
AcDbLine
 10
1076.364136
 20
144.0
 30
0.0
 11
1064.336243
 21
144.0
 31
0.0
  0
LINE
  5
16F
100
AcDbEntity
  8
枠_
  6
CONTINUOUS
 62
     3
100
AcDbLine
 10
1064.336243
 20
144.0
 30
0.0
 11
1075.492554
 21
154.079956
 31
0.0
  0
LINE
  5
170
100
AcDbEntity
  8
枠_
  6
CONTINUOUS
 62
     3
100
AcDbLine
 10
1075.492554
 20
154.079956
 30
0.0
 11
1064.336243
 21
154.079956
 31
0.0
  0
LINE
  5
171
100
AcDbEntity
  8
枠_
  6
CONTINUOUS
 62
     3
100
AcDbLine
 10
1064.336243
 20
154.079956
 30
0.0
 11
1064.336243
 21
158.716797
 31
0.0
  0
LINE
  5
172
100
AcDbEntity
  8
枠_
  6
CONTINUOUS
 62
     3
100
AcDbLine
 10
1064.336243
 20
158.716797
 30
0.0
 11
1087.520447
 21
158.716797
 31
0.0
  0
LINE
  5
173
100
AcDbEntity
  8
枠_
  6
CONTINUOUS
 62
     3
100
AcDbLine
 10
1087.520447
 20
158.716797
 30
0.0
 11
1087.520447
 21
161.035217
 31
0.0
  0
LINE
  5
174
100
AcDbEntity
  8
枠_
  6
CONTINUOUS
 62
     3
100
AcDbLine
 10
1087.520447
 20
161.035217
 30
0.0
 11
1064.336243
 21
161.035217
 31
0.0
  0
LINE
  5
175
100
AcDbEntity
  8
枠_
  6
CONTINUOUS
 62
     3
100
AcDbLine
 10
1064.336243
 20
161.035217
 30
0.0
 11
1064.336243
 21
165.672058
 31
0.0
  0
LINE
  5
176
100
AcDbEntity
  8
枠_
  6
CONTINUOUS
 62
     3
100
AcDbLine
 10
1064.336243
 20
165.672058
 30
0.0
 11
1087.520447
 21
165.672058
 31
0.0
  0
LINE
  5
177
100
AcDbEntity
  8
枠_
  6
CONTINUOUS
 62
     3
100
AcDbLine
 10
1087.520447
 20
165.672058
 30
0.0
 11
1087.520447
 21
167.990478
 31
0.0
  0
LINE
  5
178
100
AcDbEntity
  8
枠_
  6
CONTINUOUS
 62
     3
100
AcDbLine
 10
1087.520447
 20
167.990478
 30
0.0
 11
1064.336243
 21
167.990478
 31
0.0
  0
LINE
  5
179
100
AcDbEntity
  8
枠_
  6
CONTINUOUS
 62
     3
100
AcDbLine
 10
1064.336243
 20
167.990478
 30
0.0
 11
1064.336243
 21
172.627319
 31
0.0
  0
LINE
  5
17A
100
AcDbEntity
  8
枠_
  6
CONTINUOUS
 62
     3
100
AcDbLine
 10
1064.336243
 20
172.627319
 30
0.0
 11
1076.792755
 21
172.627319
 31
0.0
  0
LINE
  5
17B
100
AcDbEntity
  8
枠_
  6
CONTINUOUS
 62
     3
100
AcDbLine
 10
1076.792755
 20
172.627319
 30
0.0
 11
1074.959412
 21
177.667145
 31
0.0
  0
LINE
  5
17C
100
AcDbEntity
  8
枠_
  6
CONTINUOUS
 62
     3
100
AcDbLine
 10
1074.959412
 20
177.667145
 30
0.0
 11
1064.336243
 21
177.667145
 31
0.0
  0
LINE
  5
17D
100
AcDbEntity
  8
枠_
  6
CONTINUOUS
 62
     3
100
AcDbLine
 10
1085.684967
 20
177.667145
 30
0.0
 11
1099.435425
 21
177.667145
 31
0.0
  0
LINE
  5
17E
100
AcDbEntity
  8
枠_
  6
CONTINUOUS
 62
     3
100
AcDbLine
 10
1099.435425
 20
177.667145
 30
0.0
 11
1097.599945
 21
172.627319
 31
0.0
  0
LINE
  5
17F
100
AcDbEntity
  8
枠_
  6
CONTINUOUS
 62
     3
100
AcDbLine
 10
1097.599945
 20
172.627319
 30
0.0
 11
1087.520447
 21
172.627319
 31
0.0
  0
LINE
  5
180
100
AcDbEntity
  8
枠_
  6
CONTINUOUS
 62
     3
100
AcDbLine
 10
1087.520447
 20
172.627319
 30
0.0
 11
1085.684967
 21
177.667145
 31
0.0
  0
LINE
  5
181
100
AcDbEntity
  8
枠_
  6
CONTINUOUS
 62
     3
100
AcDbLine
 10
1148.256378
 20
188.351959
 30
0.0
 11
1144.989472
 21
175.248016
 31
0.0
  0
LINE
  5
182
100
AcDbEntity
  8
枠_
  6
CONTINUOUS
 62
     3
100
AcDbLine
 10
1148.256378
 20
188.351959
 30
0.0
 11
1156.568146
 21
188.351959
 31
0.0
  0
LINE
  5
183
100
AcDbEntity
  8
枠_
  6
CONTINUOUS
 62
     3
100
AcDbLine
 10
1156.568146
 20
188.351959
 30
0.0
 11
1155.310974
 21
183.311981
 31
0.0
  0
LINE
  5
184
100
AcDbEntity
  8
枠_
  6
CONTINUOUS
 62
     3
100
AcDbLine
 10
1155.310974
 20
183.311981
 30
0.0
 11
1158.584137
 21
183.311981
 31
0.0
  0
LINE
  5
185
100
AcDbEntity
  8
枠_
  6
CONTINUOUS
 62
     3
100
AcDbLine
 10
1158.584137
 20
183.311981
 30
0.0
 11
1158.584137
 21
188.351959
 31
0.0
  0
LINE
  5
186
100
AcDbEntity
  8
枠_
  6
CONTINUOUS
 62
     3
100
AcDbLine
 10
1158.584137
 20
188.351959
 30
0.0
 11
1167.656708
 21
188.351959
 31
0.0
  0
LINE
  5
187
100
AcDbEntity
  8
枠_
  6
CONTINUOUS
 62
     3
100
AcDbLine
 10
1167.656708
 20
188.351959
 30
0.0
 11
1167.656708
 21
183.311981
 31
0.0
  0
LINE
  5
188
100
AcDbEntity
  8
枠_
  6
CONTINUOUS
 62
     3
100
AcDbLine
 10
1167.656708
 20
183.311981
 30
0.0
 11
1179.247742
 21
183.311981
 31
0.0
  0
LINE
  5
189
100
AcDbEntity
  8
枠_
  6
CONTINUOUS
 62
     3
100
AcDbLine
 10
1179.247742
 20
183.311981
 30
0.0
 11
1179.247742
 21
178.272003
 31
0.0
  0
LINE
  5
18A
100
AcDbEntity
  8
枠_
  6
CONTINUOUS
 62
     3
100
AcDbLine
 10
1167.656708
 20
178.272003
 30
0.0
 11
1179.247742
 21
178.272003
 31
0.0
  0
LINE
  5
18B
100
AcDbEntity
  8
枠_
  6
CONTINUOUS
 62
     3
100
AcDbLine
 10
1167.656708
 20
178.272003
 30
0.0
 11
1167.656708
 21
173.232025
 31
0.0
  0
LINE
  5
18C
100
AcDbEntity
  8
枠_
  6
CONTINUOUS
 62
     3
100
AcDbLine
 10
1167.656708
 20
173.232025
 30
0.0
 11
1180.256653
 21
173.232025
 31
0.0
  0
LINE
  5
18D
100
AcDbEntity
  8
枠_
  6
CONTINUOUS
 62
     3
100
AcDbLine
 10
1180.256653
 20
173.232025
 30
0.0
 11
1180.256653
 21
168.192047
 31
0.0
  0
LINE
  5
18E
100
AcDbEntity
  8
枠_
  6
CONTINUOUS
 62
     3
100
AcDbLine
 10
1180.256653
 20
168.192047
 30
0.0
 11
1175.851593
 21
168.192047
 31
0.0
  0
LINE
  5
18F
100
AcDbEntity
  8
枠_
  6
CONTINUOUS
 62
     3
100
AcDbLine
 10
1175.851593
 20
168.192047
 30
0.0
 11
1180.256653
 21
144.0
 31
0.0
  0
LINE
  5
190
100
AcDbEntity
  8
枠_
  6
CONTINUOUS
 62
     3
100
AcDbLine
 10
1180.256653
 20
144.0
 30
0.0
 11
1172.059784
 21
144.0
 31
0.0
  0
LINE
  5
191
100
AcDbEntity
  8
枠_
  6
CONTINUOUS
 62
     3
100
AcDbLine
 10
1172.059784
 20
144.0
 30
0.0
 11
1167.656708
 21
168.191742
 31
0.0
  0
LINE
  5
192
100
AcDbEntity
  8
枠_
  6
CONTINUOUS
 62
     3
100
AcDbLine
 10
1167.656708
 20
168.191742
 30
0.0
 11
1167.656708
 21
144.0
 31
0.0
  0
LINE
  5
193
100
AcDbEntity
  8
枠_
  6
CONTINUOUS
 62
     3
100
AcDbLine
 10
1167.656708
 20
144.0
 30
0.0
 11
1158.584137
 21
144.0
 31
0.0
  0
LINE
  5
194
100
AcDbEntity
  8
枠_
  6
CONTINUOUS
 62
     3
100
AcDbLine
 10
1158.584137
 20
144.0
 30
0.0
 11
1158.584137
 21
168.192047
 31
0.0
  0
LINE
  5
195
100
AcDbEntity
  8
枠_
  6
CONTINUOUS
 62
     3
100
AcDbLine
 10
1158.584137
 20
168.192047
 30
0.0
 11
1154.181061
 21
144.0
 31
0.0
  0
LINE
  5
196
100
AcDbEntity
  8
枠_
  6
CONTINUOUS
 62
     3
100
AcDbLine
 10
1154.181061
 20
144.0
 30
0.0
 11
1145.984039
 21
144.0
 31
0.0
  0
LINE
  5
197
100
AcDbEntity
  8
枠_
  6
CONTINUOUS
 62
     3
100
AcDbLine
 10
1145.984039
 20
144.0
 30
0.0
 11
1150.387115
 21
168.192047
 31
0.0
  0
LINE
  5
198
100
AcDbEntity
  8
枠_
  6
CONTINUOUS
 62
     3
100
AcDbLine
 10
1150.387115
 20
168.192047
 30
0.0
 11
1145.984039
 21
168.192047
 31
0.0
  0
LINE
  5
199
100
AcDbEntity
  8
枠_
  6
CONTINUOUS
 62
     3
100
AcDbLine
 10
1145.984039
 20
168.192047
 30
0.0
 11
1145.984039
 21
173.232025
 31
0.0
  0
LINE
  5
19A
100
AcDbEntity
  8
枠_
  6
CONTINUOUS
 62
     3
100
AcDbLine
 10
1145.984039
 20
173.232025
 30
0.0
 11
1158.584137
 21
173.232025
 31
0.0
  0
LINE
  5
19B
100
AcDbEntity
  8
枠_
  6
CONTINUOUS
 62
     3
100
AcDbLine
 10
1158.584137
 20
173.232025
 30
0.0
 11
1158.584137
 21
178.272003
 31
0.0
  0
LINE
  5
19C
100
AcDbEntity
  8
枠_
  6
CONTINUOUS
 62
     3
100
AcDbLine
 10
1158.584137
 20
178.272003
 30
0.0
 11
1154.053955
 21
178.272003
 31
0.0
  0
LINE
  5
19D
100
AcDbEntity
  8
枠_
  6
CONTINUOUS
 62
     3
100
AcDbLine
 10
1154.053955
 20
178.272003
 30
0.0
 11
1153.301239
 21
175.248016
 31
0.0
  0
LINE
  5
19E
100
AcDbEntity
  8
枠_
  6
CONTINUOUS
 62
     3
100
AcDbLine
 10
1153.301239
 20
175.248016
 30
0.0
 11
1144.989472
 21
175.248016
 31
0.0
  0
LINE
  5
19F
100
AcDbEntity
  8
枠_
  6
CONTINUOUS
 62
     3
100
AcDbLine
 10
1122.799988
 20
183.311981
 30
0.0
 11
1122.799988
 21
178.272003
 31
0.0
  0
LINE
  5
1A0
100
AcDbEntity
  8
枠_
  6
CONTINUOUS
 62
     3
100
AcDbLine
 10
1122.799988
 20
183.311981
 30
0.0
 11
1132.879639
 21
183.311981
 31
0.0
  0
LINE
  5
1A1
100
AcDbEntity
  8
枠_
  6
CONTINUOUS
 62
     3
100
AcDbLine
 10
1132.879639
 20
183.311981
 30
0.0
 11
1132.879639
 21
188.351959
 31
0.0
  0
LINE
  5
1A2
100
AcDbEntity
  8
枠_
  6
CONTINUOUS
 62
     3
100
AcDbLine
 10
1132.879639
 20
188.351959
 30
0.0
 11
1141.95221
 21
188.351959
 31
0.0
  0
LINE
  5
1A3
100
AcDbEntity
  8
枠_
  6
CONTINUOUS
 62
     3
100
AcDbLine
 10
1141.95221
 20
188.351959
 30
0.0
 11
1141.95221
 21
183.311981
 31
0.0
  0
LINE
  5
1A4
100
AcDbEntity
  8
枠_
  6
CONTINUOUS
 62
     3
100
AcDbLine
 10
1141.95221
 20
183.311981
 30
0.0
 11
1144.975128
 21
183.311981
 31
0.0
  0
LINE
  5
1A5
100
AcDbEntity
  8
枠_
  6
CONTINUOUS
 62
     3
100
AcDbLine
 10
1144.975128
 20
183.311981
 30
0.0
 11
1144.975128
 21
178.272003
 31
0.0
  0
LINE
  5
1A6
100
AcDbEntity
  8
枠_
  6
CONTINUOUS
 62
     3
100
AcDbLine
 10
1144.975128
 20
178.272003
 30
0.0
 11
1141.95221
 21
178.272003
 31
0.0
  0
LINE
  5
1A7
100
AcDbEntity
  8
枠_
  6
CONTINUOUS
 62
     3
100
AcDbLine
 10
1141.95221
 20
178.272003
 30
0.0
 11
1144.975128
 21
174.110016
 31
0.0
  0
LINE
  5
1A8
100
AcDbEntity
  8
枠_
  6
CONTINUOUS
 62
     3
100
AcDbLine
 10
1144.975128
 20
174.110016
 30
0.0
 11
1144.975128
 21
163.820709
 31
0.0
  0
LINE
  5
1A9
100
AcDbEntity
  8
枠_
  6
CONTINUOUS
 62
     3
100
AcDbLine
 10
1144.975128
 20
163.820709
 30
0.0
 11
1141.95221
 21
167.982849
 31
0.0
  0
LINE
  5
1AA
100
AcDbEntity
  8
枠_
  6
CONTINUOUS
 62
     3
100
AcDbLine
 10
1141.95221
 20
167.982849
 30
0.0
 11
1141.95221
 21
144.0
 31
0.0
  0
LINE
  5
1AB
100
AcDbEntity
  8
枠_
  6
CONTINUOUS
 62
     3
100
AcDbLine
 10
1141.95221
 20
144.0
 30
0.0
 11
1132.879639
 21
144.0
 31
0.0
  0
LINE
  5
1AC
100
AcDbEntity
  8
枠_
  6
CONTINUOUS
 62
     3
100
AcDbLine
 10
1132.879639
 20
144.0
 30
0.0
 11
1132.879639
 21
178.272003
 31
0.0
  0
LINE
  5
1AD
100
AcDbEntity
  8
枠_
  6
CONTINUOUS
 62
     3
100
AcDbLine
 10
1132.483826
 20
178.272003
 30
0.0
 11
1128.880615
 21
144.0
 31
0.0
  0
LINE
  5
1AE
100
AcDbEntity
  8
枠_
  6
CONTINUOUS
 62
     3
100
AcDbLine
 10
1128.880615
 20
144.0
 30
0.0
 11
1122.799988
 21
144.0
 31
0.0
  0
LINE
  5
1AF
100
AcDbEntity
  8
枠_
  6
CONTINUOUS
 62
     3
100
AcDbLine
 10
1122.799988
 20
144.0
 30
0.0
 11
1126.403198
 21
178.272003
 31
0.0
  0
LINE
  5
1B0
100
AcDbEntity
  8
枠_
  6
CONTINUOUS
 62
     3
100
AcDbLine
 10
1126.403198
 20
178.272003
 30
0.0
 11
1122.799988
 21
178.272003
 31
0.0
  0
LINE
  5
1B1
100
AcDbEntity
  8
枠_
  6
CONTINUOUS
 62
     3
100
AcDbLine
 10
1185.295563
 20
172.22403
 30
0.0
 11
1185.295563
 21
166.176056
 31
0.0
  0
LINE
  5
1B2
100
AcDbEntity
  8
枠_
  6
CONTINUOUS
 62
     3
100
AcDbLine
 10
1185.295563
 20
172.22403
 30
0.0
 11
1215.536347
 21
172.22403
 31
0.0
  0
LINE
  5
1B3
100
AcDbEntity
  8
枠_
  6
CONTINUOUS
 62
     3
100
AcDbLine
 10
1215.536347
 20
172.22403
 30
0.0
 11
1215.536347
 21
166.176056
 31
0.0
  0
LINE
  5
1B4
100
AcDbEntity
  8
枠_
  6
CONTINUOUS
 62
     3
100
AcDbLine
 10
1215.536347
 20
166.176056
 30
0.0
 11
1205.959167
 21
166.176056
 31
0.0
  0
LINE
  5
1B5
100
AcDbEntity
  8
枠_
  6
CONTINUOUS
 62
     3
100
AcDbLine
 10
1205.959167
 20
166.176056
 30
0.0
 11
1205.959167
 21
157.774109
 31
0.0
  0
LINE
  5
1B6
100
AcDbEntity
  8
枠_
  6
CONTINUOUS
 62
     3
100
AcDbLine
 10
1205.959167
 20
157.774109
 30
0.0
 11
1216.040802
 21
159.916596
 31
0.0
  0
LINE
  5
1B7
100
AcDbEntity
  8
枠_
  6
CONTINUOUS
 62
     3
100
AcDbLine
 10
1216.040802
 20
159.916596
 30
0.0
 11
1216.040802
 21
150.641998
 31
0.0
  0
LINE
  5
1B8
100
AcDbEntity
  8
枠_
  6
CONTINUOUS
 62
     3
100
AcDbLine
 10
1216.040802
 20
150.641998
 30
0.0
 11
1184.790955
 21
144.0
 31
0.0
  0
LINE
  5
1B9
100
AcDbEntity
  8
枠_
  6
CONTINUOUS
 62
     3
100
AcDbLine
 10
1184.790955
 20
144.0
 30
0.0
 11
1184.790955
 21
153.274597
 31
0.0
  0
LINE
  5
1BA
100
AcDbEntity
  8
枠_
  6
CONTINUOUS
 62
     3
100
AcDbLine
 10
1184.790955
 20
153.274597
 30
0.0
 11
1194.872589
 21
155.417236
 31
0.0
  0
LINE
  5
1BB
100
AcDbEntity
  8
枠_
  6
CONTINUOUS
 62
     3
100
AcDbLine
 10
1194.872589
 20
155.417236
 30
0.0
 11
1194.872589
 21
166.176056
 31
0.0
  0
LINE
  5
1BC
100
AcDbEntity
  8
枠_
  6
CONTINUOUS
 62
     3
100
AcDbLine
 10
1194.872589
 20
166.176056
 30
0.0
 11
1185.295563
 21
166.176056
 31
0.0
  0
LINE
  5
1BD
100
AcDbEntity
  8
枠_
  6
CONTINUOUS
 62
     3
100
AcDbLine
 10
1182.272644
 20
184.319977
 30
0.0
 11
1182.272644
 21
178.272003
 31
0.0
  0
LINE
  5
1BE
100
AcDbEntity
  8
枠_
  6
CONTINUOUS
 62
     3
100
AcDbLine
 10
1182.272644
 20
184.319977
 30
0.0
 11
1212.244873
 21
184.319977
 31
0.0
  0
LINE
  5
1BF
100
AcDbEntity
  8
枠_
  6
CONTINUOUS
 62
     3
100
AcDbLine
 10
1212.244873
 20
184.319977
 30
0.0
 11
1210.778504
 21
188.351959
 31
0.0
  0
LINE
  5
1C0
100
AcDbEntity
  8
枠_
  6
CONTINUOUS
 62
     3
100
AcDbLine
 10
1210.778504
 20
188.351959
 30
0.0
 11
1222.576599
 21
188.351959
 31
0.0
  0
LINE
  5
1C1
100
AcDbEntity
  8
枠_
  6
CONTINUOUS
 62
     3
100
AcDbLine
 10
1222.576599
 20
188.351959
 30
0.0
 11
1224.044952
 21
184.319977
 31
0.0
  0
LINE
  5
1C2
100
AcDbEntity
  8
枠_
  6
CONTINUOUS
 62
     3
100
AcDbLine
 10
1224.044952
 20
184.319977
 30
0.0
 11
1226.624909
 21
184.319977
 31
0.0
  0
LINE
  5
1C3
100
AcDbEntity
  8
枠_
  6
CONTINUOUS
 62
     3
100
AcDbLine
 10
1226.624909
 20
184.319977
 30
0.0
 11
1226.624909
 21
188.351959
 31
0.0
  0
LINE
  5
1C4
100
AcDbEntity
  8
枠_
  6
CONTINUOUS
 62
     3
100
AcDbLine
 10
1226.624909
 20
188.351959
 30
0.0
 11
1235.695496
 21
188.351959
 31
0.0
  0
LINE
  5
1C5
100
AcDbEntity
  8
枠_
  6
CONTINUOUS
 62
     3
100
AcDbLine
 10
1235.695496
 20
188.351959
 30
0.0
 11
1235.695496
 21
184.319977
 31
0.0
  0
LINE
  5
1C6
100
AcDbEntity
  8
枠_
  6
CONTINUOUS
 62
     3
100
AcDbLine
 10
1235.695496
 20
184.319977
 30
0.0
 11
1238.720398
 21
184.319977
 31
0.0
  0
LINE
  5
1C7
100
AcDbEntity
  8
枠_
  6
CONTINUOUS
 62
     3
100
AcDbLine
 10
1238.720398
 20
184.319977
 30
0.0
 11
1238.720398
 21
178.272003
 31
0.0
  0
LINE
  5
1C8
100
AcDbEntity
  8
枠_
  6
CONTINUOUS
 62
     3
100
AcDbLine
 10
1238.720398
 20
178.272003
 30
0.0
 11
1226.245422
 21
178.272003
 31
0.0
  0
LINE
  5
1C9
100
AcDbEntity
  8
枠_
  6
CONTINUOUS
 62
     3
100
AcDbLine
 10
1226.245422
 20
178.272003
 30
0.0
 11
1238.720398
 21
144.0
 31
0.0
  0
LINE
  5
1CA
100
AcDbEntity
  8
枠_
  6
CONTINUOUS
 62
     3
100
AcDbLine
 10
1238.720398
 20
144.0
 30
0.0
 11
1226.920166
 21
144.0
 31
0.0
  0
LINE
  5
1CB
100
AcDbEntity
  8
枠_
  6
CONTINUOUS
 62
     3
100
AcDbLine
 10
1226.920166
 20
144.0
 30
0.0
 11
1214.447327
 21
178.272003
 31
0.0
  0
LINE
  5
1CC
100
AcDbEntity
  8
枠_
  6
CONTINUOUS
 62
     3
100
AcDbLine
 10
1214.447327
 20
178.272003
 30
0.0
 11
1182.272644
 21
178.272003
 31
0.0
  0
LINE
  5
1CD
100
AcDbEntity
  8
枠_
  6
CONTINUOUS
 62
     3
100
AcDbLine
 10
1240.736389
 20
179.747833
 30
0.0
 11
1240.736389
 21
173.369965
 31
0.0
  0
LINE
  5
1CE
100
AcDbEntity
  8
枠_
  6
CONTINUOUS
 62
     3
100
AcDbLine
 10
1240.736389
 20
179.747833
 30
0.0
 11
1269.463654
 21
189.359955
 31
0.0
  0
LINE
  5
1CF
100
AcDbEntity
  8
枠_
  6
CONTINUOUS
 62
     3
100
AcDbLine
 10
1269.463654
 20
189.359955
 30
0.0
 11
1298.191071
 21
179.747528
 31
0.0
  0
LINE
  5
1D0
100
AcDbEntity
  8
枠_
  6
CONTINUOUS
 62
     3
100
AcDbLine
 10
1298.191071
 20
179.747528
 30
0.0
 11
1298.191071
 21
173.369965
 31
0.0
  0
LINE
  5
1D1
100
AcDbEntity
  8
枠_
  6
CONTINUOUS
 62
     3
100
AcDbLine
 10
1298.191071
 20
173.369965
 30
0.0
 11
1289.624939
 21
176.236786
 31
0.0
  0
LINE
  5
1D2
100
AcDbEntity
  8
枠_
  6
CONTINUOUS
 62
     3
100
AcDbLine
 10
1289.624939
 20
176.236786
 30
0.0
 11
1289.624939
 21
171.216034
 31
0.0
  0
LINE
  5
1D3
100
AcDbEntity
  8
枠_
  6
CONTINUOUS
 62
     3
100
AcDbLine
 10
1289.624939
 20
171.216034
 30
0.0
 11
1249.304504
 21
171.216034
 31
0.0
  0
LINE
  5
1D4
100
AcDbEntity
  8
枠_
  6
CONTINUOUS
 62
     3
100
AcDbLine
 10
1249.304504
 20
171.216034
 30
0.0
 11
1249.304504
 21
176.236786
 31
0.0
  0
LINE
  5
1D5
100
AcDbEntity
  8
枠_
  6
CONTINUOUS
 62
     3
100
AcDbLine
 10
1249.304504
 20
176.236786
 30
0.0
 11
1240.736389
 21
173.369965
 31
0.0
  0
LINE
  5
1D6
100
AcDbEntity
  8
枠_
  6
CONTINUOUS
 62
     3
100
AcDbLine
 10
1252.374573
 20
177.264008
 30
0.0
 11
1269.463654
 21
182.982239
 31
0.0
  0
LINE
  5
1D7
100
AcDbEntity
  8
枠_
  6
CONTINUOUS
 62
     3
100
AcDbLine
 10
1269.463654
 20
182.982239
 30
0.0
 11
1286.554871
 21
177.264008
 31
0.0
  0
LINE
  5
1D8
100
AcDbEntity
  8
枠_
  6
CONTINUOUS
 62
     3
100
AcDbLine
 10
1286.554871
 20
177.264008
 30
0.0
 11
1252.374573
 21
177.264008
 31
0.0
  0
LINE
  5
1D9
100
AcDbEntity
  8
枠_
  6
CONTINUOUS
 62
     3
100
AcDbLine
 10
1240.736389
 20
167.183899
 30
0.0
 11
1240.736389
 21
161.135925
 31
0.0
  0
LINE
  5
1DA
100
AcDbEntity
  8
枠_
  6
CONTINUOUS
 62
     3
100
AcDbLine
 10
1240.736389
 20
167.183899
 30
0.0
 11
1298.191071
 21
167.183899
 31
0.0
  0
LINE
  5
1DB
100
AcDbEntity
  8
枠_
  6
CONTINUOUS
 62
     3
100
AcDbLine
 10
1298.191071
 20
167.183899
 30
0.0
 11
1298.191071
 21
161.135925
 31
0.0
  0
LINE
  5
1DC
100
AcDbEntity
  8
枠_
  6
CONTINUOUS
 62
     3
100
AcDbLine
 10
1298.191071
 20
161.135925
 30
0.0
 11
1290.201111
 21
161.135925
 31
0.0
  0
LINE
  5
1DD
100
AcDbEntity
  8
枠_
  6
CONTINUOUS
 62
     3
100
AcDbLine
 10
1290.201111
 20
161.135925
 30
0.0
 11
1298.191071
 21
144.0
 31
0.0
  0
LINE
  5
1DE
100
AcDbEntity
  8
枠_
  6
CONTINUOUS
 62
     3
100
AcDbLine
 10
1298.191071
 20
144.0
 30
0.0
 11
1240.736389
 21
144.0
 31
0.0
  0
LINE
  5
1DF
100
AcDbEntity
  8
枠_
  6
CONTINUOUS
 62
     3
100
AcDbLine
 10
1240.736389
 20
144.0
 30
0.0
 11
1248.726196
 21
161.135925
 31
0.0
  0
LINE
  5
1E0
100
AcDbEntity
  8
枠_
  6
CONTINUOUS
 62
     3
100
AcDbLine
 10
1248.726196
 20
161.135925
 30
0.0
 11
1240.736389
 21
161.135925
 31
0.0
  0
LINE
  5
1E1
100
AcDbEntity
  8
枠_
  6
CONTINUOUS
 62
     3
100
AcDbLine
 10
1259.847565
 20
161.135925
 30
0.0
 11
1279.079743
 21
161.135925
 31
0.0
  0
LINE
  5
1E2
100
AcDbEntity
  8
枠_
  6
CONTINUOUS
 62
     3
100
AcDbLine
 10
1279.079743
 20
161.135925
 30
0.0
 11
1284.249725
 21
150.047974
 31
0.0
  0
LINE
  5
1E3
100
AcDbEntity
  8
枠_
  6
CONTINUOUS
 62
     3
100
AcDbLine
 10
1284.249725
 20
150.047974
 30
0.0
 11
1254.677582
 21
150.047974
 31
0.0
  0
LINE
  5
1E4
100
AcDbEntity
  8
枠_
  6
CONTINUOUS
 62
     3
100
AcDbLine
 10
1259.847565
 20
161.135925
 30
0.0
 11
1254.677582
 21
150.047974
 31
0.0
  0
LINE
  5
1E5
100
AcDbEntity
  8
枠_
  6
CONTINUOUS
 62
     3
100
AcDbLine
 10
1327.424927
 20
177.264008
 30
0.0
 11
1327.424927
 21
171.216034
 31
0.0
  0
LINE
  5
1E6
100
AcDbEntity
  8
枠_
  6
CONTINUOUS
 62
     3
100
AcDbLine
 10
1327.424927
 20
177.264008
 30
0.0
 11
1336.495514
 21
177.264008
 31
0.0
  0
LINE
  5
1E7
100
AcDbEntity
  8
枠_
  6
CONTINUOUS
 62
     3
100
AcDbLine
 10
1336.495514
 20
177.264008
 30
0.0
 11
1336.495514
 21
188.351959
 31
0.0
  0
LINE
  5
1E8
100
AcDbEntity
  8
枠_
  6
CONTINUOUS
 62
     3
100
AcDbLine
 10
1336.495514
 20
188.351959
 30
0.0
 11
1346.575012
 21
188.351959
 31
0.0
  0
LINE
  5
1E9
100
AcDbEntity
  8
枠_
  6
CONTINUOUS
 62
     3
100
AcDbLine
 10
1346.575012
 20
188.351959
 30
0.0
 11
1346.575012
 21
177.264008
 31
0.0
  0
LINE
  5
1EA
100
AcDbEntity
  8
枠_
  6
CONTINUOUS
 62
     3
100
AcDbLine
 10
1346.575012
 20
177.264008
 30
0.0
 11
1355.647736
 21
177.264008
 31
0.0
  0
LINE
  5
1EB
100
AcDbEntity
  8
枠_
  6
CONTINUOUS
 62
     3
100
AcDbLine
 10
1355.647736
 20
177.264008
 30
0.0
 11
1355.647736
 21
171.216034
 31
0.0
  0
LINE
  5
1EC
100
AcDbEntity
  8
枠_
  6
CONTINUOUS
 62
     3
100
AcDbLine
 10
1355.647736
 20
171.216034
 30
0.0
 11
1346.575012
 21
171.216034
 31
0.0
  0
LINE
  5
1ED
100
AcDbEntity
  8
枠_
  6
CONTINUOUS
 62
     3
100
AcDbLine
 10
1346.575012
 20
171.216034
 30
0.0
 11
1346.575012
 21
150.047974
 31
0.0
  0
LINE
  5
1EE
100
AcDbEntity
  8
枠_
  6
CONTINUOUS
 62
     3
100
AcDbLine
 10
1346.575012
 20
150.047974
 30
0.0
 11
1356.656647
 21
150.047974
 31
0.0
  0
LINE
  5
1EF
100
AcDbEntity
  8
枠_
  6
CONTINUOUS
 62
     3
100
AcDbLine
 10
1356.656647
 20
150.047974
 30
0.0
 11
1356.656647
 21
144.0
 31
0.0
  0
LINE
  5
1F0
100
AcDbEntity
  8
枠_
  6
CONTINUOUS
 62
     3
100
AcDbLine
 10
1356.656647
 20
144.0
 30
0.0
 11
1323.390961
 21
144.0
 31
0.0
  0
LINE
  5
1F1
100
AcDbEntity
  8
枠_
  6
CONTINUOUS
 62
     3
100
AcDbLine
 10
1323.390961
 20
144.0
 30
0.0
 11
1323.390961
 21
150.047974
 31
0.0
  0
LINE
  5
1F2
100
AcDbEntity
  8
枠_
  6
CONTINUOUS
 62
     3
100
AcDbLine
 10
1323.390961
 20
150.047974
 30
0.0
 11
1336.495514
 21
150.047974
 31
0.0
  0
LINE
  5
1F3
100
AcDbEntity
  8
枠_
  6
CONTINUOUS
 62
     3
100
AcDbLine
 10
1336.495514
 20
150.047974
 30
0.0
 11
1336.495514
 21
171.216034
 31
0.0
  0
LINE
  5
1F4
100
AcDbEntity
  8
枠_
  6
CONTINUOUS
 62
     3
100
AcDbLine
 10
1336.495514
 20
171.216034
 30
0.0
 11
1327.424927
 21
171.216034
 31
0.0
  0
LINE
  5
1F5
100
AcDbEntity
  8
枠_
  6
CONTINUOUS
 62
     3
100
AcDbLine
 10
1300.206909
 20
184.319977
 30
0.0
 11
1300.206909
 21
178.272003
 31
0.0
  0
LINE
  5
1F6
100
AcDbEntity
  8
枠_
  6
CONTINUOUS
 62
     3
100
AcDbLine
 10
1300.206909
 20
184.319977
 30
0.0
 11
1309.279633
 21
184.319977
 31
0.0
  0
LINE
  5
1F7
100
AcDbEntity
  8
枠_
  6
CONTINUOUS
 62
     3
100
AcDbLine
 10
1309.279633
 20
184.319977
 30
0.0
 11
1309.279633
 21
188.351959
 31
0.0
  0
LINE
  5
1F8
100
AcDbEntity
  8
枠_
  6
CONTINUOUS
 62
     3
100
AcDbLine
 10
1309.279633
 20
188.351959
 30
0.0
 11
1319.359131
 21
188.351959
 31
0.0
  0
LINE
  5
1F9
100
AcDbEntity
  8
枠_
  6
CONTINUOUS
 62
     3
100
AcDbLine
 10
1319.359131
 20
188.351959
 30
0.0
 11
1319.359131
 21
184.319977
 31
0.0
  0
LINE
  5
1FA
100
AcDbEntity
  8
枠_
  6
CONTINUOUS
 62
     3
100
AcDbLine
 10
1319.359131
 20
184.319977
 30
0.0
 11
1328.431854
 21
184.319977
 31
0.0
  0
LINE
  5
1FB
100
AcDbEntity
  8
枠_
  6
CONTINUOUS
 62
     3
100
AcDbLine
 10
1328.431854
 20
184.319977
 30
0.0
 11
1318.026123
 21
169.45578
 31
0.0
  0
LINE
  5
1FC
100
AcDbEntity
  8
枠_
  6
CONTINUOUS
 62
     3
100
AcDbLine
 10
1318.026123
 20
169.45578
 30
0.0
 11
1327.424927
 21
162.875885
 31
0.0
  0
LINE
  5
1FD
100
AcDbEntity
  8
枠_
  6
CONTINUOUS
 62
     3
100
AcDbLine
 10
1327.424927
 20
162.875885
 30
0.0
 11
1327.424927
 21
151.801209
 31
0.0
  0
LINE
  5
1FE
100
AcDbEntity
  8
枠_
  6
CONTINUOUS
 62
     3
100
AcDbLine
 10
1327.424927
 20
151.801209
 30
0.0
 11
1319.359131
 21
157.447723
 31
0.0
  0
LINE
  5
1FF
100
AcDbEntity
  8
枠_
  6
CONTINUOUS
 62
     3
100
AcDbLine
 10
1319.359131
 20
157.447723
 30
0.0
 11
1319.359131
 21
144.0
 31
0.0
  0
LINE
  5
200
100
AcDbEntity
  8
枠_
  6
CONTINUOUS
 62
     3
100
AcDbLine
 10
1319.359131
 20
144.0
 30
0.0
 11
1309.279633
 21
144.0
 31
0.0
  0
LINE
  5
201
100
AcDbEntity
  8
枠_
  6
CONTINUOUS
 62
     3
100
AcDbLine
 10
1309.279633
 20
144.0
 30
0.0
 11
1309.279633
 21
156.9599
 31
0.0
  0
LINE
  5
202
100
AcDbEntity
  8
枠_
  6
CONTINUOUS
 62
     3
100
AcDbLine
 10
1309.279633
 20
156.9599
 30
0.0
 11
1300.206909
 21
144.0
 31
0.0
  0
LINE
  5
203
100
AcDbEntity
  8
枠_
  6
CONTINUOUS
 62
     3
100
AcDbLine
 10
1300.206909
 20
144.0
 30
0.0
 11
1300.206909
 21
159.819397
 31
0.0
  0
LINE
  5
204
100
AcDbEntity
  8
枠_
  6
CONTINUOUS
 62
     3
100
AcDbLine
 10
1300.206909
 20
159.819397
 30
0.0
 11
1313.124848
 21
178.272003
 31
0.0
  0
LINE
  5
205
100
AcDbEntity
  8
枠_
  6
CONTINUOUS
 62
     3
100
AcDbLine
 10
1313.124848
 20
178.272003
 30
0.0
 11
1300.206909
 21
178.272003
 31
0.0
  0
ARC
  5
206
100
AcDbEntity
  8
枠_
  6
CONTINUOUS
 62
     2
100
AcDbCircle
 10
858.161011
 20
170.200409
 30
0.0
 40
6.300122
100
AcDbArc
 50
310.768311
 51
335.998779
  0
LINE
  5
207
100
AcDbEntity
  8
枠_
  6
CONTINUOUS
 62
     2
100
AcDbLine
 10
865.400238
 20
170.964111
 30
0.0
 11
863.919678
 21
167.639069
 31
0.0
  0
LINE
  5
208
100
AcDbEntity
  8
枠_
  6
CONTINUOUS
 62
     2
100
AcDbLine
 10
847.985077
 20
174.744019
 30
0.0
 11
871.218414
 21
174.744019
 31
0.0
  0
ARC
  5
209
100
AcDbEntity
  8
枠_
  6
CONTINUOUS
 62
     2
100
AcDbCircle
 10
951.299286
 20
162.144074
 30
0.0
 40
15.624008
100
AcDbArc
 50
270.000031
 51
324.00116
  0
ARC
  5
20A
100
AcDbEntity
  8
枠_
  6
CONTINUOUS
 62
     2
100
AcDbCircle
 10
951.299286
 20
162.144074
 30
0.0
 40
13.10401
100
AcDbArc
 50
270.000031
 51
324.00116
  0
ARC
  5
20B
100
AcDbEntity
  8
枠_
  6
CONTINUOUS
 62
     2
100
AcDbCircle
 10
798.565674
 20
162.144074
 30
0.0
 40
15.62398
100
AcDbArc
 50
270.000031
 51
333.99855
  0
ARC
  5
20C
100
AcDbEntity
  8
枠_
  6
CONTINUOUS
 62
     2
100
AcDbCircle
 10
797.765503
 20
162.144074
 30
0.0
 40
10.583992
100
AcDbArc
 50
270.000031
 51
333.99855
  0
ARC
  5
20D
100
AcDbEntity
  8
枠_
  6
CONTINUOUS
 62
     2
100
AcDbCircle
 10
798.165588
 20
162.144074
 30
0.0
 40
13.103991
100
AcDbArc
 50
270.000031
 51
333.99855
  0
LINE
  5
20E
100
AcDbEntity
  8
枠_
  6
CONTINUOUS
 62
     2
100
AcDbLine
 10
771.84082
 20
186.032127
 30
0.0
 11
796.383972
 21
186.032127
 31
0.0
  0
LINE
  5
20F
100
AcDbEntity
  8
枠_
  6
CONTINUOUS
 62
     2
100
AcDbLine
 10
771.84082
 20
183.712143
 30
0.0
 11
796.383972
 21
183.712143
 31
0.0
  0
LINE
  5
210
100
AcDbEntity
  8
枠_
  6
CONTINUOUS
 62
     2
100
AcDbLine
 10
771.84082
 20
181.392311
 30
0.0
 11
796.383972
 21
181.392311
 31
0.0
  0
LINE
  5
211
100
AcDbEntity
  8
枠_
  6
CONTINUOUS
 62
     2
100
AcDbLine
 10
771.84082
 20
174.136032
 30
0.0
 11
796.383972
 21
174.136032
 31
0.0
  0
LINE
  5
212
100
AcDbEntity
  8
枠_
  6
CONTINUOUS
 62
     2
100
AcDbLine
 10
771.84082
 20
171.615891
 30
0.0
 11
796.383972
 21
171.615891
 31
0.0
  0
LINE
  5
213
100
AcDbEntity
  8
枠_
  6
CONTINUOUS
 62
     2
100
AcDbLine
 10
771.84082
 20
169.296059
 30
0.0
 11
796.383972
 21
169.296059
 31
0.0
  0
LINE
  5
214
100
AcDbEntity
  8
枠_
  6
CONTINUOUS
 62
     2
100
AcDbLine
 10
771.84082
 20
151.559967
 30
0.0
 11
797.765503
 21
151.559967
 31
0.0
  0
LINE
  5
215
100
AcDbEntity
  8
枠_
  6
CONTINUOUS
 62
     2
100
AcDbLine
 10
771.84082
 20
149.039978
 30
0.0
 11
797.765503
 21
149.039978
 31
0.0
  0
LINE
  5
216
100
AcDbEntity
  8
枠_
  6
CONTINUOUS
 62
     2
100
AcDbLine
 10
771.84082
 20
146.519989
 30
0.0
 11
797.765503
 21
146.519989
 31
0.0
  0
LINE
  5
217
100
AcDbEntity
  8
枠_
  6
CONTINUOUS
 62
     2
100
AcDbLine
 10
807.277069
 20
157.504028
 30
0.0
 11
816.108246
 21
175.610365
 31
0.0
  0
LINE
  5
218
100
AcDbEntity
  8
枠_
  6
CONTINUOUS
 62
     2
100
AcDbLine
 10
809.941254
 20
156.399597
 30
0.0
 11
819.311676
 21
175.610375
 31
0.0
  0
LINE
  5
219
100
AcDbEntity
  8
枠_
  6
CONTINUOUS
 62
     2
100
AcDbLine
 10
812.605286
 20
155.294251
 30
0.0
 11
822.513123
 21
175.610346
 31
0.0
  0
LINE
  5
21A
100
AcDbEntity
  8
枠_
  6
CONTINUOUS
 62
     2
100
AcDbLine
 10
809.136353
 20
185.695976
 30
0.0
 11
813.518372
 21
185.695976
 31
0.0
  0
LINE
  5
21B
100
AcDbEntity
  8
枠_
  6
CONTINUOUS
 62
     2
100
AcDbLine
 10
809.136353
 20
182.839989
 30
0.0
 11
813.518372
 21
182.839989
 31
0.0
  0
LINE
  5
21C
100
AcDbEntity
  8
枠_
  6
CONTINUOUS
 62
     2
100
AcDbLine
 10
820.224915
 20
185.695976
 30
0.0
 11
824.606934
 21
185.695976
 31
0.0
  0
LINE
  5
21D
100
AcDbEntity
  8
枠_
  6
CONTINUOUS
 62
     2
100
AcDbLine
 10
820.224915
 20
182.839989
 30
0.0
 11
824.606934
 21
182.839989
 31
0.0
  0
LINE
  5
21E
100
AcDbEntity
  8
枠_
  6
CONTINUOUS
 62
     2
100
AcDbLine
 10
831.313477
 20
172.224182
 30
0.0
 11
843.28064
 21
172.224182
 31
0.0
  0
LINE
  5
21F
100
AcDbEntity
  8
枠_
  6
CONTINUOUS
 62
     2
100
AcDbLine
 10
840.375366
 20
182.502684
 30
0.0
 11
841.605072
 21
174.744019
 31
0.0
  0
LINE
  5
220
100
AcDbEntity
  8
枠_
  6
CONTINUOUS
 62
     2
100
AcDbLine
 10
846.188049
 20
145.817303
 30
0.0
 11
842.449036
 21
169.419044
 31
0.0
  0
ARC
  5
221
100
AcDbEntity
  8
枠_
  6
CONTINUOUS
 62
     2
100
AcDbCircle
 10
857.960968
 20
170.200409
 30
0.0
 40
8.820121
100
AcDbArc
 50
272.671387
 51
335.998779
  0
ARC
  5
222
100
AcDbEntity
  8
枠_
  6
CONTINUOUS
 62
     2
100
AcDbCircle
 10
857.760925
 20
170.200409
 30
0.0
 40
11.340113
100
AcDbArc
 50
267.367432
 51
335.998779
  0
LINE
  5
223
100
AcDbEntity
  8
枠_
  6
CONTINUOUS
 62
     2
100
AcDbLine
 10
872.351685
 20
175.090527
 30
0.0
 11
868.12149
 21
165.588592
 31
0.0
  0
LINE
  5
224
100
AcDbEntity
  8
枠_
  6
CONTINUOUS
 62
     2
100
AcDbLine
 10
852.090607
 20
145.817303
 30
0.0
 11
848.220367
 21
170.248817
 31
0.0
  0
LINE
  5
225
100
AcDbEntity
  8
枠_
  6
CONTINUOUS
 62
     2
100
AcDbLine
 10
849.339294
 20
145.817303
 30
0.0
 11
843.528442
 21
182.502674
 31
0.0
  0
LINE
  5
226
100
AcDbEntity
  8
枠_
  6
CONTINUOUS
 62
     2
100
AcDbLine
 10
846.279755
 20
182.502674
 30
0.0
 11
847.39563
 21
175.459465
 31
0.0
  0
LINE
  5
227
100
AcDbEntity
  8
枠_
  6
CONTINUOUS
 62
     2
100
AcDbLine
 10
831.313477
 20
174.744019
 30
0.0
 11
839.605103
 21
174.744019
 31
0.0
  0
LINE
  5
228
100
AcDbEntity
  8
枠_
  6
CONTINUOUS
 62
     2
100
AcDbLine
 10
868.669891
 20
172.570395
 30
0.0
 11
866.020508
 21
166.613525
 31
0.0
  0
LINE
  5
229
100
AcDbEntity
  8
枠_
  6
CONTINUOUS
 62
     2
100
AcDbLine
 10
847.107391
 20
172.224182
 30
0.0
 11
866.338196
 21
172.224182
 31
0.0
  0
ARC
  5
22A
100
AcDbEntity
  8
枠_
  6
CONTINUOUS
 62
     2
100
AcDbCircle
 10
857.560883
 20
170.200409
 30
0.0
 40
13.860111
100
AcDbArc
 50
269.611328
 51
335.998779
  0
LINE
  5
22B
100
AcDbEntity
  8
枠_
  6
CONTINUOUS
 62
     2
100
AcDbLine
 10
874.909821
 20
175.090555
 30
0.0
 11
870.222473
 21
164.563354
 31
0.0
  0
LINE
  5
22C
100
AcDbEntity
  8
枠_
  6
CONTINUOUS
 62
     2
100
AcDbLine
 10
982.312622
 20
183.312134
 30
0.0
 11
961.880646
 21
155.182709
 31
0.0
  0
LINE
  5
22D
100
AcDbEntity
  8
枠_
  6
CONTINUOUS
 62
     2
100
AcDbLine
 10
976.868134
 20
180.792297
 30
0.0
 11
959.342041
 21
156.664032
 31
0.0
  0
ARC
  5
22E
100
AcDbEntity
  8
枠_
  6
CONTINUOUS
 62
     2
100
AcDbCircle
 10
951.999359
 20
161.744064
 30
0.0
 40
9.324021
100
AcDbArc
 50
270.000031
 51
324.00116
  0
LINE
  5
22F
100
AcDbEntity
  8
枠_
  6
CONTINUOUS
 62
     2
100
AcDbLine
 10
882.879486
 20
186.015591
 30
0.0
 11
927.263641
 21
186.015591
 31
0.0
  0
LINE
  5
230
100
AcDbEntity
  8
枠_
  6
CONTINUOUS
 62
     2
100
AcDbLine
 10
882.879486
 20
183.395752
 30
0.0
 11
927.263641
 21
183.395752
 31
0.0
  0
LINE
  5
231
100
AcDbEntity
  8
枠_
  6
CONTINUOUS
 62
     2
100
AcDbLine
 10
882.879486
 20
180.675911
 30
0.0
 11
927.263641
 21
180.675911
 31
0.0
  0
LINE
  5
232
100
AcDbEntity
  8
枠_
  6
CONTINUOUS
 62
     2
100
AcDbLine
 10
878.847656
 20
151.644043
 30
0.0
 11
931.295471
 21
151.644043
 31
0.0
  0
LINE
  5
233
100
AcDbEntity
  8
枠_
  6
CONTINUOUS
 62
     2
100
AcDbLine
 10
878.847656
 20
149.124054
 30
0.0
 11
931.295471
 21
149.124054
 31
0.0
  0
LINE
  5
234
100
AcDbEntity
  8
枠_
  6
CONTINUOUS
 62
     2
100
AcDbLine
 10
878.847656
 20
146.403908
 30
0.0
 11
931.295471
 21
146.403908
 31
0.0
  0
LINE
  5
235
100
AcDbEntity
  8
枠_
  6
CONTINUOUS
 62
     2
100
AcDbLine
 10
942.352142
 20
185.932125
 30
0.0
 11
985.256806
 21
185.932125
 31
0.0
  0
LINE
  5
236
100
AcDbEntity
  8
枠_
  6
CONTINUOUS
 62
     2
100
AcDbLine
 10
987.856903
 20
185.832123
 30
0.0
 11
964.519043
 21
153.700623
 31
0.0
  0
LINE
  5
237
100
AcDbEntity
  8
枠_
  6
CONTINUOUS
 62
     2
100
AcDbLine
 10
942.352142
 20
183.312134
 30
0.0
 11
980.3125
 21
183.312134
 31
0.0
  0
LINE
  5
238
100
AcDbEntity
  8
枠_
  6
CONTINUOUS
 62
     2
100
AcDbLine
 10
951.299286
 20
151.659969
 30
0.0
 11
938.320313
 21
151.659969
 31
0.0
  0
LINE
  5
239
100
AcDbEntity
  8
枠_
  6
CONTINUOUS
 62
     2
100
AcDbLine
 10
951.299286
 20
149.039978
 30
0.0
 11
938.320313
 21
149.039978
 31
0.0
  0
LINE
  5
23A
100
AcDbEntity
  8
枠_
  6
CONTINUOUS
 62
     2
100
AcDbLine
 10
951.299286
 20
146.419987
 30
0.0
 11
938.320313
 21
146.419987
 31
0.0
  0
LINE
  5
23B
100
AcDbEntity
  8
枠_
  6
CONTINUOUS
 62
     2
100
AcDbLine
 10
971.431885
 20
159.737152
 30
0.0
 11
983.371582
 21
145.999998
 31
0.0
  0
LINE
  5
23C
100
AcDbEntity
  8
枠_
  6
CONTINUOUS
 62
     2
100
AcDbLine
 10
972.953491
 20
161.530508
 30
0.0
 11
986.451721
 21
145.999998
 31
0.0
  0
LINE
  5
23D
100
AcDbEntity
  8
枠_
  6
CONTINUOUS
 62
     2
100
AcDbLine
 10
974.473114
 20
163.322949
 30
0.0
 11
989.529419
 21
145.999998
 31
0.0
  0
LINE
  5
23E
100
AcDbEntity
  8
枠_
  6
CONTINUOUS
 62
     2
100
AcDbLine
 10
975.992737
 20
165.115847
 30
0.0
 11
992.609253
 21
145.999998
 31
0.0
  0
LINE
  5
23F
100
AcDbEntity
  8
枠_
  6
CONTINUOUS
 62
     2
100
AcDbLine
 10
942.352142
 20
180.592293
 30
0.0
 11
974.367981
 21
180.592293
 31
0.0
  0
LINE
  5
240
100
AcDbEntity
  8
枠_
  6
CONTINUOUS
 62
     2
100
AcDbLine
 10
1010.895538
 20
186.032127
 30
0.0
 11
1059.311371
 21
186.032127
 31
0.0
  0
LINE
  5
241
100
AcDbEntity
  8
枠_
  6
CONTINUOUS
 62
     2
100
AcDbLine
 10
1010.895538
 20
183.512138
 30
0.0
 11
1059.311371
 21
183.512138
 31
0.0
  0
LINE
  5
242
100
AcDbEntity
  8
枠_
  6
CONTINUOUS
 62
     2
100
AcDbLine
 10
1031.677399
 20
151.479916
 30
0.0
 11
1031.677399
 21
181.212219
 31
0.0
  0
LINE
  5
243
100
AcDbEntity
  8
枠_
  6
CONTINUOUS
 62
     2
100
AcDbLine
 10
1034.195862
 20
151.479916
 30
0.0
 11
1034.195862
 21
181.212219
 31
0.0
  0
LINE
  5
244
100
AcDbEntity
  8
枠_
  6
CONTINUOUS
 62
     2
100
AcDbLine
 10
1036.714172
 20
151.479916
 30
0.0
 11
1036.714172
 21
181.212219
 31
0.0
  0
LINE
  5
245
100
AcDbEntity
  8
枠_
  6
CONTINUOUS
 62
     2
100
AcDbLine
 10
1039.03244
 20
151.479916
 30
0.0
 11
1039.03244
 21
181.212219
 31
0.0
  0
LINE
  5
246
100
AcDbEntity
  8
枠_
  6
CONTINUOUS
 62
     2
100
AcDbLine
 10
1008.879547
 20
149.479918
 30
0.0
 11
1061.327362
 21
149.479918
 31
0.0
  0
LINE
  5
247
100
AcDbEntity
  8
枠_
  6
CONTINUOUS
 62
     2
100
AcDbLine
 10
1008.879547
 20
146.459927
 30
0.0
 11
1061.327362
 21
146.459927
 31
0.0
  0
LINE
  5
248
100
AcDbEntity
  8
枠_
  6
CONTINUOUS
 62
     2
100
AcDbLine
 10
1073.127594
 20
186.351961
 30
0.0
 11
1076.87088
 21
181.561502
 31
0.0
  0
LINE
  5
249
100
AcDbEntity
  8
枠_
  6
CONTINUOUS
 62
     2
100
AcDbLine
 10
1076.324768
 20
186.351961
 30
0.0
 11
1080.068054
 21
181.561502
 31
0.0
  0
LINE
  5
24A
100
AcDbEntity
  8
枠_
  6
CONTINUOUS
 62
     2
100
AcDbLine
 10
1086.31134
 20
186.351961
 30
0.0
 11
1086.31134
 21
181.985563
 31
0.0
  0
LINE
  5
24B
100
AcDbEntity
  8
枠_
  6
CONTINUOUS
 62
     2
100
AcDbLine
 10
1089.029846
 20
186.351961
 30
0.0
 11
1089.029846
 21
181.985563
 31
0.0
  0
LINE
  5
24C
100
AcDbEntity
  8
枠_
  6
CONTINUOUS
 62
     2
100
AcDbLine
 10
1096.390991
 20
186.351961
 30
0.0
 11
1096.390991
 21
181.985563
 31
0.0
  0
LINE
  5
24D
100
AcDbEntity
  8
枠_
  6
CONTINUOUS
 62
     2
100
AcDbLine
 10
1099.309387
 20
186.351961
 30
0.0
 11
1099.309387
 21
181.985563
 31
0.0
  0
LINE
  5
24E
100
AcDbEntity
  8
枠_
  6
CONTINUOUS
 62
     2
100
AcDbLine
 10
1108.995667
 20
186.351961
 30
0.0
 11
1105.25238
 21
181.561502
 31
0.0
  0
LINE
  5
24F
100
AcDbEntity
  8
枠_
  6
CONTINUOUS
 62
     2
100
AcDbLine
 10
1112.392883
 20
186.351961
 30
0.0
 11
1108.649597
 21
181.561502
 31
0.0
  0
LINE
  5
250
100
AcDbEntity
  8
枠_
  6
CONTINUOUS
 62
     2
100
AcDbLine
 10
1066.336212
 20
179.985565
 30
0.0
 11
1118.784027
 21
179.985565
 31
0.0
  0
LINE
  5
251
100
AcDbEntity
  8
枠_
  6
CONTINUOUS
 62
     2
100
AcDbLine
 10
1079.431763
 20
172.188286
 30
0.0
 11
1077.277832
 21
178.106178
 31
0.0
  0
LINE
  5
252
100
AcDbEntity
  8
枠_
  6
CONTINUOUS
 62
     2
100
AcDbLine
 10
1082.512207
 20
172.188286
 30
0.0
 11
1080.358276
 21
178.106178
 31
0.0
  0
LINE
  5
253
100
AcDbEntity
  8
枠_
  6
CONTINUOUS
 62
     2
100
AcDbLine
 10
1085.392609
 20
172.188515
 30
0.0
 11
1083.241119
 21
178.105949
 31
0.0
  0
LINE
  5
254
100
AcDbEntity
  8
枠_
  6
CONTINUOUS
 62
     2
100
AcDbLine
 10
1099.919434
 20
172.188066
 30
0.0
 11
1102.075653
 21
178.106398
 31
0.0
  0
LINE
  5
255
100
AcDbEntity
  8
枠_
  6
CONTINUOUS
 62
     2
100
AcDbLine
 10
1103.002014
 20
172.188066
 30
0.0
 11
1105.158234
 21
178.106398
 31
0.0
  0
LINE
  5
256
100
AcDbEntity
  8
枠_
  6
CONTINUOUS
 62
     2
100
AcDbLine
 10
1105.882416
 20
172.188066
 30
0.0
 11
1108.038635
 21
178.106398
 31
0.0
  0
LINE
  5
257
100
AcDbEntity
  8
枠_
  6
CONTINUOUS
 62
     2
100
AcDbLine
 10
1066.336212
 20
170.308899
 30
0.0
 11
1118.784027
 21
170.308899
 31
0.0
  0
LINE
  5
258
100
AcDbEntity
  8
枠_
  6
CONTINUOUS
 62
     2
100
AcDbLine
 10
1066.336212
 20
163.353638
 30
0.0
 11
1087.838745
 21
163.353638
 31
0.0
  0
LINE
  5
259
100
AcDbEntity
  8
枠_
  6
CONTINUOUS
 62
     2
100
AcDbLine
 10
1066.336212
 20
156.398377
 30
0.0
 11
1087.838745
 21
156.398377
 31
0.0
  0
LINE
  5
25A
100
AcDbEntity
  8
枠_
  6
CONTINUOUS
 62
     2
100
AcDbLine
 10
1097.475586
 20
156.398377
 30
0.0
 11
1118.784027
 21
156.398377
 31
0.0
  0
LINE
  5
25B
100
AcDbEntity
  8
枠_
  6
CONTINUOUS
 62
     2
100
AcDbLine
 10
1069.50882
 20
145.999998
 30
0.0
 11
1079.533234
 21
155.057539
 31
0.0
  0
LINE
  5
25C
100
AcDbEntity
  8
枠_
  6
CONTINUOUS
 62
     2
100
AcDbLine
 10
1072.867737
 20
145.999998
 30
0.0
 11
1082.892456
 21
155.057558
 31
0.0
  0
LINE
  5
25D
100
AcDbEntity
  8
枠_
  6
CONTINUOUS
 62
     2
100
AcDbLine
 10
1076.028748
 20
145.999998
 30
0.0
 11
1086.053467
 21
155.057558
 31
0.0
  0
LINE
  5
25E
100
AcDbEntity
  8
枠_
  6
CONTINUOUS
 62
     2
100
AcDbLine
 10
1089.838715
 20
145.999998
 30
0.0
 11
1089.838715
 21
168.308901
 31
0.0
  0
LINE
  5
25F
100
AcDbEntity
  8
枠_
  6
CONTINUOUS
 62
     2
100
AcDbLine
 10
1092.757111
 20
145.999998
 30
0.0
 11
1092.757111
 21
168.308901
 31
0.0
  0
LINE
  5
260
100
AcDbEntity
  8
枠_
  6
CONTINUOUS
 62
     2
100
AcDbLine
 10
1095.475617
 20
145.999998
 30
0.0
 11
1095.475617
 21
168.308901
 31
0.0
  0
LINE
  5
261
100
AcDbEntity
  8
枠_
  6
CONTINUOUS
 62
     2
100
AcDbLine
 10
1109.171753
 20
145.999998
 30
0.0
 11
1099.147339
 21
155.057539
 31
0.0
  0
LINE
  5
262
100
AcDbEntity
  8
枠_
  6
CONTINUOUS
 62
     2
100
AcDbLine
 10
1112.530823
 20
145.999998
 30
0.0
 11
1102.506104
 21
155.057558
 31
0.0
  0
LINE
  5
263
100
AcDbEntity
  8
枠_
  6
CONTINUOUS
 62
     2
100
AcDbLine
 10
1115.891876
 20
145.999998
 30
0.0
 11
1105.867157
 21
155.057558
 31
0.0
  0
LINE
  5
264
100
AcDbEntity
  8
枠_
  6
CONTINUOUS
 62
     2
100
AcDbLine
 10
1134.997864
 20
186.351961
 30
0.0
 11
1134.997864
 21
182.79199
 31
0.0
  0
LINE
  5
265
100
AcDbEntity
  8
枠_
  6
CONTINUOUS
 62
     2
100
AcDbLine
 10
1137.516174
 20
186.351961
 30
0.0
 11
1137.516174
 21
182.79199
 31
0.0
  0
LINE
  5
266
100
AcDbEntity
  8
枠_
  6
CONTINUOUS
 62
     2
100
AcDbLine
 10
1140.034638
 20
186.351961
 30
0.0
 11
1140.034638
 21
182.79199
 31
0.0
  0
LINE
  5
267
100
AcDbEntity
  8
枠_
  6
CONTINUOUS
 62
     2
100
AcDbLine
 10
1124.799957
 20
180.791992
 30
0.0
 11
1142.975159
 21
180.791992
 31
0.0
  0
LINE
  5
268
100
AcDbEntity
  8
枠_
  6
CONTINUOUS
 62
     2
100
AcDbLine
 10
1124.944153
 20
145.98905
 30
0.0
 11
1128.392029
 21
178.802942
 31
0.0
  0
LINE
  5
269
100
AcDbEntity
  8
枠_
  6
CONTINUOUS
 62
     2
100
AcDbLine
 10
1127.276764
 20
145.98905
 30
0.0
 11
1130.724792
 21
178.802942
 31
0.0
  0
LINE
  5
26A
100
AcDbEntity
  8
枠_
  6
CONTINUOUS
 62
     2
100
AcDbLine
 10
1134.997864
 20
145.999998
 30
0.0
 11
1134.997864
 21
178.791994
 31
0.0
  0
LINE
  5
26B
100
AcDbEntity
  8
枠_
  6
CONTINUOUS
 62
     2
100
AcDbLine
 10
1137.516174
 20
145.999998
 30
0.0
 11
1137.516174
 21
178.791994
 31
0.0
  0
LINE
  5
26C
100
AcDbEntity
  8
枠_
  6
CONTINUOUS
 62
     2
100
AcDbLine
 10
1140.034638
 20
145.999998
 30
0.0
 11
1140.034638
 21
178.791994
 31
0.0
  0
LINE
  5
26D
100
AcDbEntity
  8
枠_
  6
CONTINUOUS
 62
     2
100
AcDbLine
 10
1141.209259
 20
176.154245
 30
0.0
 11
1143.800354
 21
172.583841
 31
0.0
  0
LINE
  5
26E
100
AcDbEntity
  8
枠_
  6
CONTINUOUS
 62
     2
100
AcDbLine
 10
1141.209259
 20
172.264246
 30
0.0
 11
1143.800354
 21
168.693842
 31
0.0
  0
LINE
  5
26F
100
AcDbEntity
  8
枠_
  6
CONTINUOUS
 62
     2
100
AcDbLine
 10
1147.469177
 20
177.188601
 30
0.0
 11
1149.768829
 21
186.411375
 31
0.0
  0
LINE
  5
270
100
AcDbEntity
  8
枠_
  6
CONTINUOUS
 62
     2
100
AcDbLine
 10
1149.867401
 20
177.188686
 30
0.0
 11
1152.165222
 21
186.411289
 31
0.0
  0
LINE
  5
271
100
AcDbEntity
  8
枠_
  6
CONTINUOUS
 62
     2
100
AcDbLine
 10
1151.963806
 20
177.188601
 30
0.0
 11
1154.263458
 21
186.411375
 31
0.0
  0
LINE
  5
272
100
AcDbEntity
  8
枠_
  6
CONTINUOUS
 62
     2
100
AcDbLine
 10
1160.702362
 20
182.79199
 30
0.0
 11
1160.702362
 21
186.351961
 31
0.0
  0
LINE
  5
273
100
AcDbEntity
  8
枠_
  6
CONTINUOUS
 62
     2
100
AcDbLine
 10
1163.420715
 20
182.79199
 30
0.0
 11
1163.420715
 21
186.351961
 31
0.0
  0
LINE
  5
274
100
AcDbEntity
  8
枠_
  6
CONTINUOUS
 62
     2
100
AcDbLine
 10
1165.939179
 20
182.79199
 30
0.0
 11
1165.939179
 21
186.351961
 31
0.0
  0
LINE
  5
275
100
AcDbEntity
  8
枠_
  6
CONTINUOUS
 62
     2
100
AcDbLine
 10
1154.862213
 20
180.791992
 30
0.0
 11
1177.247772
 21
180.791992
 31
0.0
  0
LINE
  5
276
100
AcDbEntity
  8
枠_
  6
CONTINUOUS
 62
     2
100
AcDbLine
 10
1160.702362
 20
178.791994
 30
0.0
 11
1160.702362
 21
172.712034
 31
0.0
  0
LINE
  5
277
100
AcDbEntity
  8
枠_
  6
CONTINUOUS
 62
     2
100
AcDbLine
 10
1163.420715
 20
178.791994
 30
0.0
 11
1163.420715
 21
172.712034
 31
0.0
  0
LINE
  5
278
100
AcDbEntity
  8
枠_
  6
CONTINUOUS
 62
     2
100
AcDbLine
 10
1165.939179
 20
178.791994
 30
0.0
 11
1165.939179
 21
172.712034
 31
0.0
  0
LINE
  5
279
100
AcDbEntity
  8
枠_
  6
CONTINUOUS
 62
     2
100
AcDbLine
 10
1147.984009
 20
170.712036
 30
0.0
 11
1178.256683
 21
170.712036
 31
0.0
  0
LINE
  5
27A
100
AcDbEntity
  8
枠_
  6
CONTINUOUS
 62
     2
100
AcDbLine
 10
1152.447968
 20
168.744387
 30
0.0
 11
1148.300781
 21
145.967649
 31
0.0
  0
LINE
  5
27B
100
AcDbEntity
  8
枠_
  6
CONTINUOUS
 62
     2
100
AcDbLine
 10
1154.807282
 20
168.744387
 30
0.0
 11
1150.660248
 21
145.967649
 31
0.0
  0
LINE
  5
27C
100
AcDbEntity
  8
枠_
  6
CONTINUOUS
 62
     2
100
AcDbLine
 10
1156.889191
 20
168.744415
 30
0.0
 11
1152.740021
 21
145.967621
 31
0.0
  0
LINE
  5
27D
100
AcDbEntity
  8
枠_
  6
CONTINUOUS
 62
     2
100
AcDbLine
 10
1160.702362
 20
168.712038
 30
0.0
 11
1160.702362
 21
145.999998
 31
0.0
  0
LINE
  5
27E
100
AcDbEntity
  8
枠_
  6
CONTINUOUS
 62
     2
100
AcDbLine
 10
1163.220673
 20
168.712038
 30
0.0
 11
1163.220673
 21
145.999998
 31
0.0
  0
LINE
  5
27F
100
AcDbEntity
  8
枠_
  6
CONTINUOUS
 62
     3
100
AcDbLine
 10
1165.939179
 20
168.712038
 30
0.0
 11
1165.939179
 21
145.999998
 31
0.0
  0
LINE
  5
280
100
AcDbEntity
  8
枠_
  6
CONTINUOUS
 62
     2
100
AcDbLine
 10
1169.349518
 20
168.744415
 30
0.0
 11
1173.498688
 21
145.967621
 31
0.0
  0
LINE
  5
281
100
AcDbEntity
  8
枠_
  6
CONTINUOUS
 62
     2
100
AcDbLine
 10
1171.510925
 20
168.744415
 30
0.0
 11
1175.660095
 21
145.967621
 31
0.0
  0
LINE
  5
282
100
AcDbEntity
  8
枠_
  6
CONTINUOUS
 62
     2
100
AcDbLine
 10
1174.070282
 20
168.744415
 30
0.0
 11
1178.219452
 21
145.967621
 31
0.0
  0
LINE
  5
283
100
AcDbEntity
  8
枠_
  6
CONTINUOUS
 62
     2
100
AcDbLine
 10
1184.272614
 20
182.400154
 30
0.0
 11
1212.824097
 21
182.400154
 31
0.0
  0
LINE
  5
284
100
AcDbEntity
  8
枠_
  6
CONTINUOUS
 62
     2
100
AcDbLine
 10
1184.272614
 20
179.880165
 30
0.0
 11
1213.741303
 21
179.880165
 31
0.0
  0
LINE
  5
285
100
AcDbEntity
  8
枠_
  6
CONTINUOUS
 62
     2
100
AcDbLine
 10
1228.116608
 20
145.879387
 30
0.0
 11
1213.34198
 21
186.472572
 31
0.0
  0
LINE
  5
286
100
AcDbEntity
  8
枠_
  6
CONTINUOUS
 62
     2
100
AcDbLine
 10
1230.796967
 20
145.879396
 30
0.0
 11
1216.022949
 21
186.472563
 31
0.0
  0
LINE
  5
287
100
AcDbEntity
  8
枠_
  6
CONTINUOUS
 62
     2
100
AcDbLine
 10
1233.477326
 20
145.879396
 30
0.0
 11
1218.703308
 21
186.472563
 31
0.0
  0
LINE
  5
288
100
AcDbEntity
  8
枠_
  6
CONTINUOUS
 62
     2
100
AcDbLine
 10
1236.157684
 20
145.879358
 30
0.0
 11
1221.381378
 21
186.472591
 31
0.0
  0
LINE
  5
289
100
AcDbEntity
  8
枠_
  6
CONTINUOUS
 62
     2
100
AcDbLine
 10
1228.543091
 20
184.400152
 30
0.0
 11
1228.543091
 21
186.351961
 31
0.0
  0
LINE
  5
28A
100
AcDbEntity
  8
枠_
  6
CONTINUOUS
 62
     2
100
AcDbLine
 10
1231.261597
 20
184.400152
 30
0.0
 11
1231.261597
 21
186.351961
 31
0.0
  0
LINE
  5
28B
100
AcDbEntity
  8
枠_
  6
CONTINUOUS
 62
     2
100
AcDbLine
 10
1233.97995
 20
184.400152
 30
0.0
 11
1233.97995
 21
186.351961
 31
0.0
  0
LINE
  5
28C
100
AcDbEntity
  8
枠_
  6
CONTINUOUS
 62
     2
100
AcDbLine
 10
1224.863739
 20
182.400154
 30
0.0
 11
1236.720429
 21
182.400154
 31
0.0
  0
LINE
  5
28D
100
AcDbEntity
  8
枠_
  6
CONTINUOUS
 62
     2
100
AcDbLine
 10
1225.781098
 20
179.880165
 30
0.0
 11
1236.720429
 21
179.880165
 31
0.0
  0
LINE
  5
28E
100
AcDbEntity
  8
枠_
  6
CONTINUOUS
 62
     2
100
AcDbLine
 10
1187.295532
 20
170.364098
 30
0.0
 11
1213.536377
 21
170.364098
 31
0.0
  0
LINE
  5
28F
100
AcDbEntity
  8
枠_
  6
CONTINUOUS
 62
     2
100
AcDbLine
 10
1187.295532
 20
167.843956
 30
0.0
 11
1213.536377
 21
167.843956
 31
0.0
  0
LINE
  5
290
100
AcDbEntity
  8
枠_
  6
CONTINUOUS
 62
     2
100
AcDbLine
 10
1196.790924
 20
165.843958
 30
0.0
 11
1196.790924
 21
155.791153
 31
0.0
  0
LINE
  5
291
100
AcDbEntity
  8
枠_
  6
CONTINUOUS
 62
     2
100
AcDbLine
 10
1199.309235
 20
165.843958
 30
0.0
 11
1199.309235
 21
156.326431
 31
0.0
  0
LINE
  5
292
100
AcDbEntity
  8
枠_
  6
CONTINUOUS
 62
     2
100
AcDbLine
 10
1201.827545
 20
165.843958
 30
0.0
 11
1201.827545
 21
156.861719
 31
0.0
  0
LINE
  5
293
100
AcDbEntity
  8
枠_
  6
CONTINUOUS
 62
     2
100
AcDbLine
 10
1204.346008
 20
165.843958
 30
0.0
 11
1204.346008
 21
157.397026
 31
0.0
  0
LINE
  5
294
100
AcDbEntity
  8
枠_
  6
CONTINUOUS
 62
     2
100
AcDbLine
 10
1186.747284
 20
151.656317
 30
0.0
 11
1214.084473
 21
157.466997
 31
0.0
  0
LINE
  5
295
100
AcDbEntity
  8
枠_
  6
CONTINUOUS
 62
     2
100
AcDbLine
 10
1186.747284
 20
148.880028
 30
0.0
 11
1214.084473
 21
154.690851
 31
0.0
  0
LINE
  5
296
100
AcDbEntity
  8
枠_
  6
CONTINUOUS
 62
     2
100
AcDbLine
 10
1186.747284
 20
146.503729
 30
0.0
 11
1214.084473
 21
152.314409
 31
0.0
  0
LINE
  5
297
100
AcDbEntity
  8
枠_
  6
CONTINUOUS
 62
     2
100
AcDbLine
 10
1242.633057
 20
178.325943
 30
0.0
 11
1268.51532
 21
186.985401
 31
0.0
  0
LINE
  5
298
100
AcDbEntity
  8
枠_
  6
CONTINUOUS
 62
     2
100
AcDbLine
 10
1242.633057
 20
175.668625
 30
0.0
 11
1268.51532
 21
184.328236
 31
0.0
  0
LINE
  5
299
100
AcDbEntity
  8
枠_
  6
CONTINUOUS
 62
     2
100
AcDbLine
 10
1270.411987
 20
186.985392
 30
0.0
 11
1296.294403
 21
178.325304
 31
0.0
  0
LINE
  5
29A
100
AcDbEntity
  8
枠_
  6
CONTINUOUS
 62
     2
100
AcDbLine
 10
1270.411987
 20
184.528231
 30
0.0
 11
1296.294403
 21
175.868143
 31
0.0
  0
LINE
  5
29B
100
AcDbEntity
  8
枠_
  6
CONTINUOUS
 62
     2
100
AcDbLine
 10
1287.62497
 20
175.596107
 30
0.0
 11
1251.304474
 21
175.596107
 31
0.0
  0
LINE
  5
29C
100
AcDbEntity
  8
枠_
  6
CONTINUOUS
 62
     2
100
AcDbLine
 10
1287.62497
 20
172.875961
 30
0.0
 11
1251.304474
 21
172.875961
 31
0.0
  0
LINE
  5
29D
100
AcDbEntity
  8
枠_
  6
CONTINUOUS
 62
     2
100
AcDbLine
 10
1242.736359
 20
165.063919
 30
0.0
 11
1296.191101
 21
165.063919
 31
0.0
  0
LINE
  5
29E
100
AcDbEntity
  8
枠_
  6
CONTINUOUS
 62
     2
100
AcDbLine
 10
1242.736359
 20
162.744087
 30
0.0
 11
1296.191101
 21
162.744087
 31
0.0
  0
LINE
  5
29F
100
AcDbEntity
  8
枠_
  6
CONTINUOUS
 62
     2
100
AcDbLine
 10
1251.013336
 20
160.931534
 30
0.0
 11
1245.911255
 21
149.99246
 31
0.0
  0
LINE
  5
2A0
100
AcDbEntity
  8
枠_
  6
CONTINUOUS
 62
     2
100
AcDbLine
 10
1254.194336
 20
160.931543
 30
0.0
 11
1249.092102
 21
149.99246
 31
0.0
  0
LINE
  5
2A1
100
AcDbEntity
  8
枠_
  6
CONTINUOUS
 62
     2
100
AcDbLine
 10
1257.375336
 20
160.931543
 30
0.0
 11
1252.273102
 21
149.99246
 31
0.0
  0
LINE
  5
2A2
100
AcDbEntity
  8
枠_
  6
CONTINUOUS
 62
     2
100
AcDbLine
 10
1281.554108
 20
160.931667
 30
0.0
 11
1286.658325
 21
149.992336
 31
0.0
  0
LINE
  5
2A3
100
AcDbEntity
  8
枠_
  6
CONTINUOUS
 62
     2
100
AcDbLine
 10
1284.737091
 20
160.931419
 30
0.0
 11
1289.837036
 21
149.992584
 31
0.0
  0
LINE
  5
2A4
100
AcDbEntity
  8
枠_
  6
CONTINUOUS
 62
     2
100
AcDbLine
 10
1287.919922
 20
160.931315
 30
0.0
 11
1293.018189
 21
149.992689
 31
0.0
  0
LINE
  5
2A5
100
AcDbEntity
  8
枠_
  6
CONTINUOUS
 62
     2
100
AcDbLine
 10
1244.685364
 20
148.179916
 30
0.0
 11
1294.242096
 21
148.179916
 31
0.0
  0
LINE
  5
2A6
100
AcDbEntity
  8
枠_
  6
CONTINUOUS
 62
     2
100
AcDbLine
 10
1243.510285
 20
145.659927
 30
0.0
 11
1295.417175
 21
145.659927
 31
0.0
  0
LINE
  5
2A7
100
AcDbEntity
  8
枠_
  6
CONTINUOUS
 62
     2
100
AcDbLine
 10
1311.397858
 20
184.400152
 30
0.0
 11
1311.397858
 21
186.351961
 31
0.0
  0
LINE
  5
2A8
100
AcDbEntity
  8
枠_
  6
CONTINUOUS
 62
     2
100
AcDbLine
 10
1314.316254
 20
184.400152
 30
0.0
 11
1314.316254
 21
186.351961
 31
0.0
  0
LINE
  5
2A9
100
AcDbEntity
  8
枠_
  6
CONTINUOUS
 62
     2
100
AcDbLine
 10
1317.234802
 20
184.400152
 30
0.0
 11
1317.234802
 21
186.351961
 31
0.0
  0
LINE
  5
2AA
100
AcDbEntity
  8
枠_
  6
CONTINUOUS
 62
     2
100
AcDbLine
 10
1302.206879
 20
182.400154
 30
0.0
 11
1325.087891
 21
182.400154
 31
0.0
  0
LINE
  5
2AB
100
AcDbEntity
  8
枠_
  6
CONTINUOUS
 62
     2
100
AcDbLine
 10
1302.206879
 20
179.880165
 30
0.0
 11
1323.323822
 21
179.880165
 31
0.0
  0
LINE
  5
2AC
100
AcDbEntity
  8
枠_
  6
CONTINUOUS
 62
     2
100
AcDbLine
 10
1315.379181
 20
178.241676
 30
0.0
 11
1301.35376
 21
158.204722
 31
0.0
  0
LINE
  5
2AD
100
AcDbEntity
  8
枠_
  6
CONTINUOUS
 62
     2
100
AcDbLine
 10
1318.656616
 20
178.2418
 30
0.0
 11
1301.353912
 21
153.528513
 31
0.0
  0
LINE
  5
2AE
100
AcDbEntity
  8
枠_
  6
CONTINUOUS
 62
     2
100
AcDbLine
 10
1321.737976
 20
178.241772
 30
0.0
 11
1301.353912
 21
149.125732
 31
0.0
  0
LINE
  5
2AF
100
AcDbEntity
  8
枠_
  6
CONTINUOUS
 62
     2
100
AcDbLine
 10
1316.929932
 20
167.88691
 30
0.0
 11
1325.786743
 21
161.684641
 31
0.0
  0
LINE
  5
2B0
100
AcDbEntity
  8
枠_
  6
CONTINUOUS
 62
     2
100
AcDbLine
 10
1315.484467
 20
165.821995
 30
0.0
 11
1325.786591
 21
158.607992
 31
0.0
  0
LINE
  5
2B1
100
AcDbEntity
  8
枠_
  6
CONTINUOUS
 62
     2
100
AcDbLine
 10
1313.945007
 20
163.623127
 30
0.0
 11
1325.786591
 21
155.331501
 31
0.0
  0
LINE
  5
2B2
100
AcDbEntity
  8
枠_
  6
CONTINUOUS
 62
     2
100
AcDbLine
 10
1311.397858
 20
161.472229
 30
0.0
 11
1311.397858
 21
145.999998
 31
0.0
  0
LINE
  5
2B3
100
AcDbEntity
  8
枠_
  6
CONTINUOUS
 62
     2
100
AcDbLine
 10
1314.316254
 20
161.363157
 30
0.0
 11
1314.316254
 21
145.999998
 31
0.0
  0
LINE
  5
2B4
100
AcDbEntity
  8
枠_
  6
CONTINUOUS
 62
     2
100
AcDbLine
 10
1317.234802
 20
159.319567
 30
0.0
 11
1317.234802
 21
145.999998
 31
0.0
  0
LINE
  5
2B5
100
AcDbEntity
  8
枠_
  6
CONTINUOUS
 62
     2
100
AcDbLine
 10
1338.613739
 20
150.179915
 30
0.0
 11
1338.613739
 21
186.351961
 31
0.0
  0
LINE
  5
2B6
100
AcDbEntity
  8
枠_
  6
CONTINUOUS
 62
     2
100
AcDbLine
 10
1341.532135
 20
150.179915
 30
0.0
 11
1341.532135
 21
186.351961
 31
0.0
  0
LINE
  5
2B7
100
AcDbEntity
  8
枠_
  6
CONTINUOUS
 62
     2
100
AcDbLine
 10
1344.450684
 20
150.179915
 30
0.0
 11
1344.450684
 21
186.351961
 31
0.0
  0
LINE
  5
2B8
100
AcDbEntity
  8
枠_
  6
CONTINUOUS
 62
     2
100
AcDbLine
 10
1329.424896
 20
175.344032
 30
0.0
 11
1336.61377
 21
175.344032
 31
0.0
  0
LINE
  5
2B9
100
AcDbEntity
  8
枠_
  6
CONTINUOUS
 62
     2
100
AcDbLine
 10
1329.424896
 20
172.824196
 30
0.0
 11
1336.61377
 21
172.824196
 31
0.0
  0
LINE
  5
2BA
100
AcDbEntity
  8
枠_
  6
CONTINUOUS
 62
     2
100
AcDbLine
 10
1346.450653
 20
175.344032
 30
0.0
 11
1353.647766
 21
175.344032
 31
0.0
  0
LINE
  5
2BB
100
AcDbEntity
  8
枠_
  6
CONTINUOUS
 62
     2
100
AcDbLine
 10
1346.450653
 20
172.624191
 30
0.0
 11
1353.647766
 21
172.624191
 31
0.0
  0
LINE
  5
2BC
100
AcDbEntity
  8
枠_
  6
CONTINUOUS
 62
     2
100
AcDbLine
 10
1325.39093
 20
148.179916
 30
0.0
 11
1354.656677
 21
148.179916
 31
0.0
  0
LINE
  5
2BD
100
AcDbEntity
  8
枠_
  6
CONTINUOUS
 62
     2
100
AcDbLine
 10
1325.39093
 20
145.659927
 30
0.0
 11
1354.656677
 21
145.659927
 31
0.0
  0
LINE
  5
2BE
100
AcDbEntity
  8
枠_
  6
CONTINUOUS
 62
     2
100
AcDbLine
 10
1097.475586
 20
163.353638
 30
0.0
 11
1118.784027
 21
163.353638
 31
0.0
  0
TEXT
  5
2BF
100
AcDbEntity
  8
枠_
  6
CONTINUOUS
 62
     7
100
AcDbText
 10
1453.25
 20
130.75
 30
0.0
 40
70.0
  1
Ｌ００８１０１１
 41
0.795
  7
EXCADSTD
 72
     5
 11
1983.25
 21
130.75
 31
0.0
100
AcDbText
  0
LINE
  5
2C0
100
AcDbEntity
  8
枠_
  6
EXLTYPE2
 62
     6
100
AcDbLine
 10
179.0
 20
165.0
 30
0.0
 11
489.0
 21
165.0
 31
0.0
  0
CIRCLE
  5
2C1
100
AcDbEntity
  8
枠_
  6
CONTINUOUS
 62
     6
100
AcDbCircle
 10
229.0
 20
140.0
 30
0.0
 40
1.0
  0
CIRCLE
  5
2C2
100
AcDbEntity
  8
枠_
  6
CONTINUOUS
 62
     6
100
AcDbCircle
 10
279.0
 20
140.0
 30
0.0
 40
1.0
  0
CIRCLE
  5
2C3
100
AcDbEntity
  8
枠_
  6
CONTINUOUS
 62
     6
100
AcDbCircle
 10
384.0
 20
140.0
 30
0.0
 40
1.0
  0
CIRCLE
  5
2C4
100
AcDbEntity
  8
枠_
  6
CONTINUOUS
 62
     6
100
AcDbCircle
 10
434.0
 20
140.0
 30
0.0
 40
1.0
  0
TEXT
  5
2C5
100
AcDbEntity
  8
枠_
  6
CONTINUOUS
 62
     6
100
AcDbText
 10
584.0
 20
199.5
 30
0.0
 40
30.0
  1
ゆ
 41
0.98
  7
EXCADSTD
 72
     5
 11
612.0
 21
199.5
 31
0.0
100
AcDbText
  0
TEXT
  5
2C6
100
AcDbEntity
  8
枠_
  6
CONTINUOUS
 62
     6
100
AcDbText
 10
496.0
 20
200.0
 30
0.0
 40
50.0
  1
間瀬
 41
0.7728
  7
EXCADSTD
 72
     5
 11
580.3272
 21
200.0
 31
0.0
100
AcDbText
  0
TEXT
  5
2C7
100
AcDbEntity
  8
枠_
  6
CONTINUOUS
 62
     6
100
AcDbText
 10
635.0
 20
200.0
 30
0.0
 40
50.0
  1
又場
 41
0.8568
  7
EXCADSTD
 72
     5
 11
728.4932
 21
200.0
 31
0.0
100
AcDbText
  0
TEXT
  5
2C8
100
AcDbEntity
  8
枠_
  6
CONTINUOUS
 62
     6
100
AcDbText
 10
205.5
 20
200.0
 30
0.0
 40
50.0
  1
風穴
 41
0.8568
  7
EXCADSTD
 72
     5
 11
298.9932
 21
200.0
 31
0.0
100
AcDbText
  0
TEXT
  5
2C9
100
AcDbEntity
  8
枠_
  6
CONTINUOUS
 62
     6
100
AcDbText
 10
181.044116
 20
126.950073
 30
0.0
 40
25.0
  1
１７
 41
0.75768
  7
EXCADSTD
 72
     5
 11
222.382775
 21
126.950073
 31
0.0
100
AcDbText
  0
TEXT
  5
2CA
100
AcDbEntity
  8
枠_
  6
CONTINUOUS
 62
     6
100
AcDbText
 10
283.044116
 20
126.950073
 30
0.0
 40
25.0
  1
２５
 41
0.75768
  7
EXCADSTD
 72
     5
 11
324.382775
 21
126.950073
 31
0.0
100
AcDbText
  0
TEXT
  5
2CB
100
AcDbEntity
  8
枠_
  6
CONTINUOUS
 62
     6
100
AcDbText
 10
231.144116
 20
126.950073
 30
0.0
 40
25.0
  1
　４
 41
0.75768
  7
EXCADSTD
 72
     5
 11
272.482775
 21
126.950073
 31
0.0
100
AcDbText
  0
LINE
  5
2CC
100
AcDbEntity
  8
洗面器
  6
CONTINUOUS
 62
     3
100
AcDbLine
 10
848.384375
 20
1436.523712
 30
0.0
 11
857.443042
 21
1470.331116
 31
0.0
  0
LINE
  5
2CD
100
AcDbEntity
  8
洗面器
  6
CONTINUOUS
 62
     3
100
AcDbLine
 10
848.384375
 20
1436.523712
 30
0.0
 11
839.325708
 21
1470.331116
 31
0.0
  0
LINE
  5
2CE
100
AcDbEntity
  8
洗面器
  6
CONTINUOUS
 62
     3
100
AcDbLine
 10
848.384375
 20
1396.523743
 30
0.0
 11
848.384375
 21
1533.0
 31
0.0
  0
LINE
  5
2CF
100
AcDbEntity
  8
洗面器
  6
CONTINUOUS
 62
     7
100
AcDbLine
 10
528.485321
 20
2415.193359
 30
0.0
 11
768.485321
 21
2415.190918
 31
0.0
  0
LINE
  5
2D0
100
AcDbEntity
  8
洗面器
  6
CONTINUOUS
 62
     7
100
AcDbLine
 10
528.485321
 20
2415.193359
 30
0.0
 11
523.58847
 21
2295.293457
 31
0.0
  0
LINE
  5
2D1
100
AcDbEntity
  8
洗面器
  6
CONTINUOUS
 62
     7
100
AcDbLine
 10
768.485321
 20
2415.190918
 30
0.0
 11
773.380341
 21
2295.291016
 31
0.0
  0
ARC
  5
2D2
100
AcDbEntity
  8
洗面器
  6
CONTINUOUS
 62
     7
100
AcDbCircle
 10
558.244995
 20
2384.194824
 30
0.0
 40
8.0
100
AcDbArc
 50
90.0
 51
177.661774
  0
LINE
  5
2D3
100
AcDbEntity
  8
洗面器
  6
CONTINUOUS
 62
     7
100
AcDbLine
 10
746.718048
 20
2384.51709
 30
0.0
 11
750.399231
 21
2294.355957
 31
0.0
  0
LINE
  5
2D4
100
AcDbEntity
  8
洗面器
  6
CONTINUOUS
 62
     7
100
AcDbLine
 10
550.251678
 20
2384.51709
 30
0.0
 11
546.569275
 21
2294.355957
 31
0.0
  0
ARC
  5
2D5
100
AcDbEntity
  8
洗面器
  6
CONTINUOUS
 62
     7
100
AcDbCircle
 10
738.724884
 20
2384.192383
 30
0.0
 40
8.0
100
AcDbArc
 50
2.337616
 51
89.99939
  0
ARC
  5
2D6
100
AcDbEntity
  8
洗面器
  6
CONTINUOUS
 62
     7
100
AcDbCircle
 10
648.484253
 20
2285.190918
 30
0.0
 40
15.0
100
AcDbArc
 50
141.164316
 51
38.830788
  0
LINE
  5
2D7
100
AcDbEntity
  8
洗面器
  6
CONTINUOUS
 62
     2
100
AcDbLine
 10
650.984405
 20
2275.510742
 30
0.0
 11
650.9841
 21
2282.690918
 31
0.0
  0
LINE
  5
2D8
100
AcDbEntity
  8
洗面器
  6
CONTINUOUS
 62
     2
100
AcDbLine
 10
650.984405
 20
2287.690918
 30
0.0
 11
650.984327
 21
2291.371483
 31
0.0
  0
LINE
  5
2D9
100
AcDbEntity
  8
洗面器
  6
CONTINUOUS
 62
     2
100
AcDbLine
 10
645.984253
 20
2275.508301
 30
0.0
 11
645.984253
 21
2282.690918
 31
0.0
  0
LINE
  5
2DA
100
AcDbEntity
  8
洗面器
  6
CONTINUOUS
 62
     2
100
AcDbLine
 10
645.984405
 20
2287.690918
 30
0.0
 11
645.984484
 21
2291.371747
 31
0.0
  0
LINE
  5
2DB
100
AcDbEntity
  8
洗面器
  6
CONTINUOUS
 62
     2
100
AcDbLine
 10
638.802093
 20
2287.693359
 30
0.0
 11
645.984405
 21
2287.690918
 31
0.0
  0
LINE
  5
2DC
100
AcDbEntity
  8
洗面器
  6
CONTINUOUS
 62
     2
100
AcDbLine
 10
650.984405
 20
2287.690918
 30
0.0
 11
658.16687
 21
2287.693359
 31
0.0
  0
LINE
  5
2DD
100
AcDbEntity
  8
洗面器
  6
CONTINUOUS
 62
     2
100
AcDbLine
 10
638.801941
 20
2282.693359
 30
0.0
 11
645.984405
 21
2282.690918
 31
0.0
  0
LINE
  5
2DE
100
AcDbEntity
  8
洗面器
  6
CONTINUOUS
 62
     2
100
AcDbLine
 10
650.984253
 20
2282.690918
 30
0.0
 11
658.16687
 21
2282.690918
 31
0.0
  0
ARC
  5
2DF
100
AcDbEntity
  8
洗面器
  6
CONTINUOUS
 62
     2
100
AcDbCircle
 10
648.484253
 20
2285.190918
 30
0.0
 40
10.0
100
AcDbArc
 50
131.706347
 51
165.522491
  0
ARC
  5
2E0
100
AcDbEntity
  8
洗面器
  6
CONTINUOUS
 62
     2
100
AcDbCircle
 10
648.484253
 20
2285.190918
 30
0.0
 40
10.0
100
AcDbArc
 50
284.478271
 51
345.523193
  0
ARC
  5
2E1
100
AcDbEntity
  8
洗面器
  6
CONTINUOUS
 62
     2
100
AcDbCircle
 10
648.484253
 20
2285.190918
 30
0.0
 40
10.0
100
AcDbArc
 50
194.477509
 51
255.5224
  0
ARC
  5
2E2
100
AcDbEntity
  8
洗面器
  6
CONTINUOUS
 62
     2
100
AcDbCircle
 10
648.484253
 20
2285.190918
 30
0.0
 40
10.0
100
AcDbArc
 50
14.476808
 51
48.288758
  0
LINE
  5
2E3
100
AcDbEntity
  8
洗面器
  6
CONTINUOUS
 62
     2
100
AcDbLine
 10
623.482422
 20
1286.524048
 30
0.0
 11
673.040527
 21
1286.523895
 31
0.0
  0
LINE
  5
2E4
100
AcDbEntity
  8
洗面器
  6
EXLTYPE2
 62
     2
100
AcDbLine
 10
632.479004
 20
1279.523926
 30
0.0
 11
632.481445
 21
1256.523895
 31
0.0
  0
LINE
  5
2E5
100
AcDbEntity
  8
洗面器
  6
EXLTYPE2
 62
     2
100
AcDbLine
 10
664.480957
 20
1279.523773
 30
0.0
 11
664.480957
 21
1256.523743
 31
0.0
  0
LINE
  5
2E6
100
AcDbEntity
  8
洗面器
  6
EXLTYPE2
 62
     2
100
AcDbLine
 10
664.480957
 20
1256.523743
 30
0.0
 11
632.481445
 21
1256.523895
 31
0.0
  0
LINE
  5
2E7
100
AcDbEntity
  8
洗面器
  6
CONTINUOUS
 62
     7
100
AcDbLine
 10
528.47998
 20
1371.524048
 30
0.0
 11
768.47998
 21
1371.523895
 31
0.0
  0
LINE
  5
2E8
100
AcDbEntity
  8
洗面器
  6
CONTINUOUS
 62
     7
100
AcDbLine
 10
523.482422
 20
1376.523895
 30
0.0
 11
523.482422
 21
1428.523865
 31
0.0
  0
ARC
  5
2E9
100
AcDbEntity
  8
洗面器
  6
CONTINUOUS
 62
     7
100
AcDbCircle
 10
528.47998
 20
1376.523895
 30
0.0
 40
5.0
100
AcDbArc
 50
180.0
 51
270.0
  0
LINE
  5
2EA
100
AcDbEntity
  8
洗面器
  6
CONTINUOUS
 62
     7
100
AcDbLine
 10
773.47998
 20
1376.523895
 30
0.0
 11
773.482422
 21
1428.523865
 31
0.0
  0
ARC
  5
2EB
100
AcDbEntity
  8
洗面器
  6
CONTINUOUS
 62
     7
100
AcDbCircle
 10
768.47998
 20
1376.523895
 30
0.0
 40
5.0
100
AcDbArc
 50
270.0
 51
0.0
  0
LINE
  5
2EC
100
AcDbEntity
  8
洗面器
  6
CONTINUOUS
 62
     7
100
AcDbLine
 10
531.480469
 20
1436.523743
 30
0.0
 11
765.481934
 21
1436.523743
 31
0.0
  0
LINE
  5
2ED
100
AcDbEntity
  8
洗面器
  6
CONTINUOUS
 62
     7
100
AcDbLine
 10
528.47998
 20
1396.523895
 30
0.0
 11
768.47998
 21
1396.523743
 31
0.0
  0
ARC
  5
2EE
100
AcDbEntity
  8
洗面器
  6
CONTINUOUS
 62
     7
100
AcDbCircle
 10
768.47998
 20
1391.523895
 30
0.0
 40
5.0
100
AcDbArc
 50
0.0
 51
90.0
  0
ARC
  5
2EF
100
AcDbEntity
  8
洗面器
  6
CONTINUOUS
 62
     7
100
AcDbCircle
 10
740.157226
 20
1401.524048
 30
0.0
 40
5.0
100
AcDbArc
 50
270.0
 51
351.444336
  0
LINE
  5
2F0
100
AcDbEntity
  8
洗面器
  6
CONTINUOUS
 62
     7
100
AcDbLine
 10
749.456543
 20
1429.713898
 30
0.0
 11
745.103516
 21
1400.780182
 31
0.0
  0
ARC
  5
2F1
100
AcDbEntity
  8
洗面器
  6
CONTINUOUS
 62
     7
100
AcDbCircle
 10
757.366699
 20
1428.523712
 30
0.0
 40
8.0
100
AcDbArc
 50
90.0
 51
171.445343
  0
ARC
  5
2F2
100
AcDbEntity
  8
洗面器
  6
CONTINUOUS
 62
     7
100
AcDbCircle
 10
765.479492
 20
1428.523712
 30
0.0
 40
8.0
100
AcDbArc
 50
0.0
 51
90.0
  0
ARC
  5
2F3
100
AcDbEntity
  8
洗面器
  6
CONTINUOUS
 62
     7
100
AcDbCircle
 10
556.800293
 20
1401.523895
 30
0.0
 40
5.0
100
AcDbArc
 50
188.555664
 51
270.0
  0
LINE
  5
2F4
100
AcDbEntity
  8
洗面器
  6
CONTINUOUS
 62
     7
100
AcDbLine
 10
547.505859
 20
1429.713745
 30
0.0
 11
551.856445
 21
1400.780182
 31
0.0
  0
ARC
  5
2F5
100
AcDbEntity
  8
洗面器
  6
CONTINUOUS
 62
     7
100
AcDbCircle
 10
539.593262
 20
1428.523865
 30
0.0
 40
8.0
100
AcDbArc
 50
8.554649
 51
90.0
  0
ARC
  5
2F6
100
AcDbEntity
  8
洗面器
  6
CONTINUOUS
 62
     7
100
AcDbCircle
 10
531.480469
 20
1428.523712
 30
0.0
 40
8.0
100
AcDbArc
 50
90.0
 51
180.0
  0
ARC
  5
2F7
100
AcDbEntity
  8
洗面器
  6
CONTINUOUS
 62
     7
100
AcDbCircle
 10
528.47998
 20
1391.524048
 30
0.0
 40
5.0
100
AcDbArc
 50
90.0
 51
180.0
  0
ARC
  5
2F8
100
AcDbEntity
  8
洗面器
  6
CONTINUOUS
 62
     7
100
AcDbCircle
 10
648.484405
 20
2290.190918
 30
0.0
 40
125.00001
100
AcDbArc
 50
177.661362
 51
2.337871
  0
ARC
  5
2F9
100
AcDbEntity
  8
洗面器
  6
CONTINUOUS
 62
     7
100
AcDbCircle
 10
648.484253
 20
2285.190918
 30
0.0
 40
90.0
100
AcDbArc
 50
97.011727
 51
82.986907
  0
LINE
  5
2FA
100
AcDbEntity
  8
洗面器
  6
CONTINUOUS
 62
     7
100
AcDbLine
 10
673.47998
 20
1279.523926
 30
0.0
 11
623.482422
 21
1279.523926
 31
0.0
  0
ARC
  5
2FB
100
AcDbEntity
  8
洗面器
  6
CONTINUOUS
 62
     6
100
AcDbCircle
 10
593.485321
 20
2392.71228
 30
0.0
 40
7.517859
100
AcDbArc
 50
183.950073
 51
356.050049
  0
ARC
  5
2FC
100
AcDbEntity
  8
洗面器
  6
CONTINUOUS
 62
     6
100
AcDbCircle
 10
703.485321
 20
2392.709228
 30
0.0
 40
7.517859
100
AcDbArc
 50
183.950073
 51
356.050049
  0
CIRCLE
  5
2FD
100
AcDbEntity
  8
洗面器
  6
CONTINUOUS
 62
     6
100
AcDbCircle
 10
703.485321
 20
1416.523743
 30
0.0
 40
7.5
  0
CIRCLE
  5
2FE
100
AcDbEntity
  8
洗面器
  6
CONTINUOUS
 62
     6
100
AcDbCircle
 10
593.485321
 20
1416.523743
 30
0.0
 40
7.5
  0
ARC
  5
2FF
100
AcDbEntity
  8
洗面器
  6
CONTINUOUS
 62
     7
100
AcDbCircle
 10
755.202393
 20
1366.523895
 30
0.0
 40
5.0
100
AcDbArc
 50
90.0
 51
172.602371
  0
ARC
  5
300
100
AcDbEntity
  8
洗面器
  6
CONTINUOUS
 62
     7
100
AcDbCircle
 10
541.76001
 20
1366.524048
 30
0.0
 40
5.0
100
AcDbArc
 50
7.395902
 51
90.0
  0
ARC
  5
301
100
AcDbEntity
  8
洗面器
  6
CONTINUOUS
 62
     7
100
AcDbCircle
 10
687.413391
 20
1273.968506
 30
0.0
 40
15.0
100
AcDbArc
 50
106.574753
 51
158.262238
  0
ARC
  5
302
100
AcDbEntity
  8
洗面器
  6
CONTINUOUS
 62
     7
100
AcDbCircle
 10
609.549011
 20
1273.968506
 30
0.0
 40
15.0
100
AcDbArc
 50
21.737762
 51
73.425247
  0
ARC
  5
303
100
AcDbEntity
  8
洗面器
  6
CONTINUOUS
 62
     7
100
AcDbCircle
 10
656.034607
 20
1379.398041
 30
0.0
 40
95.0
100
AcDbArc
 50
286.574463
 51
352.603271
  0
ARC
  5
304
100
AcDbEntity
  8
洗面器
  6
CONTINUOUS
 62
     7
100
AcDbCircle
 10
640.927795
 20
1379.398041
 30
0.0
 40
95.0
100
AcDbArc
 50
187.396744
 51
253.425507
  0
LINE
  5
305
100
AcDbEntity
  8
洗面器
  6
CONTINUOUS
 62
     3
100
AcDbLine
 10
785.479492
 20
1436.523712
 30
0.0
 11
868.384375
 21
1436.523712
 31
0.0
  0
LINE
  5
306
100
AcDbEntity
  8
洗面器
  6
CONTINUOUS
 62
     3
100
AcDbLine
 10
783.480919
 20
1396.523743
 30
0.0
 11
988.384375
 21
1396.523743
 31
0.0
  0
LINE
  5
307
100
AcDbEntity
  8
洗面器
  6
CONTINUOUS
 62
     3
100
AcDbLine
 10
674.480957
 20
1256.523743
 30
0.0
 11
868.384375
 21
1256.523743
 31
0.0
  0
LINE
  5
308
100
AcDbEntity
  8
洗面器
  6
CONTINUOUS
 62
     3
100
AcDbLine
 10
558.484253
 20
2250.190918
 30
0.0
 11
558.484253
 21
2070.190909
 31
0.0
  0
LINE
  5
309
100
AcDbEntity
  8
洗面器
  6
CONTINUOUS
 62
     3
100
AcDbLine
 10
738.484253
 20
2250.190918
 30
0.0
 11
738.484253
 21
2070.190909
 31
0.0
  0
LINE
  5
30A
100
AcDbEntity
  8
洗面器
  6
CONTINUOUS
 62
     3
100
AcDbLine
 10
523.584436
 20
2255.190918
 30
0.0
 11
523.584436
 21
2010.190909
 31
0.0
  0
LINE
  5
30B
100
AcDbEntity
  8
洗面器
  6
CONTINUOUS
 62
     3
100
AcDbLine
 10
773.384375
 20
2255.190918
 30
0.0
 11
773.384375
 21
2010.190909
 31
0.0
  0
LINE
  5
30C
100
AcDbEntity
  8
洗面器
  6
CONTINUOUS
 62
     3
100
AcDbLine
 10
683.485321
 20
2165.190909
 30
0.0
 11
868.384375
 21
2165.190909
 31
0.0
  0
LINE
  5
30D
100
AcDbEntity
  8
洗面器
  6
CONTINUOUS
 62
     3
100
AcDbLine
 10
778.485321
 20
2415.190918
 30
0.0
 11
868.384375
 21
2415.190918
 31
0.0
  0
LINE
  5
30E
100
AcDbEntity
  8
洗面器
  6
CONTINUOUS
 62
     3
100
AcDbLine
 10
593.485305
 20
2451.194386
 30
0.0
 11
593.485305
 21
2512.0
 31
0.0
  0
LINE
  5
30F
100
AcDbEntity
  8
洗面器
  6
CONTINUOUS
 62
     3
100
AcDbLine
 10
703.485305
 20
2451.191334
 30
0.0
 11
703.485305
 21
2512.0
 31
0.0
  0
LINE
  5
310
100
AcDbEntity
  8
洗面器
  6
CONTINUOUS
 62
     6
100
AcDbLine
 10
703.485321
 20
1401.523784
 30
0.0
 11
703.485321
 21
1431.523743
 31
0.0
  0
LINE
  5
311
100
AcDbEntity
  8
洗面器
  6
CONTINUOUS
 62
     6
100
AcDbLine
 10
593.485321
 20
1401.523854
 30
0.0
 11
593.485321
 21
1431.523743
 31
0.0
  0
LINE
  5
312
100
AcDbEntity
  8
洗面器
  6
CONTINUOUS
 62
     6
100
AcDbLine
 10
683.484253
 20
2285.190918
 30
0.0
 11
663.484253
 21
2285.190918
 31
0.0
  0
LINE
  5
313
100
AcDbEntity
  8
洗面器
  6
CONTINUOUS
 62
     6
100
AcDbLine
 10
633.484253
 20
2285.190918
 30
0.0
 11
613.484253
 21
2285.190918
 31
0.0
  0
LINE
  5
314
100
AcDbEntity
  8
洗面器
  6
CONTINUOUS
 62
     6
100
AcDbLine
 10
648.485321
 20
2270.190918
 30
0.0
 11
648.485321
 21
2260.0
 31
0.0
  0
LINE
  5
315
100
AcDbEntity
  8
洗面器
  6
CONTINUOUS
 62
     6
100
AcDbLine
 10
648.485321
 20
2248.0
 30
0.0
 11
648.485321
 21
2240.0
 31
0.0
  0
LINE
  5
316
100
AcDbEntity
  8
洗面器
  6
CONTINUOUS
 62
     6
100
AcDbLine
 10
648.485321
 20
2228.0
 30
0.0
 11
648.485321
 21
2145.190909
 31
0.0
  0
LINE
  5
317
100
AcDbEntity
  8
洗面器
  6
CONTINUOUS
 62
     6
100
AcDbLine
 10
574.82785
 20
1416.523743
 30
0.0
 11
612.82785
 21
1416.523743
 31
0.0
  0
LINE
  5
318
100
AcDbEntity
  8
洗面器
  6
CONTINUOUS
 62
     6
100
AcDbLine
 10
684.82785
 20
1416.523743
 30
0.0
 11
721.82785
 21
1416.523743
 31
0.0
  0
LINE
  5
319
100
AcDbEntity
  8
洗面器
  6
CONTINUOUS
 62
     6
100
AcDbLine
 10
648.485321
 20
1299.523926
 30
0.0
 11
648.485321
 21
1214.0
 31
0.0
  0
LINE
  5
31A
100
AcDbEntity
  8
洗面器
  6
CONTINUOUS
 62
     6
100
AcDbLine
 10
648.485321
 20
1202.0
 30
0.0
 11
648.485321
 21
1194.0
 31
0.0
  0
LINE
  5
31B
100
AcDbEntity
  8
洗面器
  6
CONTINUOUS
 62
     7
100
AcDbLine
 10
411.999995
 20
636.523969
 30
0.0
 11
1054.000003
 21
636.523561
 31
0.0
  0
LINE
  5
31C
100
AcDbEntity
  8
洗面器
  6
CONTINUOUS
 62
     7
100
AcDbLine
 10
558.244995
 20
2392.195313
 30
0.0
 11
637.485321
 21
2392.193169
 31
0.0
  0
LINE
  5
31D
100
AcDbEntity
  8
洗面器
  6
CONTINUOUS
 62
     7
100
AcDbLine
 10
659.485321
 20
2392.192573
 30
0.0
 11
738.725037
 21
2392.19043
 31
0.0
  0
LINE
  5
31E
100
AcDbEntity
  8
洗面器
  6
CONTINUOUS
 62
     6
100
AcDbLine
 10
648.485321
 20
2435.192139
 30
0.0
 11
648.485321
 21
2388.9
 31
0.0
  0
LINE
  5
31F
100
AcDbEntity
  8
洗面器
  6
CONTINUOUS
 62
     6
100
AcDbLine
 10
648.485321
 20
2376.9
 30
0.0
 11
648.485321
 21
2368.9
 31
0.0
  0
LINE
  5
320
100
AcDbEntity
  8
洗面器
  6
CONTINUOUS
 62
     6
100
AcDbLine
 10
648.485321
 20
2356.9
 30
0.0
 11
648.485321
 21
2307.0
 31
0.0
  0
LINE
  5
321
100
AcDbEntity
  8
洗面器
  6
CONTINUOUS
 62
     6
100
AcDbLine
 10
648.485321
 20
1182.0
 30
0.0
 11
648.485321
 21
1131.523285
 31
0.0
  0
LINE
  5
322
100
AcDbEntity
  8
洗面器
  6
CONTINUOUS
 62
     6
100
AcDbLine
 10
648.485321
 20
1124.523285
 30
0.0
 11
648.485321
 21
1118.523285
 31
0.0
  0
LINE
  5
323
100
AcDbEntity
  8
洗面器
  6
CONTINUOUS
 62
     6
100
AcDbLine
 10
648.485321
 20
1111.523285
 30
0.0
 11
648.485321
 21
1003.323212
 31
0.0
  0
ARC
  5
324
100
AcDbEntity
  8
洗面器
  6
CONTINUOUS
 62
     7
100
AcDbCircle
 10
1536.098785
 20
1428.523865
 30
0.0
 40
8.0
100
AcDbArc
 50
90.0
 51
141.255371
  0
ARC
  5
325
100
AcDbEntity
  8
洗面器
  6
CONTINUOUS
 62
     7
100
AcDbCircle
 10
1496.325989
 20
1404.523926
 30
0.0
 40
8.0
100
AcDbArc
 50
270.0
 51
321.255371
  0
LINE
  5
326
100
AcDbEntity
  8
洗面器
  6
CONTINUOUS
 62
     7
100
AcDbLine
 10
1529.872589
 20
1433.547363
 30
0.0
 11
1502.565613
 21
1399.517059
 31
0.0
  0
LINE
  5
327
100
AcDbEntity
  8
洗面器
  6
CONTINUOUS
 62
     7
100
AcDbLine
 10
1536.098785
 20
1436.523895
 30
0.0
 11
1660.0
 21
1436.523895
 31
0.0
  0
ARC
  5
328
100
AcDbEntity
  8
洗面器
  6
CONTINUOUS
 62
     7
100
AcDbCircle
 10
1414.999695
 20
1391.523895
 30
0.0
 40
5.0
100
AcDbArc
 50
90.0
 51
180.0
  0
ARC
  5
329
100
AcDbEntity
  8
洗面器
  6
CONTINUOUS
 62
     7
100
AcDbCircle
 10
1414.999542
 20
1376.523895
 30
0.0
 40
5.0
100
AcDbArc
 50
180.0
 51
270.0
  0
LINE
  5
32A
100
AcDbEntity
  8
洗面器
  6
CONTINUOUS
 62
     7
100
AcDbLine
 10
1414.999695
 20
1396.523895
 30
0.0
 11
1496.325989
 21
1396.523895
 31
0.0
  0
LINE
  5
32B
100
AcDbEntity
  8
洗面器
  6
CONTINUOUS
 62
     7
100
AcDbLine
 10
1409.999695
 20
1391.523895
 30
0.0
 11
1409.999542
 21
1376.523895
 31
0.0
  0
LINE
  5
32C
100
AcDbEntity
  8
洗面器
  6
CONTINUOUS
 62
     7
100
AcDbLine
 10
1414.999542
 20
1371.523895
 30
0.0
 11
1659.999542
 21
1371.523895
 31
0.0
  0
LINE
  5
32D
100
AcDbEntity
  8
洗面器
  6
EXLTYPE2
 62
     2
100
AcDbLine
 10
1545.998993
 20
1256.523895
 30
0.0
 11
1513.998871
 21
1256.523895
 31
0.0
  0
LINE
  5
32E
100
AcDbEntity
  8
洗面器
  6
CONTINUOUS
 62
     7
100
AcDbLine
 10
1554.999084
 20
1279.523926
 30
0.0
 11
1504.999084
 21
1279.523926
 31
0.0
  0
LINE
  5
32F
100
AcDbEntity
  8
洗面器
  6
EXLTYPE2
 62
     2
100
AcDbLine
 10
1513.999023
 20
1279.523926
 30
0.0
 11
1513.998871
 21
1256.523895
 31
0.0
  0
LINE
  5
330
100
AcDbEntity
  8
洗面器
  6
EXLTYPE2
 62
     2
100
AcDbLine
 10
1545.999145
 20
1279.523926
 30
0.0
 11
1545.998993
 21
1256.523895
 31
0.0
  0
LINE
  5
331
100
AcDbEntity
  8
洗面器
  6
CONTINUOUS
 62
     2
100
AcDbLine
 10
1554.999084
 20
1286.523895
 30
0.0
 11
1504.999084
 21
1286.523895
 31
0.0
  0
ARC
  5
332
100
AcDbEntity
  8
洗面器
  6
CONTINUOUS
 62
     7
100
AcDbCircle
 10
1423.27774
 20
1366.524048
 30
0.0
 40
5.0
100
AcDbArc
 50
7.395902
 51
90.0
  0
ARC
  5
333
100
AcDbEntity
  8
洗面器
  6
CONTINUOUS
 62
     7
100
AcDbCircle
 10
1636.720123
 20
1366.523895
 30
0.0
 40
5.0
100
AcDbArc
 50
90.0
 51
172.602371
  0
ARC
  5
334
100
AcDbEntity
  8
洗面器
  6
CONTINUOUS
 62
     7
100
AcDbCircle
 10
1568.932648
 20
1273.968964
 30
0.0
 40
15.0
100
AcDbArc
 50
106.57547
 51
158.264069
  0
ARC
  5
335
100
AcDbEntity
  8
洗面器
  6
CONTINUOUS
 62
     7
100
AcDbCircle
 10
1491.065674
 20
1273.968964
 30
0.0
 40
15.0
100
AcDbArc
 50
21.736145
 51
73.425079
  0
ARC
  5
336
100
AcDbEntity
  8
洗面器
  6
CONTINUOUS
 62
     7
100
AcDbCircle
 10
1537.552338
 20
1379.398041
 30
0.0
 40
95.0
100
AcDbArc
 50
286.575195
 51
352.603271
  0
ARC
  5
337
100
AcDbEntity
  8
洗面器
  6
CONTINUOUS
 62
     7
100
AcDbCircle
 10
1522.445526
 20
1379.398041
 30
0.0
 40
95.0
100
AcDbArc
 50
187.396744
 51
253.424896
  0
LINE
  5
338
100
AcDbEntity
  8
洗面器
  6
CONTINUOUS
 62
     3
100
AcDbLine
 10
1670.0
 20
1436.523895
 30
0.0
 11
1756.82785
 21
1436.523895
 31
0.0
  0
LINE
  5
339
100
AcDbEntity
  8
洗面器
  6
CONTINUOUS
 62
     3
100
AcDbLine
 10
1695.997974
 20
1416.523912
 30
0.0
 11
1756.82785
 21
1416.523912
 31
0.0
  0
LINE
  5
33A
100
AcDbEntity
  8
洗面器
  6
CONTINUOUS
 62
     6
100
AcDbLine
 10
1529.998932
 20
1299.523926
 30
0.0
 11
1529.998932
 21
1223.0
 31
0.0
  0
LINE
  5
33B
100
AcDbEntity
  8
洗面器
  6
CONTINUOUS
 62
     6
100
AcDbLine
 10
1529.998932
 20
1211.0
 30
0.0
 11
1529.998932
 21
1203.0
 31
0.0
  0
LINE
  5
33C
100
AcDbEntity
  8
洗面器
  6
CONTINUOUS
 62
     6
100
AcDbLine
 10
1529.998932
 20
1191.0
 30
0.0
 11
1529.998932
 21
1095.0
 31
0.0
  0
LINE
  5
33D
100
AcDbEntity
  8
洗面器
  6
CONTINUOUS
 62
     6
100
AcDbLine
 10
1529.998932
 20
1083.0
 30
0.0
 11
1529.998932
 21
1075.0
 31
0.0
  0
LINE
  5
33E
100
AcDbEntity
  8
洗面器
  6
CONTINUOUS
 62
     6
100
AcDbLine
 10
1529.998932
 20
1063.0
 30
0.0
 11
1529.998932
 21
940.0
 31
0.0
  0
LINE
  5
33F
100
AcDbEntity
  8
洗面器
  6
CONTINUOUS
 62
     7
100
AcDbLine
 10
1291.000003
 20
636.523513
 30
0.0
 11
1659.999728
 21
636.523278
 31
0.0
  0
TEXT
  5
340
100
AcDbEntity
  8
洗面器
  6
CONTINUOUS
 62
     2
100
AcDbText
 10
1656.499988
 20
1689.400002
 30
0.0
 40
40.0
  1
Ｗ．Ｌ
 50
90.0
 41
0.833
  7
EXCADSTD
 72
     5
 11
1656.499988
 21
1808.400002
 31
0.0
100
AcDbText
  0
LINE
  5
341
100
AcDbEntity
  8
洗面器
  6
CONTINUOUS
 62
     7
100
AcDbLine
 10
1660.0
 20
1808.0
 30
0.0
 11
1660.0
 21
636.523278
 31
0.0
  0
ARC
  5
342
100
AcDbEntity
  8
洗面器
  6
CONTINUOUS
 62
     6
100
AcDbCircle
 10
620.411133
 20
2428.965637
 30
0.0
 40
30.0
100
AcDbArc
 50
153.834961
 51
173.821533
  0
ARC
  5
343
100
AcDbEntity
  8
洗面器
  6
CONTINUOUS
 62
     6
100
AcDbCircle
 10
566.559509
 20
2428.965637
 30
0.0
 40
30.0
100
AcDbArc
 50
6.178467
 51
26.165039
  0
LINE
  5
344
100
AcDbEntity
  8
洗面器
  6
CONTINUOUS
 62
     6
100
AcDbLine
 10
596.385254
 20
2415.192596
 30
0.0
 11
596.385254
 21
2432.194397
 31
0.0
  0
LINE
  5
345
100
AcDbEntity
  8
洗面器
  6
CONTINUOUS
 62
     6
100
AcDbLine
 10
590.585388
 20
2415.192749
 30
0.0
 11
590.585388
 21
2432.194397
 31
0.0
  0
ARC
  5
346
100
AcDbEntity
  8
洗面器
  6
CONTINUOUS
 62
     6
100
AcDbCircle
 10
730.411133
 20
2428.962585
 30
0.0
 40
30.0
100
AcDbArc
 50
153.834961
 51
173.821533
  0
ARC
  5
347
100
AcDbEntity
  8
洗面器
  6
CONTINUOUS
 62
     6
100
AcDbCircle
 10
676.559509
 20
2428.962585
 30
0.0
 40
30.0
100
AcDbArc
 50
6.178467
 51
26.165039
  0
LINE
  5
348
100
AcDbEntity
  8
洗面器
  6
CONTINUOUS
 62
     6
100
AcDbLine
 10
706.385254
 20
2415.191528
 30
0.0
 11
706.385254
 21
2432.191345
 31
0.0
  0
LINE
  5
349
100
AcDbEntity
  8
洗面器
  6
CONTINUOUS
 62
     6
100
AcDbLine
 10
700.585388
 20
2415.191681
 30
0.0
 11
700.585388
 21
2432.191345
 31
0.0
  0
TEXT
  5
34A
100
AcDbEntity
  8
洗面器
  6
CONTINUOUS
 62
     2
100
AcDbText
 10
788.215944
 20
1566.781487
 30
0.0
 40
40.0
  1
ＮＴ７Ａ
 41
0.819
  7
EXCADSTD
 72
     5
 11
944.215944
 21
1566.781487
 31
0.0
100
AcDbText
  0
LINE
  5
34B
100
AcDbEntity
  8
洗面器
  6
CONTINUOUS
 62
     6
100
AcDbLine
 10
788.215944
 20
1563.281487
 30
0.0
 11
937.0
 21
1563.281487
 31
0.0
  0
ARC
  5
34C
100
AcDbEntity
  8
洗面器
  6
CONTINUOUS
 62
     6
100
AcDbCircle
 10
1673.769226
 20
1389.598084
 30
0.0
 40
30.0
100
AcDbArc
 50
63.834961
 51
83.821533
  0
ARC
  5
34D
100
AcDbEntity
  8
洗面器
  6
CONTINUOUS
 62
     6
100
AcDbCircle
 10
1673.769226
 20
1443.449707
 30
0.0
 40
30.0
100
AcDbArc
 50
276.178467
 51
296.165039
  0
LINE
  5
34E
100
AcDbEntity
  8
洗面器
  6
CONTINUOUS
 62
     6
100
AcDbLine
 10
1660.0
 20
1419.423828
 30
0.0
 11
1676.997986
 21
1419.423828
 31
0.0
  0
LINE
  5
34F
100
AcDbEntity
  8
洗面器
  6
CONTINUOUS
 62
     6
100
AcDbLine
 10
1660.0
 20
1413.623962
 30
0.0
 11
1676.997986
 21
1413.623962
 31
0.0
  0
TEXT
  5
350
100
AcDbEntity
  8
洗面器
  6
CONTINUOUS
 62
     2
100
AcDbText
 10
742.4
 20
640.023759
 30
0.0
 40
40.0
  1
Ｆ．Ｌ
 41
0.833
  7
EXCADSTD
 72
     5
 11
861.4
 21
640.023759
 31
0.0
100
AcDbText
  0
ARC
  5
351
100
AcDbEntity
  8
水栓
  6
CONTINUOUS
 62
     6
100
AcDbCircle
 10
648.485321
 20
2310.192139
 30
0.0
 40
17.5
100
AcDbArc
 50
130.142122
 51
49.857878
  0
LINE
  5
352
100
AcDbEntity
  8
水栓
  6
CONTINUOUS
 62
     6
100
AcDbLine
 10
657.485321
 20
2409.192139
 30
0.0
 11
657.485321
 21
2334.764746
 31
0.0
  0
LINE
  5
353
100
AcDbEntity
  8
水栓
  6
CONTINUOUS
 62
     6
100
AcDbLine
 10
639.485321
 20
2409.192139
 30
0.0
 11
639.485321
 21
2334.764746
 31
0.0
  0
LINE
  5
354
100
AcDbEntity
  8
水栓
  6
CONTINUOUS
 62
     6
100
AcDbLine
 10
625.485321
 20
2414.192139
 30
0.0
 11
625.485321
 21
2415.192139
 31
0.0
  0
LINE
  5
355
100
AcDbEntity
  8
水栓
  6
CONTINUOUS
 62
     6
100
AcDbLine
 10
671.485321
 20
2414.192139
 30
0.0
 11
671.485321
 21
2415.192139
 31
0.0
  0
ARC
  5
356
100
AcDbEntity
  8
水栓
  6
CONTINUOUS
 62
     6
100
AcDbCircle
 10
627.485321
 20
2414.192139
 30
0.0
 40
2.0
100
AcDbArc
 50
180.0
 51
270.0
  0
ARC
  5
357
100
AcDbEntity
  8
水栓
  6
CONTINUOUS
 62
     6
100
AcDbCircle
 10
669.485321
 20
2414.192139
 30
0.0
 40
2.0
100
AcDbArc
 50
270.0
 51
0.0
  0
ARC
  5
358
100
AcDbEntity
  8
水栓
  6
CONTINUOUS
 62
     6
100
AcDbCircle
 10
636.485321
 20
2409.192139
 30
0.0
 40
3.0
100
AcDbArc
 50
0.0
 51
90.0
  0
ARC
  5
359
100
AcDbEntity
  8
水栓
  6
CONTINUOUS
 62
     6
100
AcDbCircle
 10
660.485321
 20
2409.192139
 30
0.0
 40
3.0
100
AcDbArc
 50
90.0
 51
180.0
  0
LINE
  5
35A
100
AcDbEntity
  8
水栓
  6
CONTINUOUS
 62
     6
100
AcDbLine
 10
669.485321
 20
2412.192139
 30
0.0
 11
627.485321
 21
2412.192139
 31
0.0
  0
ARC
  5
35B
100
AcDbEntity
  8
水栓
  6
CONTINUOUS
 62
     6
100
AcDbCircle
 10
610.885321
 20
2334.764746
 30
0.0
 40
28.6
100
AcDbArc
 50
329.585471
 51
0.0
  0
ARC
  5
35C
100
AcDbEntity
  8
水栓
  6
CONTINUOUS
 62
     6
100
AcDbCircle
 10
686.085321
 20
2334.764746
 30
0.0
 40
28.6
100
AcDbArc
 50
180.0
 51
210.414529
  0
CIRCLE
  5
35D
100
AcDbEntity
  8
水栓
  6
CONTINUOUS
 62
     6
100
AcDbCircle
 10
648.485321
 20
2312.692139
 30
0.0
 40
15.0
  0
LINE
  5
35E
100
AcDbEntity
  8
水栓
  6
CONTINUOUS
 62
     6
100
AcDbLine
 10
638.007821
 20
2427.464639
 30
0.0
 11
639.735321
 21
2429.192139
 31
0.0
  0
LINE
  5
35F
100
AcDbEntity
  8
水栓
  6
CONTINUOUS
 62
     6
100
AcDbLine
 10
639.169821
 20
2428.626639
 30
0.0
 11
639.169821
 21
2416.354139
 31
0.0
  0
LINE
  5
360
100
AcDbEntity
  8
水栓
  6
CONTINUOUS
 62
     6
100
AcDbLine
 10
638.007821
 20
2415.192139
 30
0.0
 11
639.169821
 21
2416.354139
 31
0.0
  0
LINE
  5
361
100
AcDbEntity
  8
水栓
  6
CONTINUOUS
 62
     6
100
AcDbLine
 10
658.962821
 20
2427.464639
 30
0.0
 11
657.235321
 21
2429.192139
 31
0.0
  0
LINE
  5
362
100
AcDbEntity
  8
水栓
  6
CONTINUOUS
 62
     6
100
AcDbLine
 10
657.800821
 20
2428.626639
 30
0.0
 11
657.800821
 21
2416.354139
 31
0.0
  0
LINE
  5
363
100
AcDbEntity
  8
水栓
  6
CONTINUOUS
 62
     6
100
AcDbLine
 10
658.962821
 20
2415.192139
 30
0.0
 11
657.800821
 21
2416.354139
 31
0.0
  0
LINE
  5
364
100
AcDbEntity
  8
水栓
  6
CONTINUOUS
 62
     6
100
AcDbLine
 10
638.007821
 20
2415.192139
 30
0.0
 11
638.007821
 21
2427.464639
 31
0.0
  0
LINE
  5
365
100
AcDbEntity
  8
水栓
  6
CONTINUOUS
 62
     6
100
AcDbLine
 10
658.962821
 20
2415.192139
 30
0.0
 11
658.962821
 21
2427.464639
 31
0.0
  0
LINE
  5
366
100
AcDbEntity
  8
水栓
  6
CONTINUOUS
 62
     6
100
AcDbLine
 10
657.235321
 20
2429.192139
 30
0.0
 11
639.735321
 21
2429.192139
 31
0.0
  0
LINE
  5
367
100
AcDbEntity
  8
水栓
  6
CONTINUOUS
 62
     6
100
AcDbLine
 10
638.007821
 20
2427.464639
 30
0.0
 11
658.962821
 21
2427.464639
 31
0.0
  0
ARC
  5
368
100
AcDbEntity
  8
水栓
  6
CONTINUOUS
 62
     6
100
AcDbCircle
 10
648.485321
 20
1546.523851
 30
0.0
 40
23.0
100
AcDbArc
 50
316.761986
 51
223.238014
  0
ARC
  5
369
100
AcDbEntity
  8
水栓
  6
CONTINUOUS
 62
     6
100
AcDbCircle
 10
648.485321
 20
1430.523851
 30
0.0
 40
130.0
100
AcDbArc
 50
83.762274
 51
96.237726
  0
LINE
  5
36A
100
AcDbEntity
  8
水栓
  6
CONTINUOUS
 62
     6
100
AcDbLine
 10
630.985321
 20
1518.523851
 30
0.0
 11
665.985321
 21
1518.523851
 31
0.0
  0
LINE
  5
36B
100
AcDbEntity
  8
水栓
  6
CONTINUOUS
 62
     6
100
AcDbLine
 10
630.985321
 20
1518.523851
 30
0.0
 11
632.330109
 21
1540.650453
 31
0.0
  0
ARC
  5
36C
100
AcDbEntity
  8
水栓
  6
CONTINUOUS
 62
     6
100
AcDbCircle
 10
1231.225017
 20
1504.251433
 30
0.0
 40
600.0
100
AcDbArc
 50
174.743362
 51
176.522014
  0
ARC
  5
36D
100
AcDbEntity
  8
水栓
  6
CONTINUOUS
 62
     6
100
AcDbCircle
 10
634.436368
 20
1559.058348
 30
0.0
 40
0.7
100
AcDbArc
 50
96.237726
 51
174.752881
  0
ARC
  5
36E
100
AcDbEntity
  8
水栓
  6
CONTINUOUS
 62
     6
100
AcDbCircle
 10
662.534274
 20
1559.058348
 30
0.0
 40
0.7
100
AcDbArc
 50
5.247119
 51
83.762274
  0
ARC
  5
36F
100
AcDbEntity
  8
水栓
  6
CONTINUOUS
 62
     6
100
AcDbCircle
 10
662.534274
 20
1559.058348
 30
0.0
 40
0.7
100
AcDbArc
 50
5.247119
 51
83.762274
  0
ARC
  5
370
100
AcDbEntity
  8
水栓
  6
CONTINUOUS
 62
     6
100
AcDbCircle
 10
65.745625
 20
1504.251433
 30
0.0
 40
600.0
100
AcDbArc
 50
3.477986
 51
5.256638
  0
LINE
  5
371
100
AcDbEntity
  8
水栓
  6
CONTINUOUS
 62
     6
100
AcDbLine
 10
665.985321
 20
1518.523851
 30
0.0
 11
664.640533
 21
1540.650453
 31
0.0
  0
LINE
  5
372
100
AcDbEntity
  8
水栓
  6
CONTINUOUS
 62
     6
100
AcDbLine
 10
645.235321
 20
1508.523851
 30
0.0
 11
645.235321
 21
1505.523851
 31
0.0
  0
ARC
  5
373
100
AcDbEntity
  8
水栓
  6
CONTINUOUS
 62
     6
100
AcDbCircle
 10
642.235321
 20
1508.523851
 30
0.0
 40
3.0
100
AcDbArc
 50
0.0
 51
65.375682
  0
LINE
  5
374
100
AcDbEntity
  8
水栓
  6
CONTINUOUS
 62
     6
100
AcDbLine
 10
651.735321
 20
1508.523851
 30
0.0
 11
651.735321
 21
1505.523851
 31
0.0
  0
ARC
  5
375
100
AcDbEntity
  8
水栓
  6
CONTINUOUS
 62
     6
100
AcDbCircle
 10
654.735321
 20
1508.523851
 30
0.0
 40
3.0
100
AcDbArc
 50
114.624318
 51
180.0
  0
LINE
  5
376
100
AcDbEntity
  8
水栓
  6
CONTINUOUS
 62
     6
100
AcDbLine
 10
645.485321
 20
1505.273851
 30
0.0
 11
645.485321
 21
1493.723851
 31
0.0
  0
LINE
  5
377
100
AcDbEntity
  8
水栓
  6
CONTINUOUS
 62
     6
100
AcDbLine
 10
651.485321
 20
1505.273851
 30
0.0
 11
651.485321
 21
1493.723851
 31
0.0
  0
LINE
  5
378
100
AcDbEntity
  8
水栓
  6
CONTINUOUS
 62
     6
100
AcDbLine
 10
646.685321
 20
1492.523851
 30
0.0
 11
650.285321
 21
1492.523851
 31
0.0
  0
ARC
  5
379
100
AcDbEntity
  8
水栓
  6
CONTINUOUS
 62
     6
100
AcDbCircle
 10
646.685321
 20
1493.723851
 30
0.0
 40
1.2
100
AcDbArc
 50
180.0
 51
270.0
  0
ARC
  5
37A
100
AcDbEntity
  8
水栓
  6
CONTINUOUS
 62
     6
100
AcDbCircle
 10
650.285321
 20
1493.723851
 30
0.0
 40
1.2
100
AcDbArc
 50
270.0
 51
0.0
  0
LINE
  5
37B
100
AcDbEntity
  8
水栓
  6
CONTINUOUS
 62
     6
100
AcDbLine
 10
651.735321
 20
1505.523851
 30
0.0
 11
651.485321
 21
1505.273851
 31
0.0
  0
LINE
  5
37C
100
AcDbEntity
  8
水栓
  6
CONTINUOUS
 62
     6
100
AcDbLine
 10
645.235321
 20
1505.523851
 30
0.0
 11
645.485321
 21
1505.273851
 31
0.0
  0
LINE
  5
37D
100
AcDbEntity
  8
水栓
  6
CONTINUOUS
 62
     6
100
AcDbLine
 10
641.235321
 20
1518.523851
 30
0.0
 11
641.235321
 21
1512.523851
 31
0.0
  0
LINE
  5
37E
100
AcDbEntity
  8
水栓
  6
CONTINUOUS
 62
     6
100
AcDbLine
 10
655.735321
 20
1518.523851
 30
0.0
 11
655.735321
 21
1512.523851
 31
0.0
  0
ARC
  5
37F
100
AcDbEntity
  8
水栓
  6
CONTINUOUS
 62
     6
100
AcDbCircle
 10
642.235321
 20
1512.523851
 30
0.0
 40
1.0
100
AcDbArc
 50
180.0
 51
270.0
  0
ARC
  5
380
100
AcDbEntity
  8
水栓
  6
CONTINUOUS
 62
     6
100
AcDbCircle
 10
654.735321
 20
1512.523851
 30
0.0
 40
1.0
100
AcDbArc
 50
270.0
 51
0.0
  0
LINE
  5
381
100
AcDbEntity
  8
水栓
  6
CONTINUOUS
 62
     6
100
AcDbLine
 10
643.485321
 20
1511.523851
 30
0.0
 11
643.485321
 21
1511.251029
 31
0.0
  0
LINE
  5
382
100
AcDbEntity
  8
水栓
  6
CONTINUOUS
 62
     6
100
AcDbLine
 10
653.485321
 20
1511.523851
 30
0.0
 11
653.485321
 21
1511.251029
 31
0.0
  0
LINE
  5
383
100
AcDbEntity
  8
水栓
  6
CONTINUOUS
 62
     6
100
AcDbLine
 10
642.235321
 20
1511.523851
 30
0.0
 11
654.735321
 21
1511.523851
 31
0.0
  0
LINE
  5
384
100
AcDbEntity
  8
水栓
  6
CONTINUOUS
 62
     6
100
AcDbLine
 10
638.485321
 20
1546.523851
 30
0.0
 11
605.485321
 21
1546.523851
 31
0.0
  0
LINE
  5
385
100
AcDbEntity
  8
水栓
  6
CONTINUOUS
 62
     6
100
AcDbLine
 10
691.485321
 20
1546.523851
 30
0.0
 11
658.485321
 21
1546.523851
 31
0.0
  0
LINE
  5
386
100
AcDbEntity
  8
水栓
  6
CONTINUOUS
 62
     6
100
AcDbLine
 10
651.485321
 20
1546.523851
 30
0.0
 11
645.485321
 21
1546.523851
 31
0.0
  0
LINE
  5
387
100
AcDbEntity
  8
水栓
  6
CONTINUOUS
 62
     6
100
AcDbLine
 10
648.485321
 20
1556.523851
 30
0.0
 11
648.485321
 21
1589.523851
 31
0.0
  0
LINE
  5
388
100
AcDbEntity
  8
水栓
  6
CONTINUOUS
 62
     6
100
AcDbLine
 10
648.485321
 20
1506.9
 30
0.0
 11
648.485321
 21
1536.523851
 31
0.0
  0
LINE
  5
389
100
AcDbEntity
  8
水栓
  6
CONTINUOUS
 62
     6
100
AcDbLine
 10
648.485321
 20
1543.523851
 30
0.0
 11
648.485321
 21
1549.523851
 31
0.0
  0
LINE
  5
38A
100
AcDbEntity
  8
水栓
  6
CONTINUOUS
 62
     6
100
AcDbLine
 10
1658.999784
 20
1569.52324
 30
0.0
 11
1659.999784
 21
1569.52324
 31
0.0
  0
LINE
  5
38B
100
AcDbEntity
  8
水栓
  6
CONTINUOUS
 62
     6
100
AcDbLine
 10
1658.999784
 20
1523.52324
 30
0.0
 11
1659.999784
 21
1523.52324
 31
0.0
  0
ARC
  5
38C
100
AcDbEntity
  8
水栓
  6
CONTINUOUS
 62
     6
100
AcDbCircle
 10
1658.999784
 20
1567.52324
 30
0.0
 40
2.0
100
AcDbArc
 50
90.0
 51
180.0
  0
ARC
  5
38D
100
AcDbEntity
  8
水栓
  6
CONTINUOUS
 62
     6
100
AcDbCircle
 10
1658.999784
 20
1525.52324
 30
0.0
 40
2.0
100
AcDbArc
 50
180.0
 51
270.0
  0
LINE
  5
38E
100
AcDbEntity
  8
水栓
  6
CONTINUOUS
 62
     6
100
AcDbLine
 10
1575.799784
 20
1555.52324
 30
0.0
 11
1653.999784
 21
1555.52324
 31
0.0
  0
ARC
  5
38F
100
AcDbEntity
  8
水栓
  6
CONTINUOUS
 62
     6
100
AcDbCircle
 10
1653.999784
 20
1558.52324
 30
0.0
 40
3.0
100
AcDbArc
 50
270.0
 51
0.0
  0
LINE
  5
390
100
AcDbEntity
  8
水栓
  6
CONTINUOUS
 62
     6
100
AcDbLine
 10
1656.999784
 20
1567.52324
 30
0.0
 11
1656.999784
 21
1525.52324
 31
0.0
  0
LINE
  5
391
100
AcDbEntity
  8
水栓
  6
CONTINUOUS
 62
     6
100
AcDbLine
 10
1537.499784
 20
1518.52324
 30
0.0
 11
1572.499784
 21
1518.52324
 31
0.0
  0
ARC
  5
392
100
AcDbEntity
  8
水栓
  6
CONTINUOUS
 62
     6
100
AcDbCircle
 10
1557.848123
 20
1430.52324
 30
0.0
 40
130.0
100
AcDbArc
 50
83.802313
 51
96.415769
  0
LINE
  5
393
100
AcDbEntity
  8
水栓
  6
CONTINUOUS
 62
     6
100
AcDbLine
 10
1572.499784
 20
1531.22324
 30
0.0
 11
1572.499784
 21
1518.52324
 31
0.0
  0
LINE
  5
394
100
AcDbEntity
  8
水栓
  6
CONTINUOUS
 62
     6
100
AcDbLine
 10
1540.79195
 20
1545.780819
 30
0.0
 11
1537.499784
 21
1518.52324
 31
0.0
  0
ARC
  5
395
100
AcDbEntity
  8
水栓
  6
CONTINUOUS
 62
     6
100
AcDbCircle
 10
1578.799784
 20
1531.22324
 30
0.0
 40
6.3
100
AcDbArc
 50
90.0
 51
180.0
  0
ARC
  5
396
100
AcDbEntity
  8
水栓
  6
CONTINUOUS
 62
     6
100
AcDbCircle
 10
1575.799784
 20
1558.82324
 30
0.0
 40
3.3
100
AcDbArc
 50
176.498721
 51
270.0
  0
ARC
  5
397
100
AcDbEntity
  8
水栓
  6
CONTINUOUS
 62
     6
100
AcDbCircle
 10
1838.627438
 20
1509.808302
 30
0.0
 40
300.0
100
AcDbArc
 50
170.537573
 51
173.113184
  0
ARC
  5
398
100
AcDbEntity
  8
水栓
  6
CONTINUOUS
 62
     6
100
AcDbCircle
 10
1543.399827
 20
1559.01346
 30
0.0
 40
0.7
100
AcDbArc
 50
96.415769
 51
170.537573
  0
ARC
  5
399
100
AcDbEntity
  8
水栓
  6
CONTINUOUS
 62
     6
100
AcDbCircle
 10
1571.80725
 20
1559.067523
 30
0.0
 40
0.7
100
AcDbArc
 50
356.498721
 51
83.802313
  0
LINE
  5
39A
100
AcDbEntity
  8
水栓
  6
CONTINUOUS
 62
     6
100
AcDbLine
 10
1547.749784
 20
1518.52324
 30
0.0
 11
1547.749784
 21
1512.52324
 31
0.0
  0
LINE
  5
39B
100
AcDbEntity
  8
水栓
  6
CONTINUOUS
 62
     6
100
AcDbLine
 10
1562.249784
 20
1518.52324
 30
0.0
 11
1562.249784
 21
1512.52324
 31
0.0
  0
ARC
  5
39C
100
AcDbEntity
  8
水栓
  6
CONTINUOUS
 62
     6
100
AcDbCircle
 10
1548.749784
 20
1512.52324
 30
0.0
 40
1.0
100
AcDbArc
 50
180.0
 51
270.0
  0
ARC
  5
39D
100
AcDbEntity
  8
水栓
  6
CONTINUOUS
 62
     6
100
AcDbCircle
 10
1561.249784
 20
1512.52324
 30
0.0
 40
1.0
100
AcDbArc
 50
270.0
 51
0.0
  0
LINE
  5
39E
100
AcDbEntity
  8
水栓
  6
CONTINUOUS
 62
     6
100
AcDbLine
 10
1578.799784
 20
1537.52324
 30
0.0
 11
1653.999784
 21
1537.52324
 31
0.0
  0
ARC
  5
39F
100
AcDbEntity
  8
水栓
  6
CONTINUOUS
 62
     6
100
AcDbCircle
 10
1653.999784
 20
1534.52324
 30
0.0
 40
3.0
100
AcDbArc
 50
0.0
 51
90.0
  0
LINE
  5
3A0
100
AcDbEntity
  8
水栓
  6
CONTINUOUS
 62
     6
100
AcDbLine
 10
1672.272284
 20
1557.00074
 30
0.0
 11
1673.999784
 21
1555.27324
 31
0.0
  0
LINE
  5
3A1
100
AcDbEntity
  8
水栓
  6
CONTINUOUS
 62
     6
100
AcDbLine
 10
1673.434284
 20
1555.83874
 30
0.0
 11
1661.161784
 21
1555.83874
 31
0.0
  0
LINE
  5
3A2
100
AcDbEntity
  8
水栓
  6
CONTINUOUS
 62
     6
100
AcDbLine
 10
1659.999784
 20
1557.00074
 30
0.0
 11
1661.161784
 21
1555.83874
 31
0.0
  0
LINE
  5
3A3
100
AcDbEntity
  8
水栓
  6
CONTINUOUS
 62
     6
100
AcDbLine
 10
1672.272284
 20
1536.04574
 30
0.0
 11
1673.999784
 21
1537.77324
 31
0.0
  0
LINE
  5
3A4
100
AcDbEntity
  8
水栓
  6
CONTINUOUS
 62
     6
100
AcDbLine
 10
1673.434284
 20
1537.20774
 30
0.0
 11
1661.161784
 21
1537.20774
 31
0.0
  0
LINE
  5
3A5
100
AcDbEntity
  8
水栓
  6
CONTINUOUS
 62
     6
100
AcDbLine
 10
1659.999784
 20
1536.04574
 30
0.0
 11
1661.161784
 21
1537.20774
 31
0.0
  0
LINE
  5
3A6
100
AcDbEntity
  8
水栓
  6
CONTINUOUS
 62
     6
100
AcDbLine
 10
1659.999784
 20
1557.00074
 30
0.0
 11
1672.272284
 21
1557.00074
 31
0.0
  0
LINE
  5
3A7
100
AcDbEntity
  8
水栓
  6
CONTINUOUS
 62
     6
100
AcDbLine
 10
1659.999784
 20
1536.04574
 30
0.0
 11
1672.272284
 21
1536.04574
 31
0.0
  0
LINE
  5
3A8
100
AcDbEntity
  8
水栓
  6
CONTINUOUS
 62
     6
100
AcDbLine
 10
1673.999784
 20
1537.77324
 30
0.0
 11
1673.999784
 21
1555.27324
 31
0.0
  0
LINE
  5
3A9
100
AcDbEntity
  8
水栓
  6
CONTINUOUS
 62
     6
100
AcDbLine
 10
1543.999784
 20
1492.52324
 30
0.0
 11
1565.999784
 21
1492.52324
 31
0.0
  0
ARC
  5
3AA
100
AcDbEntity
  8
水栓
  6
CONTINUOUS
 62
     6
100
AcDbCircle
 10
1543.999784
 20
1496.52324
 30
0.0
 40
4.0
100
AcDbArc
 50
108.715366
 51
270.0
  0
LINE
  5
3AB
100
AcDbEntity
  8
水栓
  6
CONTINUOUS
 62
     6
100
AcDbLine
 10
1551.749784
 20
1508.52324
 30
0.0
 11
1551.749784
 21
1505.52324
 31
0.0
  0
ARC
  5
3AC
100
AcDbEntity
  8
水栓
  6
CONTINUOUS
 62
     6
100
AcDbCircle
 10
1548.749784
 20
1505.52324
 30
0.0
 40
3.0
100
AcDbArc
 50
288.715366
 51
0.0
  0
LINE
  5
3AD
100
AcDbEntity
  8
水栓
  6
CONTINUOUS
 62
     6
100
AcDbLine
 10
1549.712385
 20
1502.681867
 30
0.0
 11
1542.716316
 21
1500.311737
 31
0.0
  0
LINE
  5
3AE
100
AcDbEntity
  8
水栓
  6
CONTINUOUS
 62
     6
100
AcDbLine
 10
1548.749784
 20
1511.52324
 30
0.0
 11
1561.249784
 21
1511.52324
 31
0.0
  0
LINE
  5
3AF
100
AcDbEntity
  8
水栓
  6
CONTINUOUS
 62
     6
100
AcDbLine
 10
1549.999784
 20
1511.52324
 30
0.0
 11
1549.999784
 21
1511.250418
 31
0.0
  0
ARC
  5
3B0
100
AcDbEntity
  8
水栓
  6
CONTINUOUS
 62
     6
100
AcDbCircle
 10
1548.749784
 20
1508.52324
 30
0.0
 40
3.0
100
AcDbArc
 50
0.0
 51
65.375682
  0
ARC
  5
3B1
100
AcDbEntity
  8
水栓
  6
CONTINUOUS
 62
     6
100
AcDbCircle
 10
1561.249784
 20
1505.52324
 30
0.0
 40
3.0
100
AcDbArc
 50
180.0
 51
251.284634
  0
LINE
  5
3B2
100
AcDbEntity
  8
水栓
  6
CONTINUOUS
 62
     6
100
AcDbLine
 10
1558.249784
 20
1508.52324
 30
0.0
 11
1558.249784
 21
1505.52324
 31
0.0
  0
ARC
  5
3B3
100
AcDbEntity
  8
水栓
  6
CONTINUOUS
 62
     6
100
AcDbCircle
 10
1561.249784
 20
1508.52324
 30
0.0
 40
3.0
100
AcDbArc
 50
114.624318
 51
180.0
  0
LINE
  5
3B4
100
AcDbEntity
  8
水栓
  6
CONTINUOUS
 62
     6
100
AcDbLine
 10
1559.999784
 20
1511.52324
 30
0.0
 11
1559.999784
 21
1511.250418
 31
0.0
  0
LINE
  5
3B5
100
AcDbEntity
  8
水栓
  6
CONTINUOUS
 62
     6
100
AcDbLine
 10
1560.287183
 20
1502.681867
 30
0.0
 11
1567.283252
 21
1500.311737
 31
0.0
  0
ARC
  5
3B6
100
AcDbEntity
  8
水栓
  6
CONTINUOUS
 62
     6
100
AcDbCircle
 10
1565.999784
 20
1496.52324
 30
0.0
 40
4.0
100
AcDbArc
 50
270.0
 51
71.284634
  0
LINE
  5
3B7
100
AcDbEntity
  8
水栓
  6
CONTINUOUS
 62
     6
100
AcDbLine
 10
1672.272284
 20
1557.00074
 30
0.0
 11
1672.272284
 21
1536.04574
 31
0.0
  0
LINE
  5
3B8
100
AcDbEntity
  8
水栓
  6
CONTINUOUS
 62
     6
100
AcDbLine
 10
1695.107944
 20
1605.735077
 30
0.0
 11
1826.0
 21
1605.735077
 31
0.0
  0
TEXT
  5
3B9
100
AcDbEntity
  8
水栓
  6
CONTINUOUS
 62
     2
100
AcDbText
 10
1695.107944
 20
1609.235138
 30
0.0
 40
40.0
  1
ＰＪ
 41
0.861
  7
EXCADSTD
 72
     5
 11
1770.269144
 21
1609.235138
 31
0.0
100
AcDbText
  0
TEXT
  5
3BA
100
AcDbEntity
  8
水栓
  6
CONTINUOUS
 62
     2
100
AcDbText
 10
1763.044406
 20
1623.346313
 30
0.0
 40
25.0
  1
１
 41
0.9912
  7
EXCADSTD
 72
     5
 11
1786.644406
 21
1623.346313
 31
0.0
100
AcDbText
  0
TEXT
  5
3BB
100
AcDbEntity
  8
水栓
  6
CONTINUOUS
 62
     6
100
AcDbText
 10
1772.545444
 20
1609.235138
 30
0.0
 40
40.0
  1
／ 
 41
0.9912
  7
EXCADSTD
 72
     5
 11
1810.305442
 21
1609.235138
 31
0.0
100
AcDbText
  0
TEXT
  5
3BC
100
AcDbEntity
  8
水栓
  6
CONTINUOUS
 62
     2
100
AcDbText
 10
1798.742801
 20
1611.446899
 30
0.0
 40
25.0
  1
２
 41
0.9912
  7
EXCADSTD
 72
     5
 11
1822.342801
 21
1611.446899
 31
0.0
100
AcDbText
  0
TEXT
  5
3BD
100
AcDbEntity
  8
水栓
  6
CONTINUOUS
 62
     2
100
AcDbText
 10
1164.929493
 20
1616.018893
 30
0.0
 40
40.0
  1
ＮＬ１５－ＭＹ
 41
0.801
  7
EXCADSTD
 72
     5
 11
1431.929492
 21
1616.018893
 31
0.0
100
AcDbText
  0
LINE
  5
3BE
100
AcDbEntity
  8
水栓
  6
CONTINUOUS
 62
     6
100
AcDbLine
 10
1431.929492
 20
1612.518893
 30
0.0
 11
1167.0
 21
1612.518893
 31
0.0
  0
LINE
  5
3BF
100
AcDbEntity
  8
トラップ
  6
CONTINUOUS
 62
     6
100
AcDbLine
 10
624.235291
 20
1274.523926
 30
0.0
 11
624.235291
 21
1279.523926
 31
0.0
  0
LINE
  5
3C0
100
AcDbEntity
  8
トラップ
  6
CONTINUOUS
 62
     6
100
AcDbLine
 10
672.735351
 20
1274.523926
 30
0.0
 11
624.235291
 21
1274.523926
 31
0.0
  0
LINE
  5
3C1
100
AcDbEntity
  8
トラップ
  6
CONTINUOUS
 62
     6
100
AcDbLine
 10
672.735351
 20
1274.523926
 30
0.0
 11
672.735351
 21
1279.523926
 31
0.0
  0
LINE
  5
3C2
100
AcDbEntity
  8
トラップ
  6
CONTINUOUS
 62
     6
100
AcDbLine
 10
670.985321
 20
1253.523956
 30
0.0
 11
670.985321
 21
1274.523926
 31
0.0
  0
LINE
  5
3C3
100
AcDbEntity
  8
トラップ
  6
CONTINUOUS
 62
     6
100
AcDbLine
 10
670.24538
 20
1251.851284
 30
0.0
 11
662.925213
 21
1245.196598
 31
0.0
  0
LINE
  5
3C4
100
AcDbEntity
  8
トラップ
  6
CONTINUOUS
 62
     6
100
AcDbLine
 10
625.985321
 20
1253.523956
 30
0.0
 11
625.985321
 21
1274.523926
 31
0.0
  0
LINE
  5
3C5
100
AcDbEntity
  8
トラップ
  6
CONTINUOUS
 62
     6
100
AcDbLine
 10
626.725262
 20
1251.851284
 30
0.0
 11
634.78537
 21
1244.523926
 31
0.0
  0
LINE
  5
3C6
100
AcDbEntity
  8
トラップ
  6
CONTINUOUS
 62
     6
100
AcDbLine
 10
625.985321
 20
1252.523956
 30
0.0
 11
634.045429
 21
1245.196598
 31
0.0
  0
LINE
  5
3C7
100
AcDbEntity
  8
トラップ
  6
CONTINUOUS
 62
     6
100
AcDbLine
 10
661.185211
 20
1244.523926
 30
0.0
 11
635.785431
 21
1244.523926
 31
0.0
  0
LINE
  5
3C8
100
AcDbEntity
  8
トラップ
  6
CONTINUOUS
 62
     6
100
AcDbLine
 10
634.78537
 20
1239.523926
 30
0.0
 11
634.78537
 21
1243.523926
 31
0.0
  0
LINE
  5
3C9
100
AcDbEntity
  8
トラップ
  6
CONTINUOUS
 62
     6
100
AcDbLine
 10
662.185272
 20
1239.523926
 30
0.0
 11
634.78537
 21
1239.523926
 31
0.0
  0
LINE
  5
3CA
100
AcDbEntity
  8
トラップ
  6
CONTINUOUS
 62
     6
100
AcDbLine
 10
661.185211
 20
1244.523926
 30
0.0
 11
635.785431
 21
1244.523926
 31
0.0
  0
LINE
  5
3CB
100
AcDbEntity
  8
トラップ
  6
CONTINUOUS
 62
     6
100
AcDbLine
 10
662.185272
 20
1239.523926
 30
0.0
 11
662.185272
 21
1243.523926
 31
0.0
  0
LINE
  5
3CC
100
AcDbEntity
  8
トラップ
  6
CONTINUOUS
 62
     6
100
AcDbLine
 10
661.185364
 20
1160.023193
 30
0.0
 11
661.185364
 21
1239.523926
 31
0.0
  0
LINE
  5
3CD
100
AcDbEntity
  8
トラップ
  6
CONTINUOUS
 62
     6
100
AcDbLine
 10
635.785278
 20
1160.023193
 30
0.0
 11
635.785278
 21
1239.523926
 31
0.0
  0
LINE
  5
3CE
100
AcDbEntity
  8
トラップ
  6
CONTINUOUS
 62
     6
100
AcDbLine
 10
635.785431
 20
1105.023346
 30
0.0
 11
661.185211
 21
1105.023346
 31
0.0
  0
LINE
  5
3CF
100
AcDbEntity
  8
トラップ
  6
CONTINUOUS
 62
     6
100
AcDbLine
 10
634.78537
 20
1109.586639
 30
0.0
 11
634.78537
 21
1145.723267
 31
0.0
  0
LINE
  5
3D0
100
AcDbEntity
  8
トラップ
  6
CONTINUOUS
 62
     6
100
AcDbLine
 10
634.78537
 20
1105.559235
 30
0.0
 11
634.78537
 21
1145.723267
 31
0.0
  0
LINE
  5
3D1
100
AcDbEntity
  8
トラップ
  6
CONTINUOUS
 62
     6
100
AcDbLine
 10
662.185272
 20
1105.559235
 30
0.0
 11
662.185272
 21
1145.723267
 31
0.0
  0
ARC
  5
3D2
100
AcDbEntity
  8
トラップ
  6
CONTINUOUS
 62
     6
100
AcDbCircle
 10
633.485321
 20
1145.723267
 30
0.0
 40
1.3
100
AcDbArc
 50
0.0
 51
90.0
  0
ARC
  5
3D3
100
AcDbEntity
  8
トラップ
  6
CONTINUOUS
 62
     6
100
AcDbCircle
 10
663.485321
 20
1145.723267
 30
0.0
 40
1.3
100
AcDbArc
 50
90.0
 51
180.0
  0
LINE
  5
3D4
100
AcDbEntity
  8
トラップ
  6
CONTINUOUS
 62
     6
100
AcDbLine
 10
663.485321
 20
1147.023315
 30
0.0
 11
663.485321
 21
1148.023224
 31
0.0
  0
LINE
  5
3D5
100
AcDbEntity
  8
トラップ
  6
CONTINUOUS
 62
     6
100
AcDbLine
 10
633.485321
 20
1147.023315
 30
0.0
 11
633.485321
 21
1148.023224
 31
0.0
  0
LINE
  5
3D6
100
AcDbEntity
  8
トラップ
  6
CONTINUOUS
 62
     6
100
AcDbLine
 10
633.485321
 20
1147.023315
 30
0.0
 11
663.485321
 21
1147.023315
 31
0.0
  0
LINE
  5
3D7
100
AcDbEntity
  8
トラップ
  6
CONTINUOUS
 62
     6
100
AcDbLine
 10
663.485321
 20
1147.023315
 30
0.0
 11
664.485382
 21
1148.023377
 31
0.0
  0
LINE
  5
3D8
100
AcDbEntity
  8
トラップ
  6
CONTINUOUS
 62
     6
100
AcDbLine
 10
632.48526
 20
1148.023377
 30
0.0
 11
633.485321
 21
1147.023315
 31
0.0
  0
ARC
  5
3D9
100
AcDbEntity
  8
トラップ
  6
CONTINUOUS
 62
     6
100
AcDbCircle
 10
660.185303
 20
1105.559235
 30
0.0
 40
2.0
100
AcDbArc
 50
330.001953
 51
0.0
  0
LINE
  5
3DA
100
AcDbEntity
  8
トラップ
  6
CONTINUOUS
 62
     6
100
AcDbLine
 10
661.453308
 20
1103.755493
 30
0.0
 11
662.185272
 21
1105.023193
 31
0.0
  0
ARC
  5
3DB
100
AcDbEntity
  8
トラップ
  6
CONTINUOUS
 62
     6
100
AcDbCircle
 10
663.185333
 20
1102.755585
 30
0.0
 40
2.0
100
AcDbArc
 50
150.001907
 51
180.0
  0
LINE
  5
3DC
100
AcDbEntity
  8
トラップ
  6
CONTINUOUS
 62
     6
100
AcDbLine
 10
661.453308
 20
1103.755493
 30
0.0
 11
662.185272
 21
1105.023193
 31
0.0
  0
LINE
  5
3DD
100
AcDbEntity
  8
トラップ
  6
CONTINUOUS
 62
     6
100
AcDbLine
 10
661.453308
 20
1103.755493
 30
0.0
 11
662.185272
 21
1105.023193
 31
0.0
  0
LINE
  5
3DE
100
AcDbEntity
  8
トラップ
  6
CONTINUOUS
 62
     6
100
AcDbLine
 10
661.453308
 20
1103.755493
 30
0.0
 11
662.185272
 21
1105.023193
 31
0.0
  0
LINE
  5
3DF
100
AcDbEntity
  8
トラップ
  6
CONTINUOUS
 62
     6
100
AcDbLine
 10
661.453308
 20
1103.755493
 30
0.0
 11
662.185272
 21
1105.023193
 31
0.0
  0
ARC
  5
3E0
100
AcDbEntity
  8
トラップ
  6
CONTINUOUS
 62
     6
100
AcDbCircle
 10
633.785309
 20
1102.755585
 30
0.0
 40
2.0
100
AcDbArc
 50
0.0
 51
29.998093
  0
LINE
  5
3E1
100
AcDbEntity
  8
トラップ
  6
CONTINUOUS
 62
     6
100
AcDbLine
 10
635.517334
 20
1103.755493
 30
0.0
 11
634.78537
 21
1105.023193
 31
0.0
  0
LINE
  5
3E2
100
AcDbEntity
  8
トラップ
  6
CONTINUOUS
 62
     6
100
AcDbLine
 10
635.517334
 20
1103.755493
 30
0.0
 11
634.78537
 21
1105.023193
 31
0.0
  0
LINE
  5
3E3
100
AcDbEntity
  8
トラップ
  6
CONTINUOUS
 62
     6
100
AcDbLine
 10
635.517334
 20
1103.755493
 30
0.0
 11
634.78537
 21
1105.023193
 31
0.0
  0
LINE
  5
3E4
100
AcDbEntity
  8
トラップ
  6
CONTINUOUS
 62
     6
100
AcDbLine
 10
635.517334
 20
1103.755493
 30
0.0
 11
634.78537
 21
1105.023193
 31
0.0
  0
ARC
  5
3E5
100
AcDbEntity
  8
トラップ
  6
CONTINUOUS
 62
     6
100
AcDbCircle
 10
636.785339
 20
1105.559235
 30
0.0
 40
2.0
100
AcDbArc
 50
180.0
 51
209.998047
  0
ARC
  5
3E6
100
AcDbEntity
  8
トラップ
  6
CONTINUOUS
 62
     6
100
AcDbCircle
 10
648.485321
 20
1036.023254
 30
0.0
 40
12.700043
100
AcDbArc
 50
180.0
 51
0.0
  0
LINE
  5
3E7
100
AcDbEntity
  8
トラップ
  6
CONTINUOUS
 62
     6
100
AcDbLine
 10
661.185364
 20
1036.023254
 30
0.0
 11
661.185364
 21
1102.755585
 31
0.0
  0
LINE
  5
3E8
100
AcDbEntity
  8
トラップ
  6
CONTINUOUS
 62
     6
100
AcDbLine
 10
635.785278
 20
1036.023254
 30
0.0
 11
635.785278
 21
1102.755585
 31
0.0
  0
ARC
  5
3E9
100
AcDbEntity
  8
トラップ
  6
CONTINUOUS
 62
     6
100
AcDbCircle
 10
648.485321
 20
1121.523285
 30
0.0
 40
30.0
100
AcDbArc
 50
120.671036
 51
244.954742
  0
ARC
  5
3EA
100
AcDbEntity
  8
トラップ
  6
CONTINUOUS
 62
     6
100
AcDbCircle
 10
648.485321
 20
1121.523285
 30
0.0
 40
30.0
100
AcDbArc
 50
295.045166
 51
59.328964
  0
LINE
  5
3EB
100
AcDbEntity
  8
トラップ
  6
CONTINUOUS
 62
     6
100
AcDbLine
 10
630.985321
 20
1074.023529
 30
0.0
 11
630.985321
 21
1084.023499
 31
0.0
  0
LINE
  5
3EC
100
AcDbEntity
  8
トラップ
  6
CONTINUOUS
 62
     6
100
AcDbLine
 10
665.985321
 20
1074.023529
 30
0.0
 11
665.985321
 21
1084.023499
 31
0.0
  0
LINE
  5
3ED
100
AcDbEntity
  8
トラップ
  6
CONTINUOUS
 62
     6
100
AcDbLine
 10
664.985321
 20
1085.023499
 30
0.0
 11
661.185364
 21
1085.023499
 31
0.0
  0
LINE
  5
3EE
100
AcDbEntity
  8
トラップ
  6
CONTINUOUS
 62
     6
100
AcDbLine
 10
635.785278
 20
1085.023499
 30
0.0
 11
631.985321
 21
1085.023499
 31
0.0
  0
LINE
  5
3EF
100
AcDbEntity
  8
トラップ
  6
CONTINUOUS
 62
     6
100
AcDbLine
 10
664.985321
 20
1073.023529
 30
0.0
 11
661.185364
 21
1073.023529
 31
0.0
  0
LINE
  5
3F0
100
AcDbEntity
  8
トラップ
  6
CONTINUOUS
 62
     6
100
AcDbLine
 10
635.785278
 20
1073.023529
 30
0.0
 11
631.985321
 21
1073.023529
 31
0.0
  0
POLYLINE
  5
3F1
100
AcDbEntity
  8
トラップ
  6
CONTINUOUS
 62
     6
100
AcDb2dPolyline
 66
     1
 10
0.0
 20
0.0
 30
0.0
 70
   128
  0
VERTEX
  5
3F2
100
AcDbEntity
  8
トラップ
  6
CONTINUOUS
 62
     6
100
AcDbVertex
100
AcDb2dVertex
 10
664.180359
 20
1079.023438
 30
0.0
  0
VERTEX
  5
3F3
100
AcDbEntity
  8
トラップ
  6
CONTINUOUS
 62
     6
100
AcDbVertex
100
AcDb2dVertex
 10
664.175547
 20
1079.214653
 30
0.0
  0
VERTEX
  5
3F4
100
AcDbEntity
  8
トラップ
  6
CONTINUOUS
 62
     6
100
AcDbVertex
100
AcDb2dVertex
 10
664.161142
 20
1079.405606
 30
0.0
  0
VERTEX
  5
3F5
100
AcDbEntity
  8
トラップ
  6
CONTINUOUS
 62
     6
100
AcDbVertex
100
AcDb2dVertex
 10
664.137192
 20
1079.596035
 30
0.0
  0
VERTEX
  5
3F6
100
AcDbEntity
  8
トラップ
  6
CONTINUOUS
 62
     6
100
AcDbVertex
100
AcDb2dVertex
 10
664.103744
 20
1079.785679
 30
0.0
  0
VERTEX
  5
3F7
100
AcDbEntity
  8
トラップ
  6
CONTINUOUS
 62
     6
100
AcDbVertex
100
AcDb2dVertex
 10
664.060844
 20
1079.974274
 30
0.0
  0
VERTEX
  5
3F8
100
AcDbEntity
  8
トラップ
  6
CONTINUOUS
 62
     6
100
AcDbVertex
100
AcDb2dVertex
 10
664.00854
 20
1080.16156
 30
0.0
  0
VERTEX
  5
3F9
100
AcDbEntity
  8
トラップ
  6
CONTINUOUS
 62
     6
100
AcDbVertex
100
AcDb2dVertex
 10
663.946879
 20
1080.347274
 30
0.0
  0
VERTEX
  5
3FA
100
AcDbEntity
  8
トラップ
  6
CONTINUOUS
 62
     6
100
AcDbVertex
100
AcDb2dVertex
 10
663.87592
 20
1080.531157
 30
0.0
  0
VERTEX
  5
3FB
100
AcDbEntity
  8
トラップ
  6
CONTINUOUS
 62
     6
100
AcDbVertex
100
AcDb2dVertex
 10
663.795783
 20
1080.71296
 30
0.0
  0
VERTEX
  5
3FC
100
AcDbEntity
  8
トラップ
  6
CONTINUOUS
 62
     6
100
AcDbVertex
100
AcDb2dVertex
 10
663.706606
 20
1080.892437
 30
0.0
  0
VERTEX
  5
3FD
100
AcDbEntity
  8
トラップ
  6
CONTINUOUS
 62
     6
100
AcDbVertex
100
AcDb2dVertex
 10
663.608522
 20
1081.069344
 30
0.0
  0
VERTEX
  5
3FE
100
AcDbEntity
  8
トラップ
  6
CONTINUOUS
 62
     6
100
AcDbVertex
100
AcDb2dVertex
 10
663.50167
 20
1081.243435
 30
0.0
  0
VERTEX
  5
3FF
100
AcDbEntity
  8
トラップ
  6
CONTINUOUS
 62
     6
100
AcDbVertex
100
AcDb2dVertex
 10
663.386186
 20
1081.414465
 30
0.0
  0
VERTEX
  5
400
100
AcDbEntity
  8
トラップ
  6
CONTINUOUS
 62
     6
100
AcDbVertex
100
AcDb2dVertex
 10
663.262206
 20
1081.582188
 30
0.0
  0
VERTEX
  5
401
100
AcDbEntity
  8
トラップ
  6
CONTINUOUS
 62
     6
100
AcDbVertex
100
AcDb2dVertex
 10
663.129876
 20
1081.746363
 30
0.0
  0
VERTEX
  5
402
100
AcDbEntity
  8
トラップ
  6
CONTINUOUS
 62
     6
100
AcDbVertex
100
AcDb2dVertex
 10
662.989397
 20
1081.906773
 30
0.0
  0
VERTEX
  5
403
100
AcDbEntity
  8
トラップ
  6
CONTINUOUS
 62
     6
100
AcDbVertex
100
AcDb2dVertex
 10
662.840984
 20
1082.063209
 30
0.0
  0
VERTEX
  5
404
100
AcDbEntity
  8
トラップ
  6
CONTINUOUS
 62
     6
100
AcDbVertex
100
AcDb2dVertex
 10
662.684856
 20
1082.215461
 30
0.0
  0
VERTEX
  5
405
100
AcDbEntity
  8
トラップ
  6
CONTINUOUS
 62
     6
100
AcDbVertex
100
AcDb2dVertex
 10
662.521228
 20
1082.363321
 30
0.0
  0
VERTEX
  5
406
100
AcDbEntity
  8
トラップ
  6
CONTINUOUS
 62
     6
100
AcDbVertex
100
AcDb2dVertex
 10
662.350319
 20
1082.50658
 30
0.0
  0
VERTEX
  5
407
100
AcDbEntity
  8
トラップ
  6
CONTINUOUS
 62
     6
100
AcDbVertex
100
AcDb2dVertex
 10
662.172345
 20
1082.645027
 30
0.0
  0
VERTEX
  5
408
100
AcDbEntity
  8
トラップ
  6
CONTINUOUS
 62
     6
100
AcDbVertex
100
AcDb2dVertex
 10
661.98753
 20
1082.778459
 30
0.0
  0
VERTEX
  5
409
100
AcDbEntity
  8
トラップ
  6
CONTINUOUS
 62
     6
100
AcDbVertex
100
AcDb2dVertex
 10
661.796141
 20
1082.906702
 30
0.0
  0
VERTEX
  5
40A
100
AcDbEntity
  8
トラップ
  6
CONTINUOUS
 62
     6
100
AcDbVertex
100
AcDb2dVertex
 10
661.598462
 20
1083.029595
 30
0.0
  0
VERTEX
  5
40B
100
AcDbEntity
  8
トラップ
  6
CONTINUOUS
 62
     6
100
AcDbVertex
100
AcDb2dVertex
 10
661.394775
 20
1083.146976
 30
0.0
  0
VERTEX
  5
40C
100
AcDbEntity
  8
トラップ
  6
CONTINUOUS
 62
     6
100
AcDbVertex
100
AcDb2dVertex
 10
661.185365
 20
1083.258683
 30
0.0
  0
SEQEND
  5
40D
100
AcDbEntity
  8
トラップ
  6
CONTINUOUS
 62
     6
  0
POLYLINE
  5
40E
100
AcDbEntity
  8
トラップ
  6
CONTINUOUS
 62
     6
100
AcDb2dPolyline
 66
     1
 10
0.0
 20
0.0
 30
0.0
 70
   128
  0
VERTEX
  5
40F
100
AcDbEntity
  8
トラップ
  6
CONTINUOUS
 62
     6
100
AcDbVertex
100
AcDb2dVertex
 10
661.185368
 20
1074.788193
 30
0.0
  0
VERTEX
  5
410
100
AcDbEntity
  8
トラップ
  6
CONTINUOUS
 62
     6
100
AcDbVertex
100
AcDb2dVertex
 10
661.394778
 20
1074.8999
 30
0.0
  0
VERTEX
  5
411
100
AcDbEntity
  8
トラップ
  6
CONTINUOUS
 62
     6
100
AcDbVertex
100
AcDb2dVertex
 10
661.598465
 20
1075.017281
 30
0.0
  0
VERTEX
  5
412
100
AcDbEntity
  8
トラップ
  6
CONTINUOUS
 62
     6
100
AcDbVertex
100
AcDb2dVertex
 10
661.796144
 20
1075.140174
 30
0.0
  0
VERTEX
  5
413
100
AcDbEntity
  8
トラップ
  6
CONTINUOUS
 62
     6
100
AcDbVertex
100
AcDb2dVertex
 10
661.987532
 20
1075.268417
 30
0.0
  0
VERTEX
  5
414
100
AcDbEntity
  8
トラップ
  6
CONTINUOUS
 62
     6
100
AcDbVertex
100
AcDb2dVertex
 10
662.172347
 20
1075.40185
 30
0.0
  0
VERTEX
  5
415
100
AcDbEntity
  8
トラップ
  6
CONTINUOUS
 62
     6
100
AcDbVertex
100
AcDb2dVertex
 10
662.350321
 20
1075.540297
 30
0.0
  0
VERTEX
  5
416
100
AcDbEntity
  8
トラップ
  6
CONTINUOUS
 62
     6
100
AcDbVertex
100
AcDb2dVertex
 10
662.52123
 20
1075.683555
 30
0.0
  0
VERTEX
  5
417
100
AcDbEntity
  8
トラップ
  6
CONTINUOUS
 62
     6
100
AcDbVertex
100
AcDb2dVertex
 10
662.684857
 20
1075.831415
 30
0.0
  0
VERTEX
  5
418
100
AcDbEntity
  8
トラップ
  6
CONTINUOUS
 62
     6
100
AcDbVertex
100
AcDb2dVertex
 10
662.840986
 20
1075.983668
 30
0.0
  0
VERTEX
  5
419
100
AcDbEntity
  8
トラップ
  6
CONTINUOUS
 62
     6
100
AcDbVertex
100
AcDb2dVertex
 10
662.989398
 20
1076.140104
 30
0.0
  0
VERTEX
  5
41A
100
AcDbEntity
  8
トラップ
  6
CONTINUOUS
 62
     6
100
AcDbVertex
100
AcDb2dVertex
 10
663.129878
 20
1076.300514
 30
0.0
  0
VERTEX
  5
41B
100
AcDbEntity
  8
トラップ
  6
CONTINUOUS
 62
     6
100
AcDbVertex
100
AcDb2dVertex
 10
663.262207
 20
1076.464689
 30
0.0
  0
VERTEX
  5
41C
100
AcDbEntity
  8
トラップ
  6
CONTINUOUS
 62
     6
100
AcDbVertex
100
AcDb2dVertex
 10
663.386187
 20
1076.632411
 30
0.0
  0
VERTEX
  5
41D
100
AcDbEntity
  8
トラップ
  6
CONTINUOUS
 62
     6
100
AcDbVertex
100
AcDb2dVertex
 10
663.501671
 20
1076.803441
 30
0.0
  0
VERTEX
  5
41E
100
AcDbEntity
  8
トラップ
  6
CONTINUOUS
 62
     6
100
AcDbVertex
100
AcDb2dVertex
 10
663.608523
 20
1076.977532
 30
0.0
  0
VERTEX
  5
41F
100
AcDbEntity
  8
トラップ
  6
CONTINUOUS
 62
     6
100
AcDbVertex
100
AcDb2dVertex
 10
663.706606
 20
1077.154439
 30
0.0
  0
VERTEX
  5
420
100
AcDbEntity
  8
トラップ
  6
CONTINUOUS
 62
     6
100
AcDbVertex
100
AcDb2dVertex
 10
663.795784
 20
1077.333916
 30
0.0
  0
VERTEX
  5
421
100
AcDbEntity
  8
トラップ
  6
CONTINUOUS
 62
     6
100
AcDbVertex
100
AcDb2dVertex
 10
663.87592
 20
1077.515719
 30
0.0
  0
VERTEX
  5
422
100
AcDbEntity
  8
トラップ
  6
CONTINUOUS
 62
     6
100
AcDbVertex
100
AcDb2dVertex
 10
663.946879
 20
1077.699602
 30
0.0
  0
VERTEX
  5
423
100
AcDbEntity
  8
トラップ
  6
CONTINUOUS
 62
     6
100
AcDbVertex
100
AcDb2dVertex
 10
664.00854
 20
1077.885316
 30
0.0
  0
VERTEX
  5
424
100
AcDbEntity
  8
トラップ
  6
CONTINUOUS
 62
     6
100
AcDbVertex
100
AcDb2dVertex
 10
664.060844
 20
1078.072601
 30
0.0
  0
VERTEX
  5
425
100
AcDbEntity
  8
トラップ
  6
CONTINUOUS
 62
     6
100
AcDbVertex
100
AcDb2dVertex
 10
664.103744
 20
1078.261197
 30
0.0
  0
VERTEX
  5
426
100
AcDbEntity
  8
トラップ
  6
CONTINUOUS
 62
     6
100
AcDbVertex
100
AcDb2dVertex
 10
664.137192
 20
1078.45084
 30
0.0
  0
VERTEX
  5
427
100
AcDbEntity
  8
トラップ
  6
CONTINUOUS
 62
     6
100
AcDbVertex
100
AcDb2dVertex
 10
664.161142
 20
1078.641269
 30
0.0
  0
VERTEX
  5
428
100
AcDbEntity
  8
トラップ
  6
CONTINUOUS
 62
     6
100
AcDbVertex
100
AcDb2dVertex
 10
664.175547
 20
1078.832222
 30
0.0
  0
VERTEX
  5
429
100
AcDbEntity
  8
トラップ
  6
CONTINUOUS
 62
     6
100
AcDbVertex
100
AcDb2dVertex
 10
664.180359
 20
1079.023438
 30
0.0
  0
SEQEND
  5
42A
100
AcDbEntity
  8
トラップ
  6
CONTINUOUS
 62
     6
  0
POLYLINE
  5
42B
100
AcDbEntity
  8
トラップ
  6
CONTINUOUS
 62
     6
100
AcDb2dPolyline
 66
     1
 10
0.0
 20
0.0
 30
0.0
 70
   128
  0
VERTEX
  5
42C
100
AcDbEntity
  8
トラップ
  6
CONTINUOUS
 62
     6
100
AcDbVertex
100
AcDb2dVertex
 10
635.785272
 20
1083.258681
 30
0.0
  0
VERTEX
  5
42D
100
AcDbEntity
  8
トラップ
  6
CONTINUOUS
 62
     6
100
AcDbVertex
100
AcDb2dVertex
 10
635.372175
 20
1083.029592
 30
0.0
  0
VERTEX
  5
42E
100
AcDbEntity
  8
トラップ
  6
CONTINUOUS
 62
     6
100
AcDbVertex
100
AcDb2dVertex
 10
634.983107
 20
1082.778456
 30
0.0
  0
VERTEX
  5
42F
100
AcDbEntity
  8
トラップ
  6
CONTINUOUS
 62
     6
100
AcDbVertex
100
AcDb2dVertex
 10
634.620319
 20
1082.506576
 30
0.0
  0
VERTEX
  5
430
100
AcDbEntity
  8
トラップ
  6
CONTINUOUS
 62
     6
100
AcDbVertex
100
AcDb2dVertex
 10
634.285783
 20
1082.215458
 30
0.0
  0
VERTEX
  5
431
100
AcDbEntity
  8
トラップ
  6
CONTINUOUS
 62
     6
100
AcDbVertex
100
AcDb2dVertex
 10
633.981242
 20
1081.90677
 30
0.0
  0
VERTEX
  5
432
100
AcDbEntity
  8
トラップ
  6
CONTINUOUS
 62
     6
100
AcDbVertex
100
AcDb2dVertex
 10
633.708434
 20
1081.582185
 30
0.0
  0
VERTEX
  5
433
100
AcDbEntity
  8
トラップ
  6
CONTINUOUS
 62
     6
100
AcDbVertex
100
AcDb2dVertex
 10
633.46897
 20
1081.243433
 30
0.0
  0
VERTEX
  5
434
100
AcDbEntity
  8
トラップ
  6
CONTINUOUS
 62
     6
100
AcDbVertex
100
AcDb2dVertex
 10
633.264035
 20
1080.892435
 30
0.0
  0
VERTEX
  5
435
100
AcDbEntity
  8
トラップ
  6
CONTINUOUS
 62
     6
100
AcDbVertex
100
AcDb2dVertex
 10
633.094721
 20
1080.531155
 30
0.0
  0
VERTEX
  5
436
100
AcDbEntity
  8
トラップ
  6
CONTINUOUS
 62
     6
100
AcDbVertex
100
AcDb2dVertex
 10
632.962102
 20
1080.161558
 30
0.0
  0
VERTEX
  5
437
100
AcDbEntity
  8
トラップ
  6
CONTINUOUS
 62
     6
100
AcDbVertex
100
AcDb2dVertex
 10
632.866898
 20
1079.785677
 30
0.0
  0
VERTEX
  5
438
100
AcDbEntity
  8
トラップ
  6
CONTINUOUS
 62
     6
100
AcDbVertex
100
AcDb2dVertex
 10
632.8095
 20
1079.405604
 30
0.0
  0
VERTEX
  5
439
100
AcDbEntity
  8
トラップ
  6
CONTINUOUS
 62
     6
100
AcDbVertex
100
AcDb2dVertex
 10
632.790283
 20
1079.023436
 30
0.0
  0
VERTEX
  5
43A
100
AcDbEntity
  8
トラップ
  6
CONTINUOUS
 62
     6
100
AcDbVertex
100
AcDb2dVertex
 10
632.8095
 20
1078.641268
 30
0.0
  0
VERTEX
  5
43B
100
AcDbEntity
  8
トラップ
  6
CONTINUOUS
 62
     6
100
AcDbVertex
100
AcDb2dVertex
 10
632.866898
 20
1078.261196
 30
0.0
  0
VERTEX
  5
43C
100
AcDbEntity
  8
トラップ
  6
CONTINUOUS
 62
     6
100
AcDbVertex
100
AcDb2dVertex
 10
632.962102
 20
1077.885315
 30
0.0
  0
VERTEX
  5
43D
100
AcDbEntity
  8
トラップ
  6
CONTINUOUS
 62
     6
100
AcDbVertex
100
AcDb2dVertex
 10
633.094722
 20
1077.515718
 30
0.0
  0
VERTEX
  5
43E
100
AcDbEntity
  8
トラップ
  6
CONTINUOUS
 62
     6
100
AcDbVertex
100
AcDb2dVertex
 10
633.264036
 20
1077.154438
 30
0.0
  0
VERTEX
  5
43F
100
AcDbEntity
  8
トラップ
  6
CONTINUOUS
 62
     6
100
AcDbVertex
100
AcDb2dVertex
 10
633.468971
 20
1076.80344
 30
0.0
  0
VERTEX
  5
440
100
AcDbEntity
  8
トラップ
  6
CONTINUOUS
 62
     6
100
AcDbVertex
100
AcDb2dVertex
 10
633.708435
 20
1076.464688
 30
0.0
  0
VERTEX
  5
441
100
AcDbEntity
  8
トラップ
  6
CONTINUOUS
 62
     6
100
AcDbVertex
100
AcDb2dVertex
 10
633.981244
 20
1076.140103
 30
0.0
  0
VERTEX
  5
442
100
AcDbEntity
  8
トラップ
  6
CONTINUOUS
 62
     6
100
AcDbVertex
100
AcDb2dVertex
 10
634.285785
 20
1075.831415
 30
0.0
  0
VERTEX
  5
443
100
AcDbEntity
  8
トラップ
  6
CONTINUOUS
 62
     6
100
AcDbVertex
100
AcDb2dVertex
 10
634.620322
 20
1075.540297
 30
0.0
  0
VERTEX
  5
444
100
AcDbEntity
  8
トラップ
  6
CONTINUOUS
 62
     6
100
AcDbVertex
100
AcDb2dVertex
 10
634.98311
 20
1075.268417
 30
0.0
  0
VERTEX
  5
445
100
AcDbEntity
  8
トラップ
  6
CONTINUOUS
 62
     6
100
AcDbVertex
100
AcDb2dVertex
 10
635.372178
 20
1075.017281
 30
0.0
  0
VERTEX
  5
446
100
AcDbEntity
  8
トラップ
  6
CONTINUOUS
 62
     6
100
AcDbVertex
100
AcDb2dVertex
 10
635.785274
 20
1074.788193
 30
0.0
  0
SEQEND
  5
447
100
AcDbEntity
  8
トラップ
  6
CONTINUOUS
 62
     6
  0
LINE
  5
448
100
AcDbEntity
  8
トラップ
  6
CONTINUOUS
 62
     6
100
AcDbLine
 10
665.235504
 20
1160.023193
 30
0.0
 11
631.735138
 21
1160.023193
 31
0.0
  0
ARC
  5
449
100
AcDbEntity
  8
トラップ
  6
CONTINUOUS
 62
     6
100
AcDbCircle
 10
637.685303
 20
1154.023285
 30
0.0
 40
8.45
100
AcDbArc
 50
134.761505
 51
225.240753
  0
POLYLINE
  5
44A
100
AcDbEntity
  8
トラップ
  6
CONTINUOUS
 62
     6
100
AcDb2dPolyline
 66
     1
 10
0.0
 20
0.0
 30
0.0
 70
   128
  0
VERTEX
  5
44B
100
AcDbEntity
  8
トラップ
  6
CONTINUOUS
 62
     6
100
AcDbVertex
100
AcDb2dVertex
 10
637.339691
 20
1154.023285
 30
0.0
  0
VERTEX
  5
44C
100
AcDbEntity
  8
トラップ
  6
CONTINUOUS
 62
     6
100
AcDbVertex
100
AcDb2dVertex
 10
637.223157
 20
1155.255516
 30
0.0
  0
VERTEX
  5
44D
100
AcDbEntity
  8
トラップ
  6
CONTINUOUS
 62
     6
100
AcDbVertex
100
AcDb2dVertex
 10
636.880398
 20
1156.416129
 30
0.0
  0
VERTEX
  5
44E
100
AcDbEntity
  8
トラップ
  6
CONTINUOUS
 62
     6
100
AcDbVertex
100
AcDb2dVertex
 10
636.331295
 20
1157.437682
 30
0.0
  0
VERTEX
  5
44F
100
AcDbEntity
  8
トラップ
  6
CONTINUOUS
 62
     6
100
AcDbVertex
100
AcDb2dVertex
 10
635.607746
 20
1158.260857
 30
0.0
  0
VERTEX
  5
450
100
AcDbEntity
  8
トラップ
  6
CONTINUOUS
 62
     6
100
AcDbVertex
100
AcDb2dVertex
 10
634.751801
 20
1158.83775
 30
0.0
  0
VERTEX
  5
451
100
AcDbEntity
  8
トラップ
  6
CONTINUOUS
 62
     6
100
AcDbVertex
100
AcDb2dVertex
 10
633.813267
 20
1159.13481
 30
0.0
  0
VERTEX
  5
452
100
AcDbEntity
  8
トラップ
  6
CONTINUOUS
 62
     6
100
AcDbVertex
100
AcDb2dVertex
 10
632.84663
 20
1159.13481
 30
0.0
  0
VERTEX
  5
453
100
AcDbEntity
  8
トラップ
  6
CONTINUOUS
 62
     6
100
AcDbVertex
100
AcDb2dVertex
 10
631.908026
 20
1158.83775
 30
0.0
  0
VERTEX
  5
454
100
AcDbEntity
  8
トラップ
  6
CONTINUOUS
 62
     6
100
AcDbVertex
100
AcDb2dVertex
 10
631.052075
 20
1158.260857
 30
0.0
  0
VERTEX
  5
455
100
AcDbEntity
  8
トラップ
  6
CONTINUOUS
 62
     6
100
AcDbVertex
100
AcDb2dVertex
 10
630.328525
 20
1157.437682
 30
0.0
  0
VERTEX
  5
456
100
AcDbEntity
  8
トラップ
  6
CONTINUOUS
 62
     6
100
AcDbVertex
100
AcDb2dVertex
 10
629.779423
 20
1156.416129
 30
0.0
  0
VERTEX
  5
457
100
AcDbEntity
  8
トラップ
  6
CONTINUOUS
 62
     6
100
AcDbVertex
100
AcDb2dVertex
 10
629.436664
 20
1155.255516
 30
0.0
  0
VERTEX
  5
458
100
AcDbEntity
  8
トラップ
  6
CONTINUOUS
 62
     6
100
AcDbVertex
100
AcDb2dVertex
 10
629.320129
 20
1154.023285
 30
0.0
  0
VERTEX
  5
459
100
AcDbEntity
  8
トラップ
  6
CONTINUOUS
 62
     6
100
AcDbVertex
100
AcDb2dVertex
 10
629.436664
 20
1152.791054
 30
0.0
  0
VERTEX
  5
45A
100
AcDbEntity
  8
トラップ
  6
CONTINUOUS
 62
     6
100
AcDbVertex
100
AcDb2dVertex
 10
629.779423
 20
1151.630441
 30
0.0
  0
VERTEX
  5
45B
100
AcDbEntity
  8
トラップ
  6
CONTINUOUS
 62
     6
100
AcDbVertex
100
AcDb2dVertex
 10
630.328525
 20
1150.608888
 30
0.0
  0
VERTEX
  5
45C
100
AcDbEntity
  8
トラップ
  6
CONTINUOUS
 62
     6
100
AcDbVertex
100
AcDb2dVertex
 10
631.052075
 20
1149.785713
 30
0.0
  0
VERTEX
  5
45D
100
AcDbEntity
  8
トラップ
  6
CONTINUOUS
 62
     6
100
AcDbVertex
100
AcDb2dVertex
 10
631.908026
 20
1149.20882
 30
0.0
  0
VERTEX
  5
45E
100
AcDbEntity
  8
トラップ
  6
CONTINUOUS
 62
     6
100
AcDbVertex
100
AcDb2dVertex
 10
632.84663
 20
1148.91176
 30
0.0
  0
VERTEX
  5
45F
100
AcDbEntity
  8
トラップ
  6
CONTINUOUS
 62
     6
100
AcDbVertex
100
AcDb2dVertex
 10
633.813267
 20
1148.91176
 30
0.0
  0
VERTEX
  5
460
100
AcDbEntity
  8
トラップ
  6
CONTINUOUS
 62
     6
100
AcDbVertex
100
AcDb2dVertex
 10
634.751801
 20
1149.20882
 30
0.0
  0
VERTEX
  5
461
100
AcDbEntity
  8
トラップ
  6
CONTINUOUS
 62
     6
100
AcDbVertex
100
AcDb2dVertex
 10
635.607746
 20
1149.785713
 30
0.0
  0
VERTEX
  5
462
100
AcDbEntity
  8
トラップ
  6
CONTINUOUS
 62
     6
100
AcDbVertex
100
AcDb2dVertex
 10
636.331295
 20
1150.608888
 30
0.0
  0
VERTEX
  5
463
100
AcDbEntity
  8
トラップ
  6
CONTINUOUS
 62
     6
100
AcDbVertex
100
AcDb2dVertex
 10
636.880398
 20
1151.630441
 30
0.0
  0
VERTEX
  5
464
100
AcDbEntity
  8
トラップ
  6
CONTINUOUS
 62
     6
100
AcDbVertex
100
AcDb2dVertex
 10
637.223157
 20
1152.791054
 30
0.0
  0
VERTEX
  5
465
100
AcDbEntity
  8
トラップ
  6
CONTINUOUS
 62
     6
100
AcDbVertex
100
AcDb2dVertex
 10
637.339691
 20
1154.023285
 30
0.0
  0
SEQEND
  5
466
100
AcDbEntity
  8
トラップ
  6
CONTINUOUS
 62
     6
  0
POLYLINE
  5
467
100
AcDbEntity
  8
トラップ
  6
CONTINUOUS
 62
     6
100
AcDb2dPolyline
 66
     1
 10
0.0
 20
0.0
 30
0.0
 70
   128
  0
VERTEX
  5
468
100
AcDbEntity
  8
トラップ
  6
CONTINUOUS
 62
     6
100
AcDbVertex
100
AcDb2dVertex
 10
656.504883
 20
1154.023285
 30
0.0
  0
VERTEX
  5
469
100
AcDbEntity
  8
トラップ
  6
CONTINUOUS
 62
     6
100
AcDbVertex
100
AcDb2dVertex
 10
656.271815
 20
1155.255516
 30
0.0
  0
VERTEX
  5
46A
100
AcDbEntity
  8
トラップ
  6
CONTINUOUS
 62
     6
100
AcDbVertex
100
AcDb2dVertex
 10
655.586281
 20
1156.416129
 30
0.0
  0
VERTEX
  5
46B
100
AcDbEntity
  8
トラップ
  6
CONTINUOUS
 62
     6
100
AcDbVertex
100
AcDb2dVertex
 10
654.487985
 20
1157.437682
 30
0.0
  0
VERTEX
  5
46C
100
AcDbEntity
  8
トラップ
  6
CONTINUOUS
 62
     6
100
AcDbVertex
100
AcDb2dVertex
 10
653.040849
 20
1158.260857
 30
0.0
  0
VERTEX
  5
46D
100
AcDbEntity
  8
トラップ
  6
CONTINUOUS
 62
     6
100
AcDbVertex
100
AcDb2dVertex
 10
651.329033
 20
1158.83775
 30
0.0
  0
VERTEX
  5
46E
100
AcDbEntity
  8
トラップ
  6
CONTINUOUS
 62
     6
100
AcDbVertex
100
AcDb2dVertex
 10
649.451956
 20
1159.13481
 30
0.0
  0
VERTEX
  5
46F
100
AcDbEntity
  8
トラップ
  6
CONTINUOUS
 62
     6
100
AcDbVertex
100
AcDb2dVertex
 10
647.518686
 20
1159.13481
 30
0.0
  0
VERTEX
  5
470
100
AcDbEntity
  8
トラップ
  6
CONTINUOUS
 62
     6
100
AcDbVertex
100
AcDb2dVertex
 10
645.641609
 20
1158.83775
 30
0.0
  0
VERTEX
  5
471
100
AcDbEntity
  8
トラップ
  6
CONTINUOUS
 62
     6
100
AcDbVertex
100
AcDb2dVertex
 10
643.929793
 20
1158.260857
 30
0.0
  0
VERTEX
  5
472
100
AcDbEntity
  8
トラップ
  6
CONTINUOUS
 62
     6
100
AcDbVertex
100
AcDb2dVertex
 10
642.482657
 20
1157.437682
 30
0.0
  0
VERTEX
  5
473
100
AcDbEntity
  8
トラップ
  6
CONTINUOUS
 62
     6
100
AcDbVertex
100
AcDb2dVertex
 10
641.384361
 20
1156.416129
 30
0.0
  0
VERTEX
  5
474
100
AcDbEntity
  8
トラップ
  6
CONTINUOUS
 62
     6
100
AcDbVertex
100
AcDb2dVertex
 10
640.698827
 20
1155.255516
 30
0.0
  0
VERTEX
  5
475
100
AcDbEntity
  8
トラップ
  6
CONTINUOUS
 62
     6
100
AcDbVertex
100
AcDb2dVertex
 10
640.465759
 20
1154.023285
 30
0.0
  0
VERTEX
  5
476
100
AcDbEntity
  8
トラップ
  6
CONTINUOUS
 62
     6
100
AcDbVertex
100
AcDb2dVertex
 10
640.698827
 20
1152.791054
 30
0.0
  0
VERTEX
  5
477
100
AcDbEntity
  8
トラップ
  6
CONTINUOUS
 62
     6
100
AcDbVertex
100
AcDb2dVertex
 10
641.384361
 20
1151.630441
 30
0.0
  0
VERTEX
  5
478
100
AcDbEntity
  8
トラップ
  6
CONTINUOUS
 62
     6
100
AcDbVertex
100
AcDb2dVertex
 10
642.482657
 20
1150.608888
 30
0.0
  0
VERTEX
  5
479
100
AcDbEntity
  8
トラップ
  6
CONTINUOUS
 62
     6
100
AcDbVertex
100
AcDb2dVertex
 10
643.929793
 20
1149.785713
 30
0.0
  0
VERTEX
  5
47A
100
AcDbEntity
  8
トラップ
  6
CONTINUOUS
 62
     6
100
AcDbVertex
100
AcDb2dVertex
 10
645.641609
 20
1149.20882
 30
0.0
  0
VERTEX
  5
47B
100
AcDbEntity
  8
トラップ
  6
CONTINUOUS
 62
     6
100
AcDbVertex
100
AcDb2dVertex
 10
647.518686
 20
1148.91176
 30
0.0
  0
VERTEX
  5
47C
100
AcDbEntity
  8
トラップ
  6
CONTINUOUS
 62
     6
100
AcDbVertex
100
AcDb2dVertex
 10
649.451956
 20
1148.91176
 30
0.0
  0
VERTEX
  5
47D
100
AcDbEntity
  8
トラップ
  6
CONTINUOUS
 62
     6
100
AcDbVertex
100
AcDb2dVertex
 10
651.329033
 20
1149.20882
 30
0.0
  0
VERTEX
  5
47E
100
AcDbEntity
  8
トラップ
  6
CONTINUOUS
 62
     6
100
AcDbVertex
100
AcDb2dVertex
 10
653.040849
 20
1149.785713
 30
0.0
  0
VERTEX
  5
47F
100
AcDbEntity
  8
トラップ
  6
CONTINUOUS
 62
     6
100
AcDbVertex
100
AcDb2dVertex
 10
654.487985
 20
1150.608888
 30
0.0
  0
VERTEX
  5
480
100
AcDbEntity
  8
トラップ
  6
CONTINUOUS
 62
     6
100
AcDbVertex
100
AcDb2dVertex
 10
655.586281
 20
1151.630441
 30
0.0
  0
VERTEX
  5
481
100
AcDbEntity
  8
トラップ
  6
CONTINUOUS
 62
     6
100
AcDbVertex
100
AcDb2dVertex
 10
656.271815
 20
1152.791054
 30
0.0
  0
VERTEX
  5
482
100
AcDbEntity
  8
トラップ
  6
CONTINUOUS
 62
     6
100
AcDbVertex
100
AcDb2dVertex
 10
656.504883
 20
1154.023285
 30
0.0
  0
SEQEND
  5
483
100
AcDbEntity
  8
トラップ
  6
CONTINUOUS
 62
     6
  0
ARC
  5
484
100
AcDbEntity
  8
トラップ
  6
CONTINUOUS
 62
     6
100
AcDbCircle
 10
659.285339
 20
1154.023285
 30
0.0
 40
8.45
100
AcDbArc
 50
314.759277
 51
45.238495
  0
POLYLINE
  5
485
100
AcDbEntity
  8
トラップ
  6
CONTINUOUS
 62
     6
100
AcDb2dPolyline
 66
     1
 10
0.0
 20
0.0
 30
0.0
 70
   128
  0
VERTEX
  5
486
100
AcDbEntity
  8
トラップ
  6
CONTINUOUS
 62
     6
100
AcDbVertex
100
AcDb2dVertex
 10
667.735351
 20
1154.023285
 30
0.0
  0
VERTEX
  5
487
100
AcDbEntity
  8
トラップ
  6
CONTINUOUS
 62
     6
100
AcDbVertex
100
AcDb2dVertex
 10
667.617607
 20
1155.255516
 30
0.0
  0
VERTEX
  5
488
100
AcDbEntity
  8
トラップ
  6
CONTINUOUS
 62
     6
100
AcDbVertex
100
AcDb2dVertex
 10
667.271166
 20
1156.416129
 30
0.0
  0
VERTEX
  5
489
100
AcDbEntity
  8
トラップ
  6
CONTINUOUS
 62
     6
100
AcDbVertex
100
AcDb2dVertex
 10
666.716272
 20
1157.437682
 30
0.0
  0
VERTEX
  5
48A
100
AcDbEntity
  8
トラップ
  6
CONTINUOUS
 62
     6
100
AcDbVertex
100
AcDb2dVertex
 10
665.98504
 20
1158.260857
 30
0.0
  0
VERTEX
  5
48B
100
AcDbEntity
  8
トラップ
  6
CONTINUOUS
 62
     6
100
AcDbVertex
100
AcDb2dVertex
 10
665.12006
 20
1158.83775
 30
0.0
  0
VERTEX
  5
48C
100
AcDbEntity
  8
トラップ
  6
CONTINUOUS
 62
     6
100
AcDbVertex
100
AcDb2dVertex
 10
664.171558
 20
1159.13481
 30
0.0
  0
VERTEX
  5
48D
100
AcDbEntity
  8
トラップ
  6
CONTINUOUS
 62
     6
100
AcDbVertex
100
AcDb2dVertex
 10
663.194668
 20
1159.13481
 30
0.0
  0
VERTEX
  5
48E
100
AcDbEntity
  8
トラップ
  6
CONTINUOUS
 62
     6
100
AcDbVertex
100
AcDb2dVertex
 10
662.246237
 20
1158.83775
 30
0.0
  0
VERTEX
  5
48F
100
AcDbEntity
  8
トラップ
  6
CONTINUOUS
 62
     6
100
AcDbVertex
100
AcDb2dVertex
 10
661.381262
 20
1158.260857
 30
0.0
  0
VERTEX
  5
490
100
AcDbEntity
  8
トラップ
  6
CONTINUOUS
 62
     6
100
AcDbVertex
100
AcDb2dVertex
 10
660.65003
 20
1157.437682
 30
0.0
  0
VERTEX
  5
491
100
AcDbEntity
  8
トラップ
  6
CONTINUOUS
 62
     6
100
AcDbVertex
100
AcDb2dVertex
 10
660.095137
 20
1156.416129
 30
0.0
  0
VERTEX
  5
492
100
AcDbEntity
  8
トラップ
  6
CONTINUOUS
 62
     6
100
AcDbVertex
100
AcDb2dVertex
 10
659.748695
 20
1155.255516
 30
0.0
  0
VERTEX
  5
493
100
AcDbEntity
  8
トラップ
  6
CONTINUOUS
 62
     6
100
AcDbVertex
100
AcDb2dVertex
 10
659.630951
 20
1154.023285
 30
0.0
  0
VERTEX
  5
494
100
AcDbEntity
  8
トラップ
  6
CONTINUOUS
 62
     6
100
AcDbVertex
100
AcDb2dVertex
 10
659.748695
 20
1152.791054
 30
0.0
  0
VERTEX
  5
495
100
AcDbEntity
  8
トラップ
  6
CONTINUOUS
 62
     6
100
AcDbVertex
100
AcDb2dVertex
 10
660.095137
 20
1151.630441
 30
0.0
  0
VERTEX
  5
496
100
AcDbEntity
  8
トラップ
  6
CONTINUOUS
 62
     6
100
AcDbVertex
100
AcDb2dVertex
 10
660.65003
 20
1150.608888
 30
0.0
  0
VERTEX
  5
497
100
AcDbEntity
  8
トラップ
  6
CONTINUOUS
 62
     6
100
AcDbVertex
100
AcDb2dVertex
 10
661.381262
 20
1149.785713
 30
0.0
  0
VERTEX
  5
498
100
AcDbEntity
  8
トラップ
  6
CONTINUOUS
 62
     6
100
AcDbVertex
100
AcDb2dVertex
 10
662.246237
 20
1149.20882
 30
0.0
  0
VERTEX
  5
499
100
AcDbEntity
  8
トラップ
  6
CONTINUOUS
 62
     6
100
AcDbVertex
100
AcDb2dVertex
 10
663.194668
 20
1148.91176
 30
0.0
  0
VERTEX
  5
49A
100
AcDbEntity
  8
トラップ
  6
CONTINUOUS
 62
     6
100
AcDbVertex
100
AcDb2dVertex
 10
664.171558
 20
1148.91176
 30
0.0
  0
VERTEX
  5
49B
100
AcDbEntity
  8
トラップ
  6
CONTINUOUS
 62
     6
100
AcDbVertex
100
AcDb2dVertex
 10
665.12006
 20
1149.20882
 30
0.0
  0
VERTEX
  5
49C
100
AcDbEntity
  8
トラップ
  6
CONTINUOUS
 62
     6
100
AcDbVertex
100
AcDb2dVertex
 10
665.98504
 20
1149.785713
 30
0.0
  0
VERTEX
  5
49D
100
AcDbEntity
  8
トラップ
  6
CONTINUOUS
 62
     6
100
AcDbVertex
100
AcDb2dVertex
 10
666.716272
 20
1150.608888
 30
0.0
  0
VERTEX
  5
49E
100
AcDbEntity
  8
トラップ
  6
CONTINUOUS
 62
     6
100
AcDbVertex
100
AcDb2dVertex
 10
667.271166
 20
1151.630441
 30
0.0
  0
VERTEX
  5
49F
100
AcDbEntity
  8
トラップ
  6
CONTINUOUS
 62
     6
100
AcDbVertex
100
AcDb2dVertex
 10
667.617607
 20
1152.791054
 30
0.0
  0
VERTEX
  5
4A0
100
AcDbEntity
  8
トラップ
  6
CONTINUOUS
 62
     6
100
AcDbVertex
100
AcDb2dVertex
 10
667.735351
 20
1154.023285
 30
0.0
  0
SEQEND
  5
4A1
100
AcDbEntity
  8
トラップ
  6
CONTINUOUS
 62
     6
  0
POLYLINE
  5
4A2
100
AcDbEntity
  8
トラップ
  6
CONTINUOUS
 62
     6
100
AcDb2dPolyline
 66
     1
 10
0.0
 20
0.0
 30
0.0
 70
   128
  0
VERTEX
  5
4A3
100
AcDbEntity
  8
トラップ
  6
CONTINUOUS
 62
     6
100
AcDbVertex
100
AcDb2dVertex
 10
667.735351
 20
1154.023285
 30
0.0
  0
VERTEX
  5
4A4
100
AcDbEntity
  8
トラップ
  6
CONTINUOUS
 62
     6
100
AcDbVertex
100
AcDb2dVertex
 10
667.617607
 20
1155.255516
 30
0.0
  0
VERTEX
  5
4A5
100
AcDbEntity
  8
トラップ
  6
CONTINUOUS
 62
     6
100
AcDbVertex
100
AcDb2dVertex
 10
667.271166
 20
1156.416129
 30
0.0
  0
VERTEX
  5
4A6
100
AcDbEntity
  8
トラップ
  6
CONTINUOUS
 62
     6
100
AcDbVertex
100
AcDb2dVertex
 10
666.716272
 20
1157.437682
 30
0.0
  0
VERTEX
  5
4A7
100
AcDbEntity
  8
トラップ
  6
CONTINUOUS
 62
     6
100
AcDbVertex
100
AcDb2dVertex
 10
665.98504
 20
1158.260857
 30
0.0
  0
VERTEX
  5
4A8
100
AcDbEntity
  8
トラップ
  6
CONTINUOUS
 62
     6
100
AcDbVertex
100
AcDb2dVertex
 10
665.12006
 20
1158.83775
 30
0.0
  0
VERTEX
  5
4A9
100
AcDbEntity
  8
トラップ
  6
CONTINUOUS
 62
     6
100
AcDbVertex
100
AcDb2dVertex
 10
664.171558
 20
1159.13481
 30
0.0
  0
VERTEX
  5
4AA
100
AcDbEntity
  8
トラップ
  6
CONTINUOUS
 62
     6
100
AcDbVertex
100
AcDb2dVertex
 10
663.194668
 20
1159.13481
 30
0.0
  0
VERTEX
  5
4AB
100
AcDbEntity
  8
トラップ
  6
CONTINUOUS
 62
     6
100
AcDbVertex
100
AcDb2dVertex
 10
662.246237
 20
1158.83775
 30
0.0
  0
VERTEX
  5
4AC
100
AcDbEntity
  8
トラップ
  6
CONTINUOUS
 62
     6
100
AcDbVertex
100
AcDb2dVertex
 10
661.381262
 20
1158.260857
 30
0.0
  0
VERTEX
  5
4AD
100
AcDbEntity
  8
トラップ
  6
CONTINUOUS
 62
     6
100
AcDbVertex
100
AcDb2dVertex
 10
660.65003
 20
1157.437682
 30
0.0
  0
VERTEX
  5
4AE
100
AcDbEntity
  8
トラップ
  6
CONTINUOUS
 62
     6
100
AcDbVertex
100
AcDb2dVertex
 10
660.095137
 20
1156.416129
 30
0.0
  0
VERTEX
  5
4AF
100
AcDbEntity
  8
トラップ
  6
CONTINUOUS
 62
     6
100
AcDbVertex
100
AcDb2dVertex
 10
659.748695
 20
1155.255516
 30
0.0
  0
VERTEX
  5
4B0
100
AcDbEntity
  8
トラップ
  6
CONTINUOUS
 62
     6
100
AcDbVertex
100
AcDb2dVertex
 10
659.630951
 20
1154.023285
 30
0.0
  0
VERTEX
  5
4B1
100
AcDbEntity
  8
トラップ
  6
CONTINUOUS
 62
     6
100
AcDbVertex
100
AcDb2dVertex
 10
659.748695
 20
1152.791054
 30
0.0
  0
VERTEX
  5
4B2
100
AcDbEntity
  8
トラップ
  6
CONTINUOUS
 62
     6
100
AcDbVertex
100
AcDb2dVertex
 10
660.095137
 20
1151.630441
 30
0.0
  0
VERTEX
  5
4B3
100
AcDbEntity
  8
トラップ
  6
CONTINUOUS
 62
     6
100
AcDbVertex
100
AcDb2dVertex
 10
660.65003
 20
1150.608888
 30
0.0
  0
VERTEX
  5
4B4
100
AcDbEntity
  8
トラップ
  6
CONTINUOUS
 62
     6
100
AcDbVertex
100
AcDb2dVertex
 10
661.381262
 20
1149.785713
 30
0.0
  0
VERTEX
  5
4B5
100
AcDbEntity
  8
トラップ
  6
CONTINUOUS
 62
     6
100
AcDbVertex
100
AcDb2dVertex
 10
662.246237
 20
1149.20882
 30
0.0
  0
VERTEX
  5
4B6
100
AcDbEntity
  8
トラップ
  6
CONTINUOUS
 62
     6
100
AcDbVertex
100
AcDb2dVertex
 10
663.194668
 20
1148.91176
 30
0.0
  0
VERTEX
  5
4B7
100
AcDbEntity
  8
トラップ
  6
CONTINUOUS
 62
     6
100
AcDbVertex
100
AcDb2dVertex
 10
664.171558
 20
1148.91176
 30
0.0
  0
VERTEX
  5
4B8
100
AcDbEntity
  8
トラップ
  6
CONTINUOUS
 62
     6
100
AcDbVertex
100
AcDb2dVertex
 10
665.12006
 20
1149.20882
 30
0.0
  0
VERTEX
  5
4B9
100
AcDbEntity
  8
トラップ
  6
CONTINUOUS
 62
     6
100
AcDbVertex
100
AcDb2dVertex
 10
665.98504
 20
1149.785713
 30
0.0
  0
VERTEX
  5
4BA
100
AcDbEntity
  8
トラップ
  6
CONTINUOUS
 62
     6
100
AcDbVertex
100
AcDb2dVertex
 10
666.716272
 20
1150.608888
 30
0.0
  0
VERTEX
  5
4BB
100
AcDbEntity
  8
トラップ
  6
CONTINUOUS
 62
     6
100
AcDbVertex
100
AcDb2dVertex
 10
667.271166
 20
1151.630441
 30
0.0
  0
VERTEX
  5
4BC
100
AcDbEntity
  8
トラップ
  6
CONTINUOUS
 62
     6
100
AcDbVertex
100
AcDb2dVertex
 10
667.617607
 20
1152.791054
 30
0.0
  0
VERTEX
  5
4BD
100
AcDbEntity
  8
トラップ
  6
CONTINUOUS
 62
     6
100
AcDbVertex
100
AcDb2dVertex
 10
667.735351
 20
1154.023285
 30
0.0
  0
SEQEND
  5
4BE
100
AcDbEntity
  8
トラップ
  6
CONTINUOUS
 62
     6
  0
LINE
  5
4BF
100
AcDbEntity
  8
トラップ
  6
CONTINUOUS
 62
     6
100
AcDbLine
 10
665.235199
 20
1148.023224
 30
0.0
 11
631.735443
 21
1148.023224
 31
0.0
  0
LINE
  5
4C0
100
AcDbEntity
  8
トラップ
  6
CONTINUOUS
 62
     6
100
AcDbLine
 10
628.985321
 20
1252.523956
 30
0.0
 11
667.985321
 21
1252.523956
 31
0.0
  0
LINE
  5
4C1
100
AcDbEntity
  8
トラップ
  6
CONTINUOUS
 62
     3
100
AcDbLine
 10
598.485321
 20
1121.523285
 30
0.0
 11
638.485321
 21
1121.523285
 31
0.0
  0
LINE
  5
4C2
100
AcDbEntity
  8
トラップ
  6
CONTINUOUS
 62
     3
100
AcDbLine
 10
645.485321
 20
1121.523285
 30
0.0
 11
651.485321
 21
1121.523285
 31
0.0
  0
LINE
  5
4C3
100
AcDbEntity
  8
トラップ
  6
CONTINUOUS
 62
     3
100
AcDbLine
 10
658.485321
 20
1121.523285
 30
0.0
 11
928.384375
 21
1121.523285
 31
0.0
  0
ARC
  5
4C4
100
AcDbEntity
  8
トラップ
  6
CONTINUOUS
 62
     6
100
AcDbCircle
 10
1625.198975
 20
1089.823303
 30
0.0
 40
44.399996
100
AcDbArc
 50
89.999542
 51
180.0
  0
LINE
  5
4C5
100
AcDbEntity
  8
トラップ
  6
CONTINUOUS
 62
     6
100
AcDbLine
 10
1690.0
 20
1108.823242
 30
0.0
 11
1690.0
 21
1134.223328
 31
0.0
  0
ARC
  5
4C6
100
AcDbEntity
  8
トラップ
  6
CONTINUOUS
 62
     6
100
AcDbCircle
 10
1625.198975
 20
1089.823303
 30
0.0
 40
18.999996
100
AcDbArc
 50
89.999542
 51
180.0
  0
LINE
  5
4C7
100
AcDbEntity
  8
トラップ
  6
CONTINUOUS
 62
     6
100
AcDbLine
 10
1606.199036
 20
1085.023346
 30
0.0
 11
1606.199036
 21
1089.823303
 31
0.0
  0
LINE
  5
4C8
100
AcDbEntity
  8
トラップ
  6
CONTINUOUS
 62
     6
100
AcDbLine
 10
1580.79895
 20
1085.023346
 30
0.0
 11
1580.79895
 21
1089.823303
 31
0.0
  0
ARC
  5
4C9
100
AcDbEntity
  8
トラップ
  6
CONTINUOUS
 62
     6
100
AcDbCircle
 10
1604.299011
 20
1079.023438
 30
0.0
 40
8.45
100
AcDbArc
 50
314.759277
 51
45.238495
  0
ARC
  5
4CA
100
AcDbEntity
  8
トラップ
  6
CONTINUOUS
 62
     6
100
AcDbCircle
 10
1582.698975
 20
1079.023438
 30
0.0
 40
8.45
100
AcDbArc
 50
134.761505
 51
225.240753
  0
LINE
  5
4CB
100
AcDbEntity
  8
トラップ
  6
CONTINUOUS
 62
     6
100
AcDbLine
 10
1610.248871
 20
1073.023377
 30
0.0
 11
1576.749115
 21
1073.023377
 31
0.0
  0
LINE
  5
4CC
100
AcDbEntity
  8
トラップ
  6
CONTINUOUS
 62
     6
100
AcDbLine
 10
1577.498932
 20
1073.023529
 30
0.0
 11
1578.498993
 21
1072.023468
 31
0.0
  0
LINE
  5
4CD
100
AcDbEntity
  8
トラップ
  6
CONTINUOUS
 62
     6
100
AcDbLine
 10
1608.498993
 20
1072.023468
 30
0.0
 11
1609.499054
 21
1073.023529
 31
0.0
  0
LINE
  5
4CE
100
AcDbEntity
  8
トラップ
  6
CONTINUOUS
 62
     6
100
AcDbLine
 10
1578.498993
 20
1072.023468
 30
0.0
 11
1608.498993
 21
1072.023468
 31
0.0
  0
LINE
  5
4CF
100
AcDbEntity
  8
トラップ
  6
CONTINUOUS
 62
     6
100
AcDbLine
 10
1606.84906
 20
1071.648102
 30
0.0
 11
1607.499237
 21
1072.023468
 31
0.0
  0
LINE
  5
4D0
100
AcDbEntity
  8
トラップ
  6
CONTINUOUS
 62
     6
100
AcDbLine
 10
1580.148926
 20
1071.648102
 30
0.0
 11
1579.498749
 21
1072.023468
 31
0.0
  0
LINE
  5
4D1
100
AcDbEntity
  8
トラップ
  6
CONTINUOUS
 62
     6
100
AcDbLine
 10
1578.498993
 20
1072.023468
 30
0.0
 11
1578.498993
 21
1073.023377
 31
0.0
  0
LINE
  5
4D2
100
AcDbEntity
  8
トラップ
  6
CONTINUOUS
 62
     6
100
AcDbLine
 10
1608.498993
 20
1072.023468
 30
0.0
 11
1608.498993
 21
1073.023377
 31
0.0
  0
ARC
  5
4D3
100
AcDbEntity
  8
トラップ
  6
CONTINUOUS
 62
     6
100
AcDbCircle
 10
1658.000031
 20
1139.523315
 30
0.0
 40
11.999998
100
AcDbArc
 50
90.0
 51
180.0
  0
ARC
  5
4D4
100
AcDbEntity
  8
トラップ
  6
CONTINUOUS
 62
     6
100
AcDbCircle
 10
1658.000031
 20
1103.523407
 30
0.0
 40
11.999998
100
AcDbArc
 50
180.0
 51
270.0
  0
LINE
  5
4D5
100
AcDbEntity
  8
トラップ
  6
CONTINUOUS
 62
     6
100
AcDbLine
 10
1658.000031
 20
1151.523438
 30
0.0
 11
1660.0
 21
1151.523438
 31
0.0
  0
LINE
  5
4D6
100
AcDbEntity
  8
トラップ
  6
CONTINUOUS
 62
     6
100
AcDbLine
 10
1658.000031
 20
1091.523438
 30
0.0
 11
1660.0
 21
1091.523438
 31
0.0
  0
LINE
  5
4D7
100
AcDbEntity
  8
トラップ
  6
CONTINUOUS
 62
     6
100
AcDbLine
 10
1646.000061
 20
1103.523407
 30
0.0
 11
1646.000061
 21
1139.523315
 31
0.0
  0
LINE
  5
4D8
100
AcDbEntity
  8
トラップ
  6
CONTINUOUS
 62
     6
100
AcDbLine
 10
1625.198975
 20
1134.223328
 30
0.0
 11
1646.000061
 21
1134.223328
 31
0.0
  0
LINE
  5
4D9
100
AcDbEntity
  8
トラップ
  6
CONTINUOUS
 62
     6
100
AcDbLine
 10
1660.0
 20
1134.223328
 30
0.0
 11
1690.0
 21
1134.223328
 31
0.0
  0
LINE
  5
4DA
100
AcDbEntity
  8
トラップ
  6
CONTINUOUS
 62
     6
100
AcDbLine
 10
1625.198975
 20
1108.823242
 30
0.0
 11
1646.000061
 21
1108.823242
 31
0.0
  0
LINE
  5
4DB
100
AcDbEntity
  8
トラップ
  6
CONTINUOUS
 62
     6
100
AcDbLine
 10
1660.0
 20
1108.823242
 30
0.0
 11
1690.0
 21
1108.823242
 31
0.0
  0
POLYLINE
  5
4DC
100
AcDbEntity
  8
トラップ
  6
CONTINUOUS
 62
     6
100
AcDb2dPolyline
 66
     1
 10
0.0
 20
0.0
 30
0.0
 70
   128
  0
VERTEX
  5
4DD
100
AcDbEntity
  8
トラップ
  6
CONTINUOUS
 62
     6
100
AcDbVertex
100
AcDb2dVertex
 10
1582.353363
 20
1079.023438
 30
0.0
  0
VERTEX
  5
4DE
100
AcDbEntity
  8
トラップ
  6
CONTINUOUS
 62
     6
100
AcDbVertex
100
AcDb2dVertex
 10
1582.236829
 20
1080.255668
 30
0.0
  0
VERTEX
  5
4DF
100
AcDbEntity
  8
トラップ
  6
CONTINUOUS
 62
     6
100
AcDbVertex
100
AcDb2dVertex
 10
1581.89407
 20
1081.416282
 30
0.0
  0
VERTEX
  5
4E0
100
AcDbEntity
  8
トラップ
  6
CONTINUOUS
 62
     6
100
AcDbVertex
100
AcDb2dVertex
 10
1581.344967
 20
1082.437835
 30
0.0
  0
VERTEX
  5
4E1
100
AcDbEntity
  8
トラップ
  6
CONTINUOUS
 62
     6
100
AcDbVertex
100
AcDb2dVertex
 10
1580.621418
 20
1083.26101
 30
0.0
  0
VERTEX
  5
4E2
100
AcDbEntity
  8
トラップ
  6
CONTINUOUS
 62
     6
100
AcDbVertex
100
AcDb2dVertex
 10
1579.765472
 20
1083.837903
 30
0.0
  0
VERTEX
  5
4E3
100
AcDbEntity
  8
トラップ
  6
CONTINUOUS
 62
     6
100
AcDbVertex
100
AcDb2dVertex
 10
1578.826939
 20
1084.134962
 30
0.0
  0
VERTEX
  5
4E4
100
AcDbEntity
  8
トラップ
  6
CONTINUOUS
 62
     6
100
AcDbVertex
100
AcDb2dVertex
 10
1577.860302
 20
1084.134962
 30
0.0
  0
VERTEX
  5
4E5
100
AcDbEntity
  8
トラップ
  6
CONTINUOUS
 62
     6
100
AcDbVertex
100
AcDb2dVertex
 10
1576.921698
 20
1083.837903
 30
0.0
  0
VERTEX
  5
4E6
100
AcDbEntity
  8
トラップ
  6
CONTINUOUS
 62
     6
100
AcDbVertex
100
AcDb2dVertex
 10
1576.065747
 20
1083.26101
 30
0.0
  0
VERTEX
  5
4E7
100
AcDbEntity
  8
トラップ
  6
CONTINUOUS
 62
     6
100
AcDbVertex
100
AcDb2dVertex
 10
1575.342197
 20
1082.437835
 30
0.0
  0
VERTEX
  5
4E8
100
AcDbEntity
  8
トラップ
  6
CONTINUOUS
 62
     6
100
AcDbVertex
100
AcDb2dVertex
 10
1574.793094
 20
1081.416282
 30
0.0
  0
VERTEX
  5
4E9
100
AcDbEntity
  8
トラップ
  6
CONTINUOUS
 62
     6
100
AcDbVertex
100
AcDb2dVertex
 10
1574.450335
 20
1080.255668
 30
0.0
  0
VERTEX
  5
4EA
100
AcDbEntity
  8
トラップ
  6
CONTINUOUS
 62
     6
100
AcDbVertex
100
AcDb2dVertex
 10
1574.333801
 20
1079.023438
 30
0.0
  0
VERTEX
  5
4EB
100
AcDbEntity
  8
トラップ
  6
CONTINUOUS
 62
     6
100
AcDbVertex
100
AcDb2dVertex
 10
1574.450335
 20
1077.791207
 30
0.0
  0
VERTEX
  5
4EC
100
AcDbEntity
  8
トラップ
  6
CONTINUOUS
 62
     6
100
AcDbVertex
100
AcDb2dVertex
 10
1574.793094
 20
1076.630593
 30
0.0
  0
VERTEX
  5
4ED
100
AcDbEntity
  8
トラップ
  6
CONTINUOUS
 62
     6
100
AcDbVertex
100
AcDb2dVertex
 10
1575.342197
 20
1075.60904
 30
0.0
  0
VERTEX
  5
4EE
100
AcDbEntity
  8
トラップ
  6
CONTINUOUS
 62
     6
100
AcDbVertex
100
AcDb2dVertex
 10
1576.065747
 20
1074.785865
 30
0.0
  0
VERTEX
  5
4EF
100
AcDbEntity
  8
トラップ
  6
CONTINUOUS
 62
     6
100
AcDbVertex
100
AcDb2dVertex
 10
1576.921698
 20
1074.208972
 30
0.0
  0
VERTEX
  5
4F0
100
AcDbEntity
  8
トラップ
  6
CONTINUOUS
 62
     6
100
AcDbVertex
100
AcDb2dVertex
 10
1577.860302
 20
1073.911913
 30
0.0
  0
VERTEX
  5
4F1
100
AcDbEntity
  8
トラップ
  6
CONTINUOUS
 62
     6
100
AcDbVertex
100
AcDb2dVertex
 10
1578.826939
 20
1073.911913
 30
0.0
  0
VERTEX
  5
4F2
100
AcDbEntity
  8
トラップ
  6
CONTINUOUS
 62
     6
100
AcDbVertex
100
AcDb2dVertex
 10
1579.765472
 20
1074.208972
 30
0.0
  0
VERTEX
  5
4F3
100
AcDbEntity
  8
トラップ
  6
CONTINUOUS
 62
     6
100
AcDbVertex
100
AcDb2dVertex
 10
1580.621418
 20
1074.785865
 30
0.0
  0
VERTEX
  5
4F4
100
AcDbEntity
  8
トラップ
  6
CONTINUOUS
 62
     6
100
AcDbVertex
100
AcDb2dVertex
 10
1581.344967
 20
1075.60904
 30
0.0
  0
VERTEX
  5
4F5
100
AcDbEntity
  8
トラップ
  6
CONTINUOUS
 62
     6
100
AcDbVertex
100
AcDb2dVertex
 10
1581.89407
 20
1076.630593
 30
0.0
  0
VERTEX
  5
4F6
100
AcDbEntity
  8
トラップ
  6
CONTINUOUS
 62
     6
100
AcDbVertex
100
AcDb2dVertex
 10
1582.236829
 20
1077.791207
 30
0.0
  0
VERTEX
  5
4F7
100
AcDbEntity
  8
トラップ
  6
CONTINUOUS
 62
     6
100
AcDbVertex
100
AcDb2dVertex
 10
1582.353363
 20
1079.023438
 30
0.0
  0
SEQEND
  5
4F8
100
AcDbEntity
  8
トラップ
  6
CONTINUOUS
 62
     6
  0
POLYLINE
  5
4F9
100
AcDbEntity
  8
トラップ
  6
CONTINUOUS
 62
     6
100
AcDb2dPolyline
 66
     1
 10
0.0
 20
0.0
 30
0.0
 70
   128
  0
VERTEX
  5
4FA
100
AcDbEntity
  8
トラップ
  6
CONTINUOUS
 62
     6
100
AcDbVertex
100
AcDb2dVertex
 10
1601.518555
 20
1079.023438
 30
0.0
  0
VERTEX
  5
4FB
100
AcDbEntity
  8
トラップ
  6
CONTINUOUS
 62
     6
100
AcDbVertex
100
AcDb2dVertex
 10
1601.285486
 20
1080.255668
 30
0.0
  0
VERTEX
  5
4FC
100
AcDbEntity
  8
トラップ
  6
CONTINUOUS
 62
     6
100
AcDbVertex
100
AcDb2dVertex
 10
1600.599953
 20
1081.416282
 30
0.0
  0
VERTEX
  5
4FD
100
AcDbEntity
  8
トラップ
  6
CONTINUOUS
 62
     6
100
AcDbVertex
100
AcDb2dVertex
 10
1599.501657
 20
1082.437835
 30
0.0
  0
VERTEX
  5
4FE
100
AcDbEntity
  8
トラップ
  6
CONTINUOUS
 62
     6
100
AcDbVertex
100
AcDb2dVertex
 10
1598.05452
 20
1083.26101
 30
0.0
  0
VERTEX
  5
4FF
100
AcDbEntity
  8
トラップ
  6
CONTINUOUS
 62
     6
100
AcDbVertex
100
AcDb2dVertex
 10
1596.342704
 20
1083.837903
 30
0.0
  0
VERTEX
  5
500
100
AcDbEntity
  8
トラップ
  6
CONTINUOUS
 62
     6
100
AcDbVertex
100
AcDb2dVertex
 10
1594.465628
 20
1084.134962
 30
0.0
  0
VERTEX
  5
501
100
AcDbEntity
  8
トラップ
  6
CONTINUOUS
 62
     6
100
AcDbVertex
100
AcDb2dVertex
 10
1592.532358
 20
1084.134962
 30
0.0
  0
VERTEX
  5
502
100
AcDbEntity
  8
トラップ
  6
CONTINUOUS
 62
     6
100
AcDbVertex
100
AcDb2dVertex
 10
1590.655281
 20
1083.837903
 30
0.0
  0
VERTEX
  5
503
100
AcDbEntity
  8
トラップ
  6
CONTINUOUS
 62
     6
100
AcDbVertex
100
AcDb2dVertex
 10
1588.943465
 20
1083.26101
 30
0.0
  0
VERTEX
  5
504
100
AcDbEntity
  8
トラップ
  6
CONTINUOUS
 62
     6
100
AcDbVertex
100
AcDb2dVertex
 10
1587.496329
 20
1082.437835
 30
0.0
  0
VERTEX
  5
505
100
AcDbEntity
  8
トラップ
  6
CONTINUOUS
 62
     6
100
AcDbVertex
100
AcDb2dVertex
 10
1586.398033
 20
1081.416282
 30
0.0
  0
VERTEX
  5
506
100
AcDbEntity
  8
トラップ
  6
CONTINUOUS
 62
     6
100
AcDbVertex
100
AcDb2dVertex
 10
1585.712499
 20
1080.255668
 30
0.0
  0
VERTEX
  5
507
100
AcDbEntity
  8
トラップ
  6
CONTINUOUS
 62
     6
100
AcDbVertex
100
AcDb2dVertex
 10
1585.479431
 20
1079.023438
 30
0.0
  0
VERTEX
  5
508
100
AcDbEntity
  8
トラップ
  6
CONTINUOUS
 62
     6
100
AcDbVertex
100
AcDb2dVertex
 10
1585.712499
 20
1077.791207
 30
0.0
  0
VERTEX
  5
509
100
AcDbEntity
  8
トラップ
  6
CONTINUOUS
 62
     6
100
AcDbVertex
100
AcDb2dVertex
 10
1586.398033
 20
1076.630593
 30
0.0
  0
VERTEX
  5
50A
100
AcDbEntity
  8
トラップ
  6
CONTINUOUS
 62
     6
100
AcDbVertex
100
AcDb2dVertex
 10
1587.496329
 20
1075.60904
 30
0.0
  0
VERTEX
  5
50B
100
AcDbEntity
  8
トラップ
  6
CONTINUOUS
 62
     6
100
AcDbVertex
100
AcDb2dVertex
 10
1588.943465
 20
1074.785865
 30
0.0
  0
VERTEX
  5
50C
100
AcDbEntity
  8
トラップ
  6
CONTINUOUS
 62
     6
100
AcDbVertex
100
AcDb2dVertex
 10
1590.655281
 20
1074.208972
 30
0.0
  0
VERTEX
  5
50D
100
AcDbEntity
  8
トラップ
  6
CONTINUOUS
 62
     6
100
AcDbVertex
100
AcDb2dVertex
 10
1592.532358
 20
1073.911913
 30
0.0
  0
VERTEX
  5
50E
100
AcDbEntity
  8
トラップ
  6
CONTINUOUS
 62
     6
100
AcDbVertex
100
AcDb2dVertex
 10
1594.465628
 20
1073.911913
 30
0.0
  0
VERTEX
  5
50F
100
AcDbEntity
  8
トラップ
  6
CONTINUOUS
 62
     6
100
AcDbVertex
100
AcDb2dVertex
 10
1596.342704
 20
1074.208972
 30
0.0
  0
VERTEX
  5
510
100
AcDbEntity
  8
トラップ
  6
CONTINUOUS
 62
     6
100
AcDbVertex
100
AcDb2dVertex
 10
1598.05452
 20
1074.785865
 30
0.0
  0
VERTEX
  5
511
100
AcDbEntity
  8
トラップ
  6
CONTINUOUS
 62
     6
100
AcDbVertex
100
AcDb2dVertex
 10
1599.501657
 20
1075.60904
 30
0.0
  0
VERTEX
  5
512
100
AcDbEntity
  8
トラップ
  6
CONTINUOUS
 62
     6
100
AcDbVertex
100
AcDb2dVertex
 10
1600.599953
 20
1076.630593
 30
0.0
  0
VERTEX
  5
513
100
AcDbEntity
  8
トラップ
  6
CONTINUOUS
 62
     6
100
AcDbVertex
100
AcDb2dVertex
 10
1601.285486
 20
1077.791207
 30
0.0
  0
VERTEX
  5
514
100
AcDbEntity
  8
トラップ
  6
CONTINUOUS
 62
     6
100
AcDbVertex
100
AcDb2dVertex
 10
1601.518555
 20
1079.023438
 30
0.0
  0
SEQEND
  5
515
100
AcDbEntity
  8
トラップ
  6
CONTINUOUS
 62
     6
  0
POLYLINE
  5
516
100
AcDbEntity
  8
トラップ
  6
CONTINUOUS
 62
     6
100
AcDb2dPolyline
 66
     1
 10
0.0
 20
0.0
 30
0.0
 70
   128
  0
VERTEX
  5
517
100
AcDbEntity
  8
トラップ
  6
CONTINUOUS
 62
     6
100
AcDbVertex
100
AcDb2dVertex
 10
1612.749023
 20
1079.023438
 30
0.0
  0
VERTEX
  5
518
100
AcDbEntity
  8
トラップ
  6
CONTINUOUS
 62
     6
100
AcDbVertex
100
AcDb2dVertex
 10
1612.631279
 20
1080.255668
 30
0.0
  0
VERTEX
  5
519
100
AcDbEntity
  8
トラップ
  6
CONTINUOUS
 62
     6
100
AcDbVertex
100
AcDb2dVertex
 10
1612.284838
 20
1081.416282
 30
0.0
  0
VERTEX
  5
51A
100
AcDbEntity
  8
トラップ
  6
CONTINUOUS
 62
     6
100
AcDbVertex
100
AcDb2dVertex
 10
1611.729944
 20
1082.437835
 30
0.0
  0
VERTEX
  5
51B
100
AcDbEntity
  8
トラップ
  6
CONTINUOUS
 62
     6
100
AcDbVertex
100
AcDb2dVertex
 10
1610.998712
 20
1083.26101
 30
0.0
  0
VERTEX
  5
51C
100
AcDbEntity
  8
トラップ
  6
CONTINUOUS
 62
     6
100
AcDbVertex
100
AcDb2dVertex
 10
1610.133731
 20
1083.837903
 30
0.0
  0
VERTEX
  5
51D
100
AcDbEntity
  8
トラップ
  6
CONTINUOUS
 62
     6
100
AcDbVertex
100
AcDb2dVertex
 10
1609.185229
 20
1084.134962
 30
0.0
  0
VERTEX
  5
51E
100
AcDbEntity
  8
トラップ
  6
CONTINUOUS
 62
     6
100
AcDbVertex
100
AcDb2dVertex
 10
1608.20834
 20
1084.134962
 30
0.0
  0
VERTEX
  5
51F
100
AcDbEntity
  8
トラップ
  6
CONTINUOUS
 62
     6
100
AcDbVertex
100
AcDb2dVertex
 10
1607.259909
 20
1083.837903
 30
0.0
  0
VERTEX
  5
520
100
AcDbEntity
  8
トラップ
  6
CONTINUOUS
 62
     6
100
AcDbVertex
100
AcDb2dVertex
 10
1606.394934
 20
1083.26101
 30
0.0
  0
VERTEX
  5
521
100
AcDbEntity
  8
トラップ
  6
CONTINUOUS
 62
     6
100
AcDbVertex
100
AcDb2dVertex
 10
1605.663702
 20
1082.437835
 30
0.0
  0
VERTEX
  5
522
100
AcDbEntity
  8
トラップ
  6
CONTINUOUS
 62
     6
100
AcDbVertex
100
AcDb2dVertex
 10
1605.108809
 20
1081.416282
 30
0.0
  0
VERTEX
  5
523
100
AcDbEntity
  8
トラップ
  6
CONTINUOUS
 62
     6
100
AcDbVertex
100
AcDb2dVertex
 10
1604.762367
 20
1080.255668
 30
0.0
  0
VERTEX
  5
524
100
AcDbEntity
  8
トラップ
  6
CONTINUOUS
 62
     6
100
AcDbVertex
100
AcDb2dVertex
 10
1604.644623
 20
1079.023438
 30
0.0
  0
VERTEX
  5
525
100
AcDbEntity
  8
トラップ
  6
CONTINUOUS
 62
     6
100
AcDbVertex
100
AcDb2dVertex
 10
1604.762367
 20
1077.791207
 30
0.0
  0
VERTEX
  5
526
100
AcDbEntity
  8
トラップ
  6
CONTINUOUS
 62
     6
100
AcDbVertex
100
AcDb2dVertex
 10
1605.108809
 20
1076.630593
 30
0.0
  0
VERTEX
  5
527
100
AcDbEntity
  8
トラップ
  6
CONTINUOUS
 62
     6
100
AcDbVertex
100
AcDb2dVertex
 10
1605.663702
 20
1075.60904
 30
0.0
  0
VERTEX
  5
528
100
AcDbEntity
  8
トラップ
  6
CONTINUOUS
 62
     6
100
AcDbVertex
100
AcDb2dVertex
 10
1606.394934
 20
1074.785865
 30
0.0
  0
VERTEX
  5
529
100
AcDbEntity
  8
トラップ
  6
CONTINUOUS
 62
     6
100
AcDbVertex
100
AcDb2dVertex
 10
1607.259909
 20
1074.208972
 30
0.0
  0
VERTEX
  5
52A
100
AcDbEntity
  8
トラップ
  6
CONTINUOUS
 62
     6
100
AcDbVertex
100
AcDb2dVertex
 10
1608.20834
 20
1073.911913
 30
0.0
  0
VERTEX
  5
52B
100
AcDbEntity
  8
トラップ
  6
CONTINUOUS
 62
     6
100
AcDbVertex
100
AcDb2dVertex
 10
1609.185229
 20
1073.911913
 30
0.0
  0
VERTEX
  5
52C
100
AcDbEntity
  8
トラップ
  6
CONTINUOUS
 62
     6
100
AcDbVertex
100
AcDb2dVertex
 10
1610.133731
 20
1074.208972
 30
0.0
  0
VERTEX
  5
52D
100
AcDbEntity
  8
トラップ
  6
CONTINUOUS
 62
     6
100
AcDbVertex
100
AcDb2dVertex
 10
1610.998712
 20
1074.785865
 30
0.0
  0
VERTEX
  5
52E
100
AcDbEntity
  8
トラップ
  6
CONTINUOUS
 62
     6
100
AcDbVertex
100
AcDb2dVertex
 10
1611.729944
 20
1075.60904
 30
0.0
  0
VERTEX
  5
52F
100
AcDbEntity
  8
トラップ
  6
CONTINUOUS
 62
     6
100
AcDbVertex
100
AcDb2dVertex
 10
1612.284838
 20
1076.630593
 30
0.0
  0
VERTEX
  5
530
100
AcDbEntity
  8
トラップ
  6
CONTINUOUS
 62
     6
100
AcDbVertex
100
AcDb2dVertex
 10
1612.631279
 20
1077.791207
 30
0.0
  0
VERTEX
  5
531
100
AcDbEntity
  8
トラップ
  6
CONTINUOUS
 62
     6
100
AcDbVertex
100
AcDb2dVertex
 10
1612.749023
 20
1079.023438
 30
0.0
  0
SEQEND
  5
532
100
AcDbEntity
  8
トラップ
  6
CONTINUOUS
 62
     6
  0
LINE
  5
533
100
AcDbEntity
  8
トラップ
  6
CONTINUOUS
 62
     6
100
AcDbLine
 10
1610.249176
 20
1085.023346
 30
0.0
 11
1576.74881
 21
1085.023346
 31
0.0
  0
LINE
  5
534
100
AcDbEntity
  8
トラップ
  6
CONTINUOUS
 62
     6
100
AcDbLine
 10
1606.199036
 20
1067.773438
 30
0.0
 11
1606.199036
 21
1070.522308
 31
0.0
  0
ARC
  5
535
100
AcDbEntity
  8
トラップ
  6
CONTINUOUS
 62
     6
100
AcDbCircle
 10
1561.748962
 20
1067.773438
 30
0.0
 40
44.450073
100
AcDbArc
 50
180.0
 51
0.0
  0
LINE
  5
536
100
AcDbEntity
  8
トラップ
  6
CONTINUOUS
 62
     6
100
AcDbLine
 10
1580.79895
 20
1068.044281
 30
0.0
 11
1580.79895
 21
1070.522308
 31
0.0
  0
ARC
  5
537
100
AcDbEntity
  8
トラップ
  6
CONTINUOUS
 62
     6
100
AcDbCircle
 10
1579.498901
 20
1070.522308
 30
0.0
 40
1.3
100
AcDbArc
 50
0.0
 51
59.998199
  0
LINE
  5
538
100
AcDbEntity
  8
トラップ
  6
CONTINUOUS
 62
     6
100
AcDbLine
 10
1580.79895
 20
1067.773438
 30
0.0
 11
1580.79895
 21
1070.522308
 31
0.0
  0
ARC
  5
539
100
AcDbEntity
  8
トラップ
  6
CONTINUOUS
 62
     6
100
AcDbCircle
 10
1607.499084
 20
1070.522308
 30
0.0
 40
1.3
100
AcDbArc
 50
120.001801
 51
180.0
  0
LINE
  5
53A
100
AcDbEntity
  8
トラップ
  6
CONTINUOUS
 62
     6
100
AcDbLine
 10
1606.199036
 20
1067.773438
 30
0.0
 11
1606.199036
 21
1070.522308
 31
0.0
  0
ARC
  5
53B
100
AcDbEntity
  8
トラップ
  6
CONTINUOUS
 62
     6
100
AcDbCircle
 10
1561.748962
 20
1067.773438
 30
0.0
 40
19.049988
100
AcDbArc
 50
180.0
 51
0.0
  0
LINE
  5
53C
100
AcDbEntity
  8
トラップ
  6
CONTINUOUS
 62
     6
100
AcDbLine
 10
1505.748901
 20
1274.523926
 30
0.0
 11
1505.748901
 21
1279.523926
 31
0.0
  0
LINE
  5
53D
100
AcDbEntity
  8
トラップ
  6
CONTINUOUS
 62
     6
100
AcDbLine
 10
1554.248962
 20
1274.523926
 30
0.0
 11
1554.248962
 21
1279.523926
 31
0.0
  0
LINE
  5
53E
100
AcDbEntity
  8
トラップ
  6
CONTINUOUS
 62
     6
100
AcDbLine
 10
1507.498932
 20
1253.523956
 30
0.0
 11
1507.498932
 21
1274.523926
 31
0.0
  0
LINE
  5
53F
100
AcDbEntity
  8
トラップ
  6
CONTINUOUS
 62
     6
100
AcDbLine
 10
1552.498932
 20
1253.523956
 30
0.0
 11
1552.498932
 21
1274.523926
 31
0.0
  0
LINE
  5
540
100
AcDbEntity
  8
トラップ
  6
CONTINUOUS
 62
     6
100
AcDbLine
 10
1543.698883
 20
1239.523926
 30
0.0
 11
1516.298981
 21
1239.523926
 31
0.0
  0
LINE
  5
541
100
AcDbEntity
  8
トラップ
  6
CONTINUOUS
 62
     6
100
AcDbLine
 10
1543.698883
 20
1239.523926
 30
0.0
 11
1543.698883
 21
1243.523926
 31
0.0
  0
LINE
  5
542
100
AcDbEntity
  8
トラップ
  6
CONTINUOUS
 62
     6
100
AcDbLine
 10
1516.298981
 20
1239.523926
 30
0.0
 11
1516.298981
 21
1243.523926
 31
0.0
  0
LINE
  5
543
100
AcDbEntity
  8
トラップ
  6
CONTINUOUS
 62
     6
100
AcDbLine
 10
1554.248962
 20
1274.523926
 30
0.0
 11
1505.748901
 21
1274.523926
 31
0.0
  0
LINE
  5
544
100
AcDbEntity
  8
トラップ
  6
CONTINUOUS
 62
     6
100
AcDbLine
 10
1508.238872
 20
1251.851284
 30
0.0
 11
1515.55904
 21
1245.196598
 31
0.0
  0
LINE
  5
545
100
AcDbEntity
  8
トラップ
  6
CONTINUOUS
 62
     6
100
AcDbLine
 10
1551.758991
 20
1251.851284
 30
0.0
 11
1544.438824
 21
1245.196598
 31
0.0
  0
LINE
  5
546
100
AcDbEntity
  8
トラップ
  6
CONTINUOUS
 62
     6
100
AcDbLine
 10
1542.698822
 20
1244.523926
 30
0.0
 11
1517.299042
 21
1244.523926
 31
0.0
  0
LINE
  5
547
100
AcDbEntity
  8
トラップ
  6
CONTINUOUS
 62
     6
100
AcDbLine
 10
1517.299042
 20
1105.023346
 30
0.0
 11
1542.698822
 21
1105.023346
 31
0.0
  0
LINE
  5
548
100
AcDbEntity
  8
トラップ
  6
CONTINUOUS
 62
     6
100
AcDbLine
 10
1517.298889
 20
1160.023193
 30
0.0
 11
1517.298889
 21
1239.523926
 31
0.0
  0
LINE
  5
549
100
AcDbEntity
  8
トラップ
  6
CONTINUOUS
 62
     6
100
AcDbLine
 10
1542.698975
 20
1160.023193
 30
0.0
 11
1542.698975
 21
1239.523926
 31
0.0
  0
LINE
  5
54A
100
AcDbEntity
  8
トラップ
  6
CONTINUOUS
 62
     6
100
AcDbLine
 10
1516.298981
 20
1109.586639
 30
0.0
 11
1516.298981
 21
1145.723267
 31
0.0
  0
LINE
  5
54B
100
AcDbEntity
  8
トラップ
  6
CONTINUOUS
 62
     6
100
AcDbLine
 10
1516.298981
 20
1105.559235
 30
0.0
 11
1516.298981
 21
1145.723267
 31
0.0
  0
LINE
  5
54C
100
AcDbEntity
  8
トラップ
  6
CONTINUOUS
 62
     6
100
AcDbLine
 10
1543.698883
 20
1105.559235
 30
0.0
 11
1543.698883
 21
1145.723267
 31
0.0
  0
ARC
  5
54D
100
AcDbEntity
  8
トラップ
  6
CONTINUOUS
 62
     6
100
AcDbCircle
 10
1514.998932
 20
1145.723267
 30
0.0
 40
1.3
100
AcDbArc
 50
0.0
 51
90.0
  0
ARC
  5
54E
100
AcDbEntity
  8
トラップ
  6
CONTINUOUS
 62
     6
100
AcDbCircle
 10
1544.998932
 20
1145.723267
 30
0.0
 40
1.3
100
AcDbArc
 50
90.0
 51
180.0
  0
LINE
  5
54F
100
AcDbEntity
  8
トラップ
  6
CONTINUOUS
 62
     6
100
AcDbLine
 10
1544.998932
 20
1147.023315
 30
0.0
 11
1544.998932
 21
1148.023224
 31
0.0
  0
LINE
  5
550
100
AcDbEntity
  8
トラップ
  6
CONTINUOUS
 62
     6
100
AcDbLine
 10
1514.998932
 20
1147.023315
 30
0.0
 11
1514.998932
 21
1148.023224
 31
0.0
  0
LINE
  5
551
100
AcDbEntity
  8
トラップ
  6
CONTINUOUS
 62
     6
100
AcDbLine
 10
1514.998932
 20
1147.023315
 30
0.0
 11
1544.998932
 21
1147.023315
 31
0.0
  0
LINE
  5
552
100
AcDbEntity
  8
トラップ
  6
CONTINUOUS
 62
     6
100
AcDbLine
 10
1544.998932
 20
1147.023315
 30
0.0
 11
1545.998993
 21
1148.023377
 31
0.0
  0
LINE
  5
553
100
AcDbEntity
  8
トラップ
  6
CONTINUOUS
 62
     6
100
AcDbLine
 10
1513.998871
 20
1148.023377
 30
0.0
 11
1514.998932
 21
1147.023315
 31
0.0
  0
LINE
  5
554
100
AcDbEntity
  8
トラップ
  6
CONTINUOUS
 62
     6
100
AcDbLine
 10
1542.698975
 20
1067.773438
 30
0.0
 11
1542.698975
 21
1102.755585
 31
0.0
  0
ARC
  5
555
100
AcDbEntity
  8
トラップ
  6
CONTINUOUS
 62
     6
100
AcDbCircle
 10
1541.698913
 20
1105.559235
 30
0.0
 40
2.0
100
AcDbArc
 50
330.001953
 51
0.0
  0
LINE
  5
556
100
AcDbEntity
  8
トラップ
  6
CONTINUOUS
 62
     6
100
AcDbLine
 10
1542.966919
 20
1103.755493
 30
0.0
 11
1543.698883
 21
1105.023193
 31
0.0
  0
ARC
  5
557
100
AcDbEntity
  8
トラップ
  6
CONTINUOUS
 62
     6
100
AcDbCircle
 10
1544.698944
 20
1102.755585
 30
0.0
 40
2.0
100
AcDbArc
 50
150.001907
 51
180.0
  0
LINE
  5
558
100
AcDbEntity
  8
トラップ
  6
CONTINUOUS
 62
     6
100
AcDbLine
 10
1542.966919
 20
1103.755493
 30
0.0
 11
1543.698883
 21
1105.023193
 31
0.0
  0
LINE
  5
559
100
AcDbEntity
  8
トラップ
  6
CONTINUOUS
 62
     6
100
AcDbLine
 10
1542.966919
 20
1103.755493
 30
0.0
 11
1543.698883
 21
1105.023193
 31
0.0
  0
LINE
  5
55A
100
AcDbEntity
  8
トラップ
  6
CONTINUOUS
 62
     6
100
AcDbLine
 10
1542.966919
 20
1103.755493
 30
0.0
 11
1543.698883
 21
1105.023193
 31
0.0
  0
LINE
  5
55B
100
AcDbEntity
  8
トラップ
  6
CONTINUOUS
 62
     6
100
AcDbLine
 10
1542.966919
 20
1103.755493
 30
0.0
 11
1543.698883
 21
1105.023193
 31
0.0
  0
LINE
  5
55C
100
AcDbEntity
  8
トラップ
  6
CONTINUOUS
 62
     6
100
AcDbLine
 10
1517.298889
 20
1067.773438
 30
0.0
 11
1517.298889
 21
1102.755585
 31
0.0
  0
ARC
  5
55D
100
AcDbEntity
  8
トラップ
  6
CONTINUOUS
 62
     6
100
AcDbCircle
 10
1515.29892
 20
1102.755585
 30
0.0
 40
2.0
100
AcDbArc
 50
0.0
 51
29.998093
  0
LINE
  5
55E
100
AcDbEntity
  8
トラップ
  6
CONTINUOUS
 62
     6
100
AcDbLine
 10
1517.030945
 20
1103.755493
 30
0.0
 11
1516.298981
 21
1105.023193
 31
0.0
  0
LINE
  5
55F
100
AcDbEntity
  8
トラップ
  6
CONTINUOUS
 62
     6
100
AcDbLine
 10
1517.030945
 20
1103.755493
 30
0.0
 11
1516.298981
 21
1105.023193
 31
0.0
  0
LINE
  5
560
100
AcDbEntity
  8
トラップ
  6
CONTINUOUS
 62
     6
100
AcDbLine
 10
1517.030945
 20
1103.755493
 30
0.0
 11
1516.298981
 21
1105.023193
 31
0.0
  0
LINE
  5
561
100
AcDbEntity
  8
トラップ
  6
CONTINUOUS
 62
     6
100
AcDbLine
 10
1517.030945
 20
1103.755493
 30
0.0
 11
1516.298981
 21
1105.023193
 31
0.0
  0
ARC
  5
562
100
AcDbEntity
  8
トラップ
  6
CONTINUOUS
 62
     6
100
AcDbCircle
 10
1518.29895
 20
1105.559235
 30
0.0
 40
2.0
100
AcDbArc
 50
180.0
 51
209.998047
  0
LINE
  5
563
100
AcDbEntity
  8
トラップ
  6
CONTINUOUS
 62
     6
100
AcDbLine
 10
1546.498932
 20
1160.023193
 30
0.0
 11
1512.498932
 21
1160.023193
 31
0.0
  0
POLYLINE
  5
564
100
AcDbEntity
  8
トラップ
  6
CONTINUOUS
 62
     6
100
AcDb2dPolyline
 66
     1
 10
0.0
 20
0.0
 30
0.0
 70
   128
  0
VERTEX
  5
565
100
AcDbEntity
  8
トラップ
  6
CONTINUOUS
 62
     6
100
AcDbVertex
100
AcDb2dVertex
 10
1545.69397
 20
1154.023132
 30
0.0
  0
VERTEX
  5
566
100
AcDbEntity
  8
トラップ
  6
CONTINUOUS
 62
     6
100
AcDbVertex
100
AcDb2dVertex
 10
1545.492135
 20
1155.255383
 30
0.0
  0
VERTEX
  5
567
100
AcDbEntity
  8
トラップ
  6
CONTINUOUS
 62
     6
100
AcDbVertex
100
AcDb2dVertex
 10
1544.898432
 20
1156.41609
 30
0.0
  0
VERTEX
  5
568
100
AcDbEntity
  8
トラップ
  6
CONTINUOUS
 62
     6
100
AcDbVertex
100
AcDb2dVertex
 10
1543.947358
 20
1157.437682
 30
0.0
  0
VERTEX
  5
569
100
AcDbEntity
  8
トラップ
  6
CONTINUOUS
 62
     6
100
AcDbVertex
100
AcDb2dVertex
 10
1542.694138
 20
1158.260857
 30
0.0
  0
VERTEX
  5
56A
100
AcDbEntity
  8
トラップ
  6
CONTINUOUS
 62
     6
100
AcDbVertex
100
AcDb2dVertex
 10
1541.211602
 20
1158.83775
 30
0.0
  0
VERTEX
  5
56B
100
AcDbEntity
  8
トラップ
  6
CONTINUOUS
 62
     6
100
AcDbVertex
100
AcDb2dVertex
 10
1539.585939
 20
1159.13481
 30
0.0
  0
VERTEX
  5
56C
100
AcDbEntity
  8
トラップ
  6
CONTINUOUS
 62
     6
100
AcDbVertex
100
AcDb2dVertex
 10
1537.911695
 20
1159.13481
 30
0.0
  0
VERTEX
  5
56D
100
AcDbEntity
  8
トラップ
  6
CONTINUOUS
 62
     6
100
AcDbVertex
100
AcDb2dVertex
 10
1536.286104
 20
1158.83775
 30
0.0
  0
VERTEX
  5
56E
100
AcDbEntity
  8
トラップ
  6
CONTINUOUS
 62
     6
100
AcDbVertex
100
AcDb2dVertex
 10
1534.803573
 20
1158.260857
 30
0.0
  0
VERTEX
  5
56F
100
AcDbEntity
  8
トラップ
  6
CONTINUOUS
 62
     6
100
AcDbVertex
100
AcDb2dVertex
 10
1533.550353
 20
1157.437682
 30
0.0
  0
VERTEX
  5
570
100
AcDbEntity
  8
トラップ
  6
CONTINUOUS
 62
     6
100
AcDbVertex
100
AcDb2dVertex
 10
1532.59928
 20
1156.41609
 30
0.0
  0
VERTEX
  5
571
100
AcDbEntity
  8
トラップ
  6
CONTINUOUS
 62
     6
100
AcDbVertex
100
AcDb2dVertex
 10
1532.005576
 20
1155.255383
 30
0.0
  0
VERTEX
  5
572
100
AcDbEntity
  8
トラップ
  6
CONTINUOUS
 62
     6
100
AcDbVertex
100
AcDb2dVertex
 10
1531.803741
 20
1154.023132
 30
0.0
  0
VERTEX
  5
573
100
AcDbEntity
  8
トラップ
  6
CONTINUOUS
 62
     6
100
AcDbVertex
100
AcDb2dVertex
 10
1532.005576
 20
1152.790882
 30
0.0
  0
VERTEX
  5
574
100
AcDbEntity
  8
トラップ
  6
CONTINUOUS
 62
     6
100
AcDbVertex
100
AcDb2dVertex
 10
1532.59928
 20
1151.630174
 30
0.0
  0
VERTEX
  5
575
100
AcDbEntity
  8
トラップ
  6
CONTINUOUS
 62
     6
100
AcDbVertex
100
AcDb2dVertex
 10
1533.550353
 20
1150.608583
 30
0.0
  0
VERTEX
  5
576
100
AcDbEntity
  8
トラップ
  6
CONTINUOUS
 62
     6
100
AcDbVertex
100
AcDb2dVertex
 10
1534.803573
 20
1149.785408
 30
0.0
  0
VERTEX
  5
577
100
AcDbEntity
  8
トラップ
  6
CONTINUOUS
 62
     6
100
AcDbVertex
100
AcDb2dVertex
 10
1536.286104
 20
1149.208515
 30
0.0
  0
VERTEX
  5
578
100
AcDbEntity
  8
トラップ
  6
CONTINUOUS
 62
     6
100
AcDbVertex
100
AcDb2dVertex
 10
1537.911695
 20
1148.911455
 30
0.0
  0
VERTEX
  5
579
100
AcDbEntity
  8
トラップ
  6
CONTINUOUS
 62
     6
100
AcDbVertex
100
AcDb2dVertex
 10
1539.585939
 20
1148.911455
 30
0.0
  0
VERTEX
  5
57A
100
AcDbEntity
  8
トラップ
  6
CONTINUOUS
 62
     6
100
AcDbVertex
100
AcDb2dVertex
 10
1541.211602
 20
1149.208515
 30
0.0
  0
VERTEX
  5
57B
100
AcDbEntity
  8
トラップ
  6
CONTINUOUS
 62
     6
100
AcDbVertex
100
AcDb2dVertex
 10
1542.694138
 20
1149.785408
 30
0.0
  0
VERTEX
  5
57C
100
AcDbEntity
  8
トラップ
  6
CONTINUOUS
 62
     6
100
AcDbVertex
100
AcDb2dVertex
 10
1543.947358
 20
1150.608583
 30
0.0
  0
VERTEX
  5
57D
100
AcDbEntity
  8
トラップ
  6
CONTINUOUS
 62
     6
100
AcDbVertex
100
AcDb2dVertex
 10
1544.898432
 20
1151.630174
 30
0.0
  0
VERTEX
  5
57E
100
AcDbEntity
  8
トラップ
  6
CONTINUOUS
 62
     6
100
AcDbVertex
100
AcDb2dVertex
 10
1545.492135
 20
1152.790882
 30
0.0
  0
VERTEX
  5
57F
100
AcDbEntity
  8
トラップ
  6
CONTINUOUS
 62
     6
100
AcDbVertex
100
AcDb2dVertex
 10
1545.69397
 20
1154.023132
 30
0.0
  0
SEQEND
  5
580
100
AcDbEntity
  8
トラップ
  6
CONTINUOUS
 62
     6
  0
LINE
  5
581
100
AcDbEntity
  8
トラップ
  6
CONTINUOUS
 62
     6
100
AcDbLine
 10
1547.498932
 20
1160.023193
 30
0.0
 11
1513.498932
 21
1160.023193
 31
0.0
  0
LINE
  5
582
100
AcDbEntity
  8
トラップ
  6
CONTINUOUS
 62
     6
100
AcDbLine
 10
1547.498932
 20
1149.023224
 30
0.0
 11
1547.498932
 21
1159.023193
 31
0.0
  0
POLYLINE
  5
583
100
AcDbEntity
  8
トラップ
  6
CONTINUOUS
 62
     6
100
AcDb2dPolyline
 66
     1
 10
0.0
 20
0.0
 30
0.0
 70
   128
  0
VERTEX
  5
584
100
AcDbEntity
  8
トラップ
  6
CONTINUOUS
 62
     6
100
AcDbVertex
100
AcDb2dVertex
 10
1528.194122
 20
1154.023132
 30
0.0
  0
VERTEX
  5
585
100
AcDbEntity
  8
トラップ
  6
CONTINUOUS
 62
     6
100
AcDbVertex
100
AcDb2dVertex
 10
1527.992288
 20
1155.255383
 30
0.0
  0
VERTEX
  5
586
100
AcDbEntity
  8
トラップ
  6
CONTINUOUS
 62
     6
100
AcDbVertex
100
AcDb2dVertex
 10
1527.398584
 20
1156.41609
 30
0.0
  0
VERTEX
  5
587
100
AcDbEntity
  8
トラップ
  6
CONTINUOUS
 62
     6
100
AcDbVertex
100
AcDb2dVertex
 10
1526.447511
 20
1157.437682
 30
0.0
  0
VERTEX
  5
588
100
AcDbEntity
  8
トラップ
  6
CONTINUOUS
 62
     6
100
AcDbVertex
100
AcDb2dVertex
 10
1525.194291
 20
1158.260857
 30
0.0
  0
VERTEX
  5
589
100
AcDbEntity
  8
トラップ
  6
CONTINUOUS
 62
     6
100
AcDbVertex
100
AcDb2dVertex
 10
1523.71176
 20
1158.83775
 30
0.0
  0
VERTEX
  5
58A
100
AcDbEntity
  8
トラップ
  6
CONTINUOUS
 62
     6
100
AcDbVertex
100
AcDb2dVertex
 10
1522.086169
 20
1159.13481
 30
0.0
  0
VERTEX
  5
58B
100
AcDbEntity
  8
トラップ
  6
CONTINUOUS
 62
     6
100
AcDbVertex
100
AcDb2dVertex
 10
1520.411924
 20
1159.13481
 30
0.0
  0
VERTEX
  5
58C
100
AcDbEntity
  8
トラップ
  6
CONTINUOUS
 62
     6
100
AcDbVertex
100
AcDb2dVertex
 10
1518.786262
 20
1158.83775
 30
0.0
  0
VERTEX
  5
58D
100
AcDbEntity
  8
トラップ
  6
CONTINUOUS
 62
     6
100
AcDbVertex
100
AcDb2dVertex
 10
1517.303726
 20
1158.260857
 30
0.0
  0
VERTEX
  5
58E
100
AcDbEntity
  8
トラップ
  6
CONTINUOUS
 62
     6
100
AcDbVertex
100
AcDb2dVertex
 10
1516.050506
 20
1157.437682
 30
0.0
  0
VERTEX
  5
58F
100
AcDbEntity
  8
トラップ
  6
CONTINUOUS
 62
     6
100
AcDbVertex
100
AcDb2dVertex
 10
1515.099432
 20
1156.41609
 30
0.0
  0
VERTEX
  5
590
100
AcDbEntity
  8
トラップ
  6
CONTINUOUS
 62
     6
100
AcDbVertex
100
AcDb2dVertex
 10
1514.505728
 20
1155.255383
 30
0.0
  0
VERTEX
  5
591
100
AcDbEntity
  8
トラップ
  6
CONTINUOUS
 62
     6
100
AcDbVertex
100
AcDb2dVertex
 10
1514.303894
 20
1154.023132
 30
0.0
  0
VERTEX
  5
592
100
AcDbEntity
  8
トラップ
  6
CONTINUOUS
 62
     6
100
AcDbVertex
100
AcDb2dVertex
 10
1514.505728
 20
1152.790882
 30
0.0
  0
VERTEX
  5
593
100
AcDbEntity
  8
トラップ
  6
CONTINUOUS
 62
     6
100
AcDbVertex
100
AcDb2dVertex
 10
1515.099432
 20
1151.630174
 30
0.0
  0
VERTEX
  5
594
100
AcDbEntity
  8
トラップ
  6
CONTINUOUS
 62
     6
100
AcDbVertex
100
AcDb2dVertex
 10
1516.050506
 20
1150.608583
 30
0.0
  0
VERTEX
  5
595
100
AcDbEntity
  8
トラップ
  6
CONTINUOUS
 62
     6
100
AcDbVertex
100
AcDb2dVertex
 10
1517.303726
 20
1149.785408
 30
0.0
  0
VERTEX
  5
596
100
AcDbEntity
  8
トラップ
  6
CONTINUOUS
 62
     6
100
AcDbVertex
100
AcDb2dVertex
 10
1518.786262
 20
1149.208515
 30
0.0
  0
VERTEX
  5
597
100
AcDbEntity
  8
トラップ
  6
CONTINUOUS
 62
     6
100
AcDbVertex
100
AcDb2dVertex
 10
1520.411924
 20
1148.911455
 30
0.0
  0
VERTEX
  5
598
100
AcDbEntity
  8
トラップ
  6
CONTINUOUS
 62
     6
100
AcDbVertex
100
AcDb2dVertex
 10
1522.086169
 20
1148.911455
 30
0.0
  0
VERTEX
  5
599
100
AcDbEntity
  8
トラップ
  6
CONTINUOUS
 62
     6
100
AcDbVertex
100
AcDb2dVertex
 10
1523.71176
 20
1149.208515
 30
0.0
  0
VERTEX
  5
59A
100
AcDbEntity
  8
トラップ
  6
CONTINUOUS
 62
     6
100
AcDbVertex
100
AcDb2dVertex
 10
1525.194291
 20
1149.785408
 30
0.0
  0
VERTEX
  5
59B
100
AcDbEntity
  8
トラップ
  6
CONTINUOUS
 62
     6
100
AcDbVertex
100
AcDb2dVertex
 10
1526.447511
 20
1150.608583
 30
0.0
  0
VERTEX
  5
59C
100
AcDbEntity
  8
トラップ
  6
CONTINUOUS
 62
     6
100
AcDbVertex
100
AcDb2dVertex
 10
1527.398584
 20
1151.630174
 30
0.0
  0
VERTEX
  5
59D
100
AcDbEntity
  8
トラップ
  6
CONTINUOUS
 62
     6
100
AcDbVertex
100
AcDb2dVertex
 10
1527.992288
 20
1152.790882
 30
0.0
  0
VERTEX
  5
59E
100
AcDbEntity
  8
トラップ
  6
CONTINUOUS
 62
     6
100
AcDbVertex
100
AcDb2dVertex
 10
1528.194122
 20
1154.023132
 30
0.0
  0
SEQEND
  5
59F
100
AcDbEntity
  8
トラップ
  6
CONTINUOUS
 62
     6
  0
LINE
  5
5A0
100
AcDbEntity
  8
トラップ
  6
CONTINUOUS
 62
     6
100
AcDbLine
 10
1512.498932
 20
1149.023224
 30
0.0
 11
1512.498932
 21
1159.023193
 31
0.0
  0
LINE
  5
5A1
100
AcDbEntity
  8
トラップ
  6
CONTINUOUS
 62
     6
100
AcDbLine
 10
1546.498932
 20
1148.023224
 30
0.0
 11
1513.498932
 21
1148.023224
 31
0.0
  0
LINE
  5
5A2
100
AcDbEntity
  8
トラップ
  6
CONTINUOUS
 62
     6
100
AcDbLine
 10
1510.498932
 20
1252.523956
 30
0.0
 11
1549.498932
 21
1252.523956
 31
0.0
  0
LINE
  5
5A3
100
AcDbEntity
  8
トラップ
  6
CONTINUOUS
 62
     6
100
AcDbLine
 10
1705.511851
 20
1188.704483
 30
0.0
 11
1778.540708
 21
1188.704483
 31
0.0
  0
TEXT
  5
5A4
100
AcDbEntity
  8
トラップ
  6
CONTINUOUS
 62
     2
100
AcDbText
 10
1705.511851
 20
1192.204483
 30
0.0
 40
40.0
  1
２５
 41
0.861
  7
EXCADSTD
 72
     5
 11
1780.673051
 21
1192.204483
 31
0.0
100
AcDbText
  0
LINE
  5
5A5
100
AcDbEntity
  8
トラップ
  6
CONTINUOUS
 62
     3
100
AcDbLine
 10
1670.0
 20
636.523278
 30
0.0
 11
1813.32785
 21
636.523278
 31
0.0
  0
LINE
  5
5A6
100
AcDbEntity
  8
トラップ
  6
CONTINUOUS
 62
     6
100
AcDbLine
 10
1423.153212
 20
1179.265372
 30
0.0
 11
1232.0
 21
1179.265372
 31
0.0
  0
TEXT
  5
5A7
100
AcDbEntity
  8
トラップ
  6
CONTINUOUS
 62
     2
100
AcDbText
 10
1230.153213
 20
1182.765372
 30
0.0
 40
40.0
  1
ＮＬ３ＤＰ
 41
0.8106
  7
EXCADSTD
 72
     5
 11
1423.153212
 21
1182.765372
 31
0.0
100
AcDbText
  0
LINE
  5
5A8
100
AcDbEntity
  8
トラップ
  6
CONTINUOUS
 62
     3
100
AcDbLine
 10
1594.0
 20
1546.523278
 30
0.0
 11
1609.0
 21
1546.523278
 31
0.0
  0
LINE
  5
5A9
100
AcDbEntity
  8
トラップ
  6
CONTINUOUS
 62
     3
100
AcDbLine
 10
1621.0
 20
1546.523278
 30
0.0
 11
1629.0
 21
1546.523278
 31
0.0
  0
LINE
  5
5AA
100
AcDbEntity
  8
トラップ
  6
CONTINUOUS
 62
     3
100
AcDbLine
 10
1641.0
 20
1546.523278
 30
0.0
 11
1813.32785
 21
1546.523278
 31
0.0
  0
ARC
  5
5AB
100
AcDbEntity
  8
トラップ
  6
EXLTYPE4
 62
     6
100
AcDbCircle
 10
674.885272
 20
1121.523328
 30
0.0
 40
12.7
100
AcDbArc
 50
0.0
 51
180.0
  0
LINE
  5
5AC
100
AcDbEntity
  8
トラップ
  6
EXLTYPE4
 62
     6
100
AcDbLine
 10
687.585272
 20
650.523589
 30
0.0
 11
687.585272
 21
1121.523328
 31
0.0
  0
LINE
  5
5AD
100
AcDbEntity
  8
トラップ
  6
EXLTYPE4
 62
     6
100
AcDbLine
 10
662.185272
 20
650.523589
 30
0.0
 11
662.185272
 21
1145.723267
 31
0.0
  0
LINE
  5
5AE
100
AcDbEntity
  8
トラップ
  6
EXLTYPE4
 62
     6
100
AcDbLine
 10
662.185272
 20
611.52381
 30
0.0
 11
687.585272
 21
611.523794
 31
0.0
  0
ARC
  5
5AF
100
AcDbEntity
  8
トラップ
  6
EXLTYPE4
 62
     6
100
AcDbCircle
 10
692.885226
 20
638.523619
 30
0.0
 40
11.999998
100
AcDbArc
 50
0.0
 51
90.0
  0
ARC
  5
5B0
100
AcDbEntity
  8
トラップ
  6
EXLTYPE4
 62
     6
100
AcDbCircle
 10
656.885318
 20
638.523619
 30
0.0
 40
11.999998
100
AcDbArc
 50
90.0
 51
180.0
  0
LINE
  5
5B1
100
AcDbEntity
  8
トラップ
  6
EXLTYPE4
 62
     6
100
AcDbLine
 10
704.885349
 20
638.523619
 30
0.0
 11
704.885349
 21
636.52365
 31
0.0
  0
LINE
  5
5B2
100
AcDbEntity
  8
トラップ
  6
EXLTYPE4
 62
     6
100
AcDbLine
 10
644.885348
 20
638.523619
 30
0.0
 11
644.885348
 21
636.52365
 31
0.0
  0
LINE
  5
5B3
100
AcDbEntity
  8
トラップ
  6
EXLTYPE4
 62
     6
100
AcDbLine
 10
656.885318
 20
650.523589
 30
0.0
 11
692.885226
 21
650.523589
 31
0.0
  0
LINE
  5
5B4
100
AcDbEntity
  8
トラップ
  6
EXLTYPE4
 62
     6
100
AcDbLine
 10
687.585272
 20
611.523794
 30
0.0
 11
687.585272
 21
636.523794
 31
0.0
  0
LINE
  5
5B5
100
AcDbEntity
  8
トラップ
  6
EXLTYPE4
 62
     6
100
AcDbLine
 10
662.185272
 20
611.52381
 30
0.0
 11
662.185272
 21
636.52381
 31
0.0
  0
LINE
  5
5B6
100
AcDbEntity
  8
トラップ
  6
EXLTYPE4
 62
     6
100
AcDbLine
 10
1517.298889
 20
611.523591
 30
0.0
 11
1542.698975
 21
611.523575
 31
0.0
  0
ARC
  5
5B7
100
AcDbEntity
  8
トラップ
  6
EXLTYPE4
 62
     6
100
AcDbCircle
 10
1547.998886
 20
638.5234
 30
0.0
 40
11.999998
100
AcDbArc
 50
0.0
 51
90.0
  0
ARC
  5
5B8
100
AcDbEntity
  8
トラップ
  6
EXLTYPE4
 62
     6
100
AcDbCircle
 10
1511.998978
 20
638.5234
 30
0.0
 40
11.999998
100
AcDbArc
 50
90.0
 51
180.0
  0
LINE
  5
5B9
100
AcDbEntity
  8
トラップ
  6
EXLTYPE4
 62
     6
100
AcDbLine
 10
1559.999008
 20
638.5234
 30
0.0
 11
1559.999008
 21
636.523431
 31
0.0
  0
LINE
  5
5BA
100
AcDbEntity
  8
トラップ
  6
EXLTYPE4
 62
     6
100
AcDbLine
 10
1499.999008
 20
638.5234
 30
0.0
 11
1499.999008
 21
636.523431
 31
0.0
  0
LINE
  5
5BB
100
AcDbEntity
  8
トラップ
  6
EXLTYPE4
 62
     6
100
AcDbLine
 10
1511.998978
 20
650.52337
 30
0.0
 11
1547.998886
 21
650.52337
 31
0.0
  0
LINE
  5
5BC
100
AcDbEntity
  8
トラップ
  6
EXLTYPE4
 62
     6
100
AcDbLine
 10
1517.298889
 20
611.523591
 30
0.0
 11
1517.298889
 21
636.523591
 31
0.0
  0
LINE
  5
5BD
100
AcDbEntity
  8
トラップ
  6
EXLTYPE4
 62
     6
100
AcDbLine
 10
1542.698975
 20
611.523575
 30
0.0
 11
1542.698975
 21
636.523575
 31
0.0
  0
LINE
  5
5BE
100
AcDbEntity
  8
トラップ
  6
EXLTYPE4
 62
     6
100
AcDbLine
 10
1542.698975
 20
650.52337
 30
0.0
 11
1542.698975
 21
1089.823303
 31
0.0
  0
LINE
  5
5BF
100
AcDbEntity
  8
トラップ
  6
EXLTYPE4
 62
     6
100
AcDbLine
 10
1517.298889
 20
650.52337
 30
0.0
 11
1517.298889
 21
1102.755585
 31
0.0
  0
ARC
  5
5C0
100
AcDbEntity
  8
トラップ
  6
EXLTYPE4
 62
     6
100
AcDbCircle
 10
1561.799011
 20
1089.823303
 30
0.0
 40
18.999996
100
AcDbArc
 50
0.0
 51
180.0
  0
ARC
  5
5C1
100
AcDbEntity
  8
トラップ
  6
EXLTYPE4
 62
     6
100
AcDbCircle
 10
1561.799011
 20
1089.823303
 30
0.0
 40
44.399996
100
AcDbArc
 50
0.0
 51
180.0
  0
LINE
  5
5C2
100
AcDbEntity
  8
トラップ
  6
CONTINUOUS
 62
     6
100
AcDbLine
 10
1578.971143
 20
561.0
 30
0.0
 11
1652.0
 21
561.0
 31
0.0
  0
TEXT
  5
5C3
100
AcDbEntity
  8
トラップ
  6
CONTINUOUS
 62
     2
100
AcDbText
 10
1575.271143
 20
564.5
 30
0.0
 40
40.0
  1
２５
 41
0.861
  7
EXCADSTD
 72
     5
 11
1650.432343
 21
564.5
 31
0.0
100
AcDbText
  0
LINE
  5
5C4
100
AcDbEntity
  8
トラップ
  6
CONTINUOUS
 62
     6
100
AcDbLine
 10
1423.153212
 20
869.265372
 30
0.0
 11
1232.0
 21
869.265372
 31
0.0
  0
TEXT
  5
5C5
100
AcDbEntity
  8
トラップ
  6
CONTINUOUS
 62
     2
100
AcDbText
 10
1230.153213
 20
872.765372
 30
0.0
 40
40.0
  1
ＮＬ３ＤＳ
 41
0.8106
  7
EXCADSTD
 72
     5
 11
1423.153212
 21
872.765372
 31
0.0
100
AcDbText
  0
TEXT
  5
5C6
100
AcDbEntity
  8
器具明細表
  6
CONTINUOUS
 62
     2
100
AcDbText
 10
1269.0
 20
2719.0
 30
0.0
 40
60.0
  1
器具明細
 41
1.54
  7
EXCADSTD
 72
     5
 11
1709.0
 21
2719.0
 31
0.0
100
AcDbText
  0
TEXT
  5
5C7
100
AcDbEntity
  8
器具明細表
  6
CONTINUOUS
 62
     2
100
AcDbText
 10
1314.0
 20
2649.0
 30
0.0
 40
55.0
  1
品番
 41
1.527273
  7
EXCADSTD
 72
     5
 11
1497.32
 21
2649.0
 31
0.0
100
AcDbText
  0
TEXT
  5
5C8
100
AcDbEntity
  8
器具明細表
  6
CONTINUOUS
 62
     2
100
AcDbText
 10
1629.0
 20
2649.0
 30
0.0
 40
55.0
  1
品名
 41
1.374545
  7
EXCADSTD
 72
     5
 11
1793.988
 21
2649.0
 31
0.0
100
AcDbText
  0
TEXT
  5
5C9
100
AcDbEntity
  8
器具明細表
  6
CONTINUOUS
 62
     2
100
AcDbText
 10
1860.5
 20
2649.0
 30
0.0
 40
55.0
  1
個数
 41
0.664364
  7
EXCADSTD
 72
     5
 11
1940.2442
 21
2649.0
 31
0.0
100
AcDbText
  0
TEXT
  5
5CA
100
AcDbEntity
  8
器具明細表
  6
CONTINUOUS
 62
     2
100
AcDbText
 10
1253.0
 20
2586.5
 30
0.0
 40
50.0
  1
Ｌ８１
 41
0.6664
  7
EXCADSTD
 72
     5
 11
1372.0
 21
2586.5
 31
0.0
100
AcDbText
  0
TEXT
  5
5CB
100
AcDbEntity
  8
器具明細表
  6
CONTINUOUS
 62
     2
100
AcDbText
 10
1253.0
 20
2456.5
 30
0.0
 40
50.0
  1
ＮＬ３ＤＰ
 41
0.64848
  7
EXCADSTD
 72
     5
 11
1446.0
 21
2456.5
 31
0.0
100
AcDbText
  0
TEXT
  5
5CC
100
AcDbEntity
  8
器具明細表
  6
CONTINUOUS
 62
     2
100
AcDbText
 10
1583.0
 20
2586.5
 30
0.0
 40
50.0
  1
手洗器
 41
0.6664
  7
EXCADSTD
 72
     5
 11
1702.0
 21
2586.5
 31
0.0
100
AcDbText
  0
TEXT
  5
5CD
100
AcDbEntity
  8
器具明細表
  6
CONTINUOUS
 62
     2
100
AcDbText
 10
1583.0
 20
2521.5
 30
0.0
 40
50.0
  1
衛生水栓
 41
0.6552
  7
EXCADSTD
 72
     5
 11
1739.0
 21
2521.5
 31
0.0
100
AcDbText
  0
TEXT
  5
5CE
100
AcDbEntity
  8
器具明細表
  6
CONTINUOUS
 62
     2
100
AcDbText
 10
1583.0
 20
2456.5
 30
0.0
 40
50.0
  1
Ｐトラップ
 41
0.64848
  7
EXCADSTD
 72
     5
 11
1776.0
 21
2456.5
 31
0.0
100
AcDbText
  0
TEXT
  5
5CF
100
AcDbEntity
  8
器具明細表
  6
CONTINUOUS
 62
     2
100
AcDbText
 10
1881.5
 20
2589.0
 30
0.0
 40
45.0
  1
１
 41
0.84
  7
EXCADSTD
 72
     5
 11
1917.5
 21
2589.0
 31
0.0
100
AcDbText
  0
TEXT
  5
5D0
100
AcDbEntity
  8
器具明細表
  6
CONTINUOUS
 62
     2
100
AcDbText
 10
1881.5
 20
2394.0
 30
0.0
 40
45.0
  1
２
 41
0.84
  7
EXCADSTD
 72
     5
 11
1917.5
 21
2394.0
 31
0.0
100
AcDbText
  0
TEXT
  5
5D1
100
AcDbEntity
  8
器具明細表
  6
CONTINUOUS
 62
     2
100
AcDbText
 10
1881.5
 20
2524.0
 30
0.0
 40
45.0
  1
１
 41
0.84
  7
EXCADSTD
 72
     5
 11
1917.5
 21
2524.0
 31
0.0
100
AcDbText
  0
TEXT
  5
5D2
100
AcDbEntity
  8
器具明細表
  6
CONTINUOUS
 62
     2
100
AcDbText
 10
1881.5
 20
2459.0
 30
0.0
 40
45.0
  1
１
 41
0.84
  7
EXCADSTD
 72
     5
 11
1917.5
 21
2459.0
 31
0.0
100
AcDbText
  0
LINE
  5
5D3
100
AcDbEntity
  8
器具明細表
  6
CONTINUOUS
 62
     6
100
AcDbLine
 10
1949.0
 20
2709.0
 30
0.0
 11
1249.0
 21
2709.0
 31
0.0
  0
LINE
  5
5D4
100
AcDbEntity
  8
器具明細表
  6
CONTINUOUS
 62
     6
100
AcDbLine
 10
1249.0
 20
2644.0
 30
0.0
 11
1949.0
 21
2644.0
 31
0.0
  0
LINE
  5
5D5
100
AcDbEntity
  8
器具明細表
  6
CONTINUOUS
 62
     6
100
AcDbLine
 10
1949.0
 20
2579.0
 30
0.0
 11
1249.0
 21
2579.0
 31
0.0
  0
LINE
  5
5D6
100
AcDbEntity
  8
器具明細表
  6
CONTINUOUS
 62
     6
100
AcDbLine
 10
1249.0
 20
2514.0
 30
0.0
 11
1949.0
 21
2514.0
 31
0.0
  0
LINE
  5
5D7
100
AcDbEntity
  8
器具明細表
  6
CONTINUOUS
 62
     6
100
AcDbLine
 10
1949.0
 20
2449.0
 30
0.0
 11
1249.0
 21
2449.0
 31
0.0
  0
TEXT
  5
5D8
100
AcDbEntity
  8
器具明細表
  6
CONTINUOUS
 62
     2
100
AcDbText
 10
1253.0
 20
2391.5
 30
0.0
 40
50.0
  1
ＮＴ７Ａ
 41
0.6552
  7
EXCADSTD
 72
     5
 11
1409.0
 21
2391.5
 31
0.0
100
AcDbText
  0
TEXT
  5
5D9
100
AcDbEntity
  8
器具明細表
  6
CONTINUOUS
 62
     2
100
AcDbText
 10
1583.0
 20
2391.5
 30
0.0
 40
50.0
  1
化粧頭付木ねじ
 41
0.6408
  7
EXCADSTD
 72
     5
 11
1849.999999
 21
2391.5
 31
0.0
100
AcDbText
  0
TEXT
  5
5DA
100
AcDbEntity
  8
器具明細表
  6
CONTINUOUS
 62
     2
100
AcDbText
 10
1881.5
 20
2264.0
 30
0.0
 40
45.0
  1
１
 41
0.84
  7
EXCADSTD
 72
     5
 11
1917.5
 21
2264.0
 31
0.0
100
AcDbText
  0
LINE
  5
5DB
100
AcDbEntity
  8
器具明細表
  6
CONTINUOUS
 62
     6
100
AcDbLine
 10
1249.0
 20
2319.0
 30
0.0
 11
1949.0
 21
2319.0
 31
0.0
  0
LINE
  5
5DC
100
AcDbEntity
  8
器具明細表
  6
CONTINUOUS
 62
     6
100
AcDbLine
 10
1949.0
 20
2254.0
 30
0.0
 11
1249.0
 21
2254.0
 31
0.0
  0
TEXT
  5
5DD
100
AcDbEntity
  8
器具明細表
  6
CONTINUOUS
 62
     2
100
AcDbText
 10
1253.0
 20
2326.5
 30
0.0
 40
50.0
  1
Ｓトラップの場合
 41
0.6384
  7
EXCADSTD
 72
     5
 11
1556.999999
 21
2326.5
 31
0.0
100
AcDbText
  0
LINE
  5
5DE
100
AcDbEntity
  8
器具明細表
  6
CONTINUOUS
 62
     6
100
AcDbLine
 10
1249.0
 20
2384.0
 30
0.0
 11
1949.0
 21
2384.0
 31
0.0
  0
LINE
  5
5DF
100
AcDbEntity
  8
器具明細表
  6
CONTINUOUS
 62
     6
100
AcDbLine
 10
1249.0
 20
2709.0
 30
0.0
 11
1249.0
 21
2384.0
 31
0.0
  0
LINE
  5
5E0
100
AcDbEntity
  8
器具明細表
  6
CONTINUOUS
 62
     6
100
AcDbLine
 10
1249.0
 20
2319.0
 30
0.0
 11
1249.0
 21
2254.0
 31
0.0
  0
LINE
  5
5E1
100
AcDbEntity
  8
器具明細表
  6
CONTINUOUS
 62
     6
100
AcDbLine
 10
1579.0
 20
2254.0
 30
0.0
 11
1579.0
 21
2319.0
 31
0.0
  0
LINE
  5
5E2
100
AcDbEntity
  8
器具明細表
  6
CONTINUOUS
 62
     6
100
AcDbLine
 10
1579.0
 20
2384.0
 30
0.0
 11
1579.0
 21
2709.0
 31
0.0
  0
LINE
  5
5E3
100
AcDbEntity
  8
器具明細表
  6
CONTINUOUS
 62
     6
100
AcDbLine
 10
1859.0
 20
2709.0
 30
0.0
 11
1859.0
 21
2384.0
 31
0.0
  0
LINE
  5
5E4
100
AcDbEntity
  8
器具明細表
  6
CONTINUOUS
 62
     6
100
AcDbLine
 10
1859.0
 20
2319.0
 30
0.0
 11
1859.0
 21
2254.0
 31
0.0
  0
LINE
  5
5E5
100
AcDbEntity
  8
器具明細表
  6
CONTINUOUS
 62
     6
100
AcDbLine
 10
1949.0
 20
2254.0
 30
0.0
 11
1949.0
 21
2319.0
 31
0.0
  0
LINE
  5
5E6
100
AcDbEntity
  8
器具明細表
  6
CONTINUOUS
 62
     6
100
AcDbLine
 10
1949.0
 20
2384.0
 30
0.0
 11
1949.0
 21
2709.0
 31
0.0
  0
TEXT
  5
5E7
100
AcDbEntity
  8
器具明細表
  6
CONTINUOUS
 62
     2
100
AcDbText
 10
1253.0
 20
2261.5
 30
0.0
 40
50.0
  1
ＮＬ３ＤＳ
 41
0.64848
  7
EXCADSTD
 72
     5
 11
1446.0
 21
2261.5
 31
0.0
100
AcDbText
  0
TEXT
  5
5E8
100
AcDbEntity
  8
器具明細表
  6
CONTINUOUS
 62
     2
100
AcDbText
 10
1583.0
 20
2261.5
 30
0.0
 40
50.0
  1
Ｓトラップ
 41
0.64848
  7
EXCADSTD
 72
     5
 11
1776.0
 21
2261.5
 31
0.0
100
AcDbText
  0
TEXT
  5
5E9
100
AcDbEntity
  8
器具明細表
  6
CONTINUOUS
 62
     2
100
AcDbText
 10
1253.0
 20
2521.5
 30
0.0
 40
50.0
  1
ＮＬ１５－ＭＹ
 41
0.6408
  7
EXCADSTD
 72
     5
 11
1519.999999
 21
2521.5
 31
0.0
100
AcDbText
  0
ENDSEC
  0
SECTION
  2
OBJECTS
  0
DICTIONARY
  5
19
100
AcDbDictionary
  3
ACAD_GROUP
350
1A
  3
ACAD_MLINESTYLE
350
1B
  0
DICTIONARY
  5
1A
102
{ACAD_REACTORS
330
19
102
}
100
AcDbDictionary
  0
DICTIONARY
  5
1B
102
{ACAD_REACTORS
330
19
102
}
100
AcDbDictionary
  3
STANDARD
350
1C
  0
MLINESTYLE
  5
1C
102
{ACAD_REACTORS
330
1B
102
}
100
AcDbMlineStyle
  2
Standard
 70
     0
  3

 62
     0
 51
90.0
 52
90.0
 71
     2
 49
0.5
 62
   256
  6
ByLayer
 49
-0.5
 62
   256
  6
ByLayer
  0
ENDSEC
  0
EOF
