  0
SECTION
  2
HEADER
  9
$ACADVER
  1
AC1014
  9
$ACADMAINTVER
 70
     0
  9
$DWGCODEPAGE
  3
ANSI_932
  9
$INSBASE
 10
0.0
 20
0.0
 30
0.0
  9
$EXTMIN
 10
-2.1
 20
11.5
 30
0.0
  9
$EXTMAX
 10
199.9
 20
291.5
 30
0.0
  9
$LIMMIN
 10
0.0
 20
0.0
  9
$LIMMAX
 10
210.0
 20
297.0
  9
$ORTHOMODE
 70
     0
  9
$REGENMODE
 70
     1
  9
$FILLMODE
 70
     1
  9
$QTEXTMODE
 70
     0
  9
$MIRRTEXT
 70
     1
  9
$DRAGMODE
 70
     2
  9
$LTSCALE
 40
1.0
  9
$OSMODE
 70
     0
  9
$ATTMODE
 70
     1
  9
$TEXTSIZE
 40
0.2
  9
$TRACEWID
 40
0.05
  9
$TEXTSTYLE
  7
STANDARD
  9
$CLAYER
  8
トラップ
  9
$CELTYPE
  6
CONTINUOUS
  9
$CECOLOR
 62
   256
  9
$CELTSCALE
 40
1.0
  9
$DELOBJ
 70
     1
  9
$DISPSILH
 70
     0
  9
$DIMSCALE
 40
1.0
  9
$DIMASZ
 40
0.18
  9
$DIMEXO
 40
0.0625
  9
$DIMDLI
 40
0.38
  9
$DIMRND
 40
0.0
  9
$DIMDLE
 40
0.0
  9
$DIMEXE
 40
0.18
  9
$DIMTP
 40
0.0
  9
$DIMTM
 40
0.0
  9
$DIMTXT
 40
0.18
  9
$DIMCEN
 40
0.09
  9
$DIMTSZ
 40
0.0
  9
$DIMTOL
 70
     0
  9
$DIMLIM
 70
     0
  9
$DIMTIH
 70
     1
  9
$DIMTOH
 70
     1
  9
$DIMSE1
 70
     0
  9
$DIMSE2
 70
     0
  9
$DIMTAD
 70
     0
  9
$DIMZIN
 70
     0
  9
$DIMBLK
  1

  9
$DIMASO
 70
     1
  9
$DIMSHO
 70
     1
  9
$DIMPOST
  1

  9
$DIMAPOST
  1

  9
$DIMALT
 70
     0
  9
$DIMALTD
 70
     2
  9
$DIMALTF
 40
25.4
  9
$DIMLFAC
 40
1.0
  9
$DIMTOFL
 70
     0
  9
$DIMTVP
 40
0.0
  9
$DIMTIX
 70
     0
  9
$DIMSOXD
 70
     0
  9
$DIMSAH
 70
     0
  9
$DIMBLK1
  1

  9
$DIMBLK2
  1

  9
$DIMSTYLE
  2
STANDARD
  9
$DIMCLRD
 70
     0
  9
$DIMCLRE
 70
     0
  9
$DIMCLRT
 70
     0
  9
$DIMTFAC
 40
1.0
  9
$DIMGAP
 40
0.09
  9
$DIMJUST
 70
     0
  9
$DIMSD1
 70
     0
  9
$DIMSD2
 70
     0
  9
$DIMTOLJ
 70
     1
  9
$DIMTZIN
 70
     0
  9
$DIMALTZ
 70
     0
  9
$DIMALTTZ
 70
     0
  9
$DIMFIT
 70
     3
  9
$DIMUPT
 70
     0
  9
$DIMUNIT
 70
     2
  9
$DIMDEC
 70
     4
  9
$DIMTDEC
 70
     4
  9
$DIMALTU
 70
     2
  9
$DIMALTTD
 70
     2
  9
$DIMTXSTY
  7
STANDARD
  9
$DIMAUNIT
 70
     0
  9
$LUNITS
 70
     2
  9
$LUPREC
 70
     4
  9
$SKETCHINC
 40
0.1
  9
$FILLETRAD
 40
0.0
  9
$AUNITS
 70
     0
  9
$AUPREC
 70
     0
  9
$MENU
  1
acad
  9
$ELEVATION
 40
0.0
  9
$PELEVATION
 40
0.0
  9
$THICKNESS
 40
0.0
  9
$LIMCHECK
 70
     0
  9
$BLIPMODE
 70
     1
  9
$CHAMFERA
 40
0.0
  9
$CHAMFERB
 40
0.0
  9
$CHAMFERC
 40
0.0
  9
$CHAMFERD
 40
0.0
  9
$SKPOLY
 70
     0
  9
$TDCREATE
 40
2454512.642423750
  9
$TDUPDATE
 40
2454512.642423750
  9
$TDINDWG
 40
0.0000000000
  9
$TDUSRTIMER
 40
0.0000000000
  9
$USRTIMER
 70
     1
  9
$ANGBASE
 50
0.0
  9
$ANGDIR
 70
     0
  9
$PDMODE
 70
     0
  9
$PDSIZE
 40
0.0
  9
$PLINEWID
 40
0.0
  9
$COORDS
 70
     1
  9
$SPLFRAME
 70
     0
  9
$SPLINETYPE
 70
     6
  9
$SPLINESEGS
 70
     8
  9
$ATTDIA
 70
     0
  9
$ATTREQ
 70
     1
  9
$HANDLING
 70
     1
  9
$HANDSEED
  5
4AA
  9
$SURFTAB1
 70
     6
  9
$SURFTAB2
 70
     6
  9
$SURFTYPE
 70
     6
  9
$SURFU
 70
     6
  9
$SURFV
 70
     6
  9
$UCSNAME
  2

  9
$UCSORG
 10
0.0
 20
0.0
 30
0.0
  9
$UCSXDIR
 10
1.0
 20
0.0
 30
0.0
  9
$UCSYDIR
 10
0.0
 20
1.0
 30
0.0
  9
$PUCSNAME
  2

  9
$PUCSORG
 10
0.0
 20
0.0
 30
0.0
  9
$PUCSXDIR
 10
1.0
 20
0.0
 30
0.0
  9
$PUCSYDIR
 10
0.0
 20
1.0
 30
0.0
  9
$USERI1
 70
     0
  9
$USERI2
 70
     0
  9
$USERI3
 70
     0
  9
$USERI4
 70
     0
  9
$USERI5
 70
     0
  9
$USERR1
 40
0.0
  9
$USERR2
 40
0.0
  9
$USERR3
 40
0.0
  9
$USERR4
 40
0.0
  9
$USERR5
 40
0.0
  9
$WORLDVIEW
 70
     1
  9
$SHADEDGE
 70
     3
  9
$SHADEDIF
 70
    70
  9
$TILEMODE
 70
     1
  9
$MAXACTVP
 70
    16
  9
$PINSBASE
 10
0.0
 20
0.0
 30
0.0
  9
$PLIMCHECK
 70
     0
  9
$PEXTMIN
 10
1.000000E+20
 20
1.000000E+20
 30
1.000000E+20
  9
$PEXTMAX
 10
-1.000000E+20
 20
-1.000000E+20
 30
-1.000000E+20
  9
$PLIMMIN
 10
0.0
 20
0.0
  9
$PLIMMAX
 10
12.0
 20
9.0
  9
$UNITMODE
 70
     0
  9
$VISRETAIN
 70
     0
  9
$PLINEGEN
 70
     1
  9
$PSLTSCALE
 70
     0
  9
$TREEDEPTH
 70
  3020
  9
$PICKSTYLE
 70
     1
  9
$CMLSTYLE
  2
Standard
  9
$CMLJUST
 70
     0
  9
$CMLSCALE
 40
1.0
  9
$PROXYGRAPHICS
 70
     0
  9
$MEASUREMENT
 70
     0
  0
ENDSEC
  0
SECTION
  2
CLASSES
  0
CLASS
  1
LWPOLYLINE
  2
AcDbPolyline
  3
"AutoCAD"
 90
        0
280
     0
281
     1
  0
CLASS
  1
IMAGE
  2
AcDbRasterImage
  3
ISM
 90
      127
280
     0
281
     1
  0
CLASS
  1
OLE2FRAME
  2
AcDbOle2Frame
  3
""
 90
        0
280
     0
281
     1
  0
CLASS
  1
HATCH
  2
AcDbHatch
  3
"ACAD_SEDONA"
 90
        0
280
     0
281
     1
  0
CLASS
  1
DICTIONARYVAR
  2
AcDbDictionaryVar
  3
"AutoCAD"
 90
        0
280
     0
281
     0
  0
CLASS
  1
RASTERVARIABLES
  2
AcDbRasterVariables
  3
ISM
 90
        0
280
     0
281
     0
  0
CLASS
  1
IMAGEDEF
  2
AcDbRasterImageDef
  3
ISM
 90
        0
280
     0
281
     0
  0
CLASS
  1
IMAGEDEF_REACTOR
  2
AcDbRasterImageDefReactor
  3
ISM
 90
        1
280
     0
281
     0
  0
CLASS
  1
IDBUFFER
  2
AcDbIdBuffer
  3
"Acad"
 90
        0
280
     0
281
     0
  0
CLASS
  1
SPATIAL_FILTER
  2
AcDbSpatialFilter
  3
"Acad"
 90
        0
280
     0
281
     0
  0
CLASS
  1
XRECORD
  2
AcDbXrecord
  3
"<Built In>"
 90
        0
280
     0
281
     0
  0
CLASS
  1
SORTENTSTABLE
  2
AcDbSortentsTable
  3
"AutoCAD"
 90
        0
280
     0
281
     0
  0
CLASS
  1
LAYER_INDEX
  2
AcDbLayerIndex
  3
"Acad"
 90
        0
280
     0
281
     0
  0
CLASS
  1
SPATIAL_INDEX
  2
AcDbSpatialIndex
  3
"Acad"
 90
        0
280
     0
281
     0
  0
CLASS
  1
OBJECT_PTR
  2
CAseDLPNTableRecord
  3
"ASE-LPNTableRecord"
 90
        1
280
     0
281
     0
  0
CLASS
  1
LAYOUT
  2
AcDbLayout
  3
"AutoCAD 2000"
 90
        1
280
     0
281
     0
  0
CLASS
  1
PLOTSETTINGS
  2
AcDbPlotSettings
  3
"AutoCAD 2000"
 90
        1
280
     0
281
     0
  0
CLASS
  1
ACDBDICTIONARYWDFLT
  2
AcDbDictionaryWithDefault
  3
"AutoCAD 2000"
 90
        1
280
     0
281
     0
  0
CLASS
  1
ACDBPLACEHOLDER
  2
AcDbPlaceHolder
  3
"AutoCAD 2000"
 90
        1
280
     0
281
     0
  0
CLASS
  1
VBA_PROJECT
  2
AcDbVbaProject
  3
"acadvba"
 90
        1
280
     0
281
     0
  0
CLASS
  1
WIPEOUT
  2
AcDbWipeout
  3
WipeOut|AutoCAD Express Tool|expresstools@autodesk.com
 90
      127
280
     0
281
     1
  0
CLASS
  1
WIPEOUTVARIABLES
  2
AcDbWipeoutVariables
  3
WipeOut|AutoCAD Express Tool|expresstools@autodesk.com
 90
        0
280
     0
281
     0
  0
CLASS
  1
RTEXT
  2
RText
  3
RText|AutoCAD Express Tool|expresstools@autodesk.com
 90
        0
280
     0
281
     1
  0
CLASS
  1
ARCALIGNEDTEXT
  2
AcDbArcAlignedText
  3
ATEXT|AutoCAD Express Tool|expresstools@autodesk.com
 90
        0
280
     0
281
     1
  0
ENDSEC
  0
SECTION
  2
TABLES
  0
TABLE
  2
VPORT
  5
7
100
AcDbSymbolTable
 70
     1
  0
VPORT
  5
15
100
AcDbSymbolTableRecord
100
AcDbViewportTableRecord
  2
*ACTIVE
 70
     0
 10
0.0
 20
0.0
 11
1.0
 21
1.0
 12
989.0
 22
1515.0
 13
0.0
 23
0.0
 14
1.0
 24
1.0
 15
0.0
 25
0.0
 16
0.0
 26
0.0
 36
1.0
 17
0.0
 27
0.0
 37
0.0
 40
2800.0
 41
1.722533
 42
50.0
 43
0.0
 44
0.0
 50
0.0
 51
0.0
 71
     0
 72
   100
 73
     1
 74
     1
 75
     0
 76
     0
 77
     0
 78
     0
  0
ENDTAB
  0
TABLE
  2
LTYPE
  5
4
100
AcDbSymbolTable
 70
     9
  0
LTYPE
  5
11
100
AcDbSymbolTableRecord
100
AcDbLinetypeTableRecord
  2
BYBLOCK
 70
    64
  3

 72
    65
 73
     0
 40
0.0
  0
LTYPE
  5
12
100
AcDbSymbolTableRecord
100
AcDbLinetypeTableRecord
  2
BYLAYER
 70
    64
  3

 72
    65
 73
     0
 40
0.0
  0
LTYPE
  5
13
100
AcDbSymbolTableRecord
100
AcDbLinetypeTableRecord
  2
CONTINUOUS
 70
    64
  3
実線
 72
    65
 73
     0
 40
0.0
  0
LTYPE
  5
1D
100
AcDbSymbolTableRecord
100
AcDbLinetypeTableRecord
  2
EXLTYPE1
 70
    64
  3
破線
 72
    65
 73
     2
 40
3.0
 49
2.0
 74
     0
 49
-1.0
 74
     0
  0
LTYPE
  5
1E
100
AcDbSymbolTableRecord
100
AcDbLinetypeTableRecord
  2
EXLTYPE2
 70
    64
  3
点線
 72
    65
 73
     2
 40
2.0
 49
1.0
 74
     0
 49
-1.0
 74
     0
  0
LTYPE
  5
1F
100
AcDbSymbolTableRecord
100
AcDbLinetypeTableRecord
  2
EXLTYPE3
 70
    64
  3
一点鎖線
 72
    65
 73
     4
 40
10.0
 49
7.0
 74
     0
 49
-1.0
 74
     0
 49
1.0
 74
     0
 49
-1.0
 74
     0
  0
LTYPE
  5
20
100
AcDbSymbolTableRecord
100
AcDbLinetypeTableRecord
  2
EXLTYPE4
 70
    64
  3
二点鎖線
 72
    65
 73
     6
 40
12.0
 49
7.0
 74
     0
 49
-1.0
 74
     0
 49
1.0
 74
     0
 49
-1.0
 74
     0
 49
1.0
 74
     0
 49
-1.0
 74
     0
  0
LTYPE
  5
21
100
AcDbSymbolTableRecord
100
AcDbLinetypeTableRecord
  2
EXLTYPE5
 70
    64
  3
三点鎖線
 72
    65
 73
     8
 40
37.0
 49
30.0
 74
     0
 49
-1.0
 74
     0
 49
1.0
 74
     0
 49
-1.0
 74
     0
 49
1.0
 74
     0
 49
-1.0
 74
     0
 49
1.0
 74
     0
 49
-1.0
 74
     0
  0
LTYPE
  5
22
100
AcDbSymbolTableRecord
100
AcDbLinetypeTableRecord
  2
EXLTYPE6
 70
    64
  3
四点鎖線
 72
    65
 73
    10
 40
39.0
 49
30.0
 74
     0
 49
-1.0
 74
     0
 49
1.0
 74
     0
 49
-1.0
 74
     0
 49
1.0
 74
     0
 49
-1.0
 74
     0
 49
1.0
 74
     0
 49
-1.0
 74
     0
 49
1.0
 74
     0
 49
-1.0
 74
     0
  0
ENDTAB
  0
TABLE
  2
LAYER
  5
2
100
AcDbSymbolTable
 70
     7
  0
LAYER
  5
14
100
AcDbSymbolTableRecord
100
AcDbLayerTableRecord
  2
0
 70
     0
 62
     7
  6
CONTINUOUS
  0
LAYER
  5
25
100
AcDbSymbolTableRecord
100
AcDbLayerTableRecord
  2
枠
 70
    64
 62
     7
  6
CONTINUOUS
  0
LAYER
  5
26
100
AcDbSymbolTableRecord
100
AcDbLayerTableRecord
  2
洗面器
 70
    64
 62
     7
  6
CONTINUOUS
  0
LAYER
  5
27
100
AcDbSymbolTableRecord
100
AcDbLayerTableRecord
  2
水栓
 70
    64
 62
     7
  6
CONTINUOUS
  0
LAYER
  5
28
100
AcDbSymbolTableRecord
100
AcDbLayerTableRecord
  2
トラップ
 70
    64
 62
     7
  6
CONTINUOUS
  0
LAYER
  5
29
100
AcDbSymbolTableRecord
100
AcDbLayerTableRecord
  2
寸法
 70
    64
 62
     7
  6
CONTINUOUS
  0
LAYER
  5
2A
100
AcDbSymbolTableRecord
100
AcDbLayerTableRecord
  2
器具明細表
 70
    64
 62
     7
  6
CONTINUOUS
  0
ENDTAB
  0
TABLE
  2
STYLE
  5
3
100
AcDbSymbolTable
 70
     3
  0
STYLE
  5
17
100
AcDbSymbolTableRecord
100
AcDbTextStyleTableRecord
  2
STANDARD
 70
     0
 40
0.0
 41
1.0
 50
0.0
 71
     0
 42
0.0
  3
monotxt
  4
extfont
  0
STYLE
  5
23
100
AcDbSymbolTableRecord
100
AcDbTextStyleTableRecord
  2
EXCADSTD
 70
    64
 40
0.0
 41
1.0
 50
0.0
 71
     0
 42
0.2
  3
monotxt
  4
extfont
  0
STYLE
  5
24
100
AcDbSymbolTableRecord
100
AcDbTextStyleTableRecord
  2
EXCADVERT
 70
    68
 40
0.0
 41
1.0
 50
0.0
 71
     0
 42
0.286885
  3
monotxt
  4
extfont
  0
ENDTAB
  0
TABLE
  2
VIEW
  5
5
100
AcDbSymbolTable
 70
     0
  0
ENDTAB
  0
TABLE
  2
UCS
  5
6
100
AcDbSymbolTable
 70
     0
  0
ENDTAB
  0
TABLE
  2
APPID
  5
8
100
AcDbSymbolTable
 70
     1
  0
APPID
  5
16
100
AcDbSymbolTableRecord
100
AcDbRegAppTableRecord
  2
ACAD
 70
     0
  0
ENDTAB
  0
TABLE
  2
DIMSTYLE
  5
9
100
AcDbSymbolTable
 70
     1
  0
DIMSTYLE
105
18
100
AcDbSymbolTableRecord
100
AcDbDimStyleTableRecord
  2
STANDARD
 70
     0
  3

  4

  5

  6

  7

 40
1.0
 41
0.18
 42
0.0625
 43
0.38
 44
0.18
 45
0.0
 46
0.0
 47
0.0
 48
0.0
 71
     0
 72
     0
 73
     1
 74
     1
 75
     0
 76
     0
 77
     0
 78
     0
140
0.18
141
0.09
142
0.0
143
25.4
144
1.0
145
0.0
146
1.0
147
0.09
170
     0
171
     2
172
     1
173
     0
174
     0
175
     0
176
     0
177
     0
178
     0
270
     2
271
     4
272
     4
273
     2
274
     2
275
     0
280
     0
281
     0
282
     0
283
     1
284
     0
285
     0
286
     0
287
     0
288
     0
340
17
  0
ENDTAB
  0
TABLE
  2
BLOCK_RECORD
  5
1
100
AcDbSymbolTable
 70
    14
  0
BLOCK_RECORD
  5
A
100
AcDbSymbolTableRecord
100
AcDbBlockTableRecord
  2
*MODEL_SPACE
  0
BLOCK_RECORD
  5
B
100
AcDbSymbolTableRecord
100
AcDbBlockTableRecord
  2
*PAPER_SPACE
  0
BLOCK_RECORD
  5
2B
100
AcDbSymbolTableRecord
100
AcDbBlockTableRecord
  2
_EX_NORM
  0
BLOCK_RECORD
  5
2C
100
AcDbSymbolTableRecord
100
AcDbBlockTableRecord
  2
_EX_BNORM
  0
BLOCK_RECORD
  5
2D
100
AcDbSymbolTableRecord
100
AcDbBlockTableRecord
  2
_EX_BCIR
  0
BLOCK_RECORD
  5
2E
100
AcDbSymbolTableRecord
100
AcDbBlockTableRecord
  2
_EX_RCIVIL
  0
BLOCK_RECORD
  5
2F
100
AcDbSymbolTableRecord
100
AcDbBlockTableRecord
  2
_EX_SLANT
  0
BLOCK_RECORD
  5
30
100
AcDbSymbolTableRecord
100
AcDbBlockTableRecord
  2
_EX_NONE
  0
BLOCK_RECORD
  5
31
100
AcDbSymbolTableRecord
100
AcDbBlockTableRecord
  2
_EX_CIVIL
  0
BLOCK_RECORD
  5
32
100
AcDbSymbolTableRecord
100
AcDbBlockTableRecord
  2
_EX_WCIR
  0
BLOCK_RECORD
  5
33
100
AcDbSymbolTableRecord
100
AcDbBlockTableRecord
  2
_EX_WCIR2
  0
BLOCK_RECORD
  5
34
100
AcDbSymbolTableRecord
100
AcDbBlockTableRecord
  2
_EX_WNORM
  0
BLOCK_RECORD
  5
35
100
AcDbSymbolTableRecord
100
AcDbBlockTableRecord
  2
_EX_NNORM
  0
BLOCK_RECORD
  5
36
100
AcDbSymbolTableRecord
100
AcDbBlockTableRecord
  2
_EX_BBOX
  0
BLOCK_RECORD
  5
37
100
AcDbSymbolTableRecord
100
AcDbBlockTableRecord
  2
_EX_WBOX
  0
BLOCK_RECORD
  5
38
100
AcDbSymbolTableRecord
100
AcDbBlockTableRecord
  2
_EX_INTEGRAL
  0
ENDTAB
  0
ENDSEC
  0
SECTION
  2
BLOCKS
  0
BLOCK
  5
D
100
AcDbEntity
  8
0
100
AcDbBlockBegin
  2
*MODEL_SPACE
 70
     0
 10
0.0
 20
0.0
 30
0.0
  3
*MODEL_SPACE
  1

  0
ENDBLK
  5
E
100
AcDbEntity
  8
0
100
AcDbBlockEnd
  0
BLOCK
  5
F
100
AcDbEntity
 67
     1
  8
0
100
AcDbBlockBegin
  2
*PAPER_SPACE
 70
     0
 10
0.0
 20
0.0
 30
0.0
  3
*PAPER_SPACE
  1

  0
ENDBLK
  5
10
100
AcDbEntity
 67
     1
  8
0
100
AcDbBlockEnd
  0
BLOCK
  5
39
100
AcDbEntity
  8
0
100
AcDbBlockBegin
  2
_EX_NORM
 70
     0
 10
0.0
 20
0.0
 30
0.0
  3
_EX_NORM
  1

  0
LINE
  5
3A
100
AcDbEntity
  8
0
  6
CONTINUOUS
 62
     0
100
AcDbLine
 10
0.0
 20
0.0
 30
0.0
 11
-1.0
 21
0.0
 31
0.0
  0
LINE
  5
3B
100
AcDbEntity
  8
0
  6
CONTINUOUS
 62
     0
100
AcDbLine
 10
0.0
 20
0.0
 30
0.0
 11
-1.0
 21
0.166667
 31
0.0
  0
LINE
  5
3C
100
AcDbEntity
  8
0
  6
CONTINUOUS
 62
     0
100
AcDbLine
 10
0.0
 20
0.0
 30
0.0
 11
-1.0
 21
-0.166667
 31
0.0
  0
ENDBLK
  5
3D
100
AcDbEntity
  8
0
100
AcDbBlockEnd
  0
BLOCK
  5
3E
100
AcDbEntity
  8
0
100
AcDbBlockBegin
  2
_EX_BNORM
 70
     0
 10
0.0
 20
0.0
 30
0.0
  3
_EX_BNORM
  1

  0
LINE
  5
3F
100
AcDbEntity
  8
0
  6
CONTINUOUS
 62
     0
100
AcDbLine
 10
0.0
 20
0.0
 30
0.0
 11
-1.0
 21
0.0
 31
0.0
  0
LINE
  5
40
100
AcDbEntity
  8
0
  6
CONTINUOUS
 62
     0
100
AcDbLine
 10
0.0
 20
0.0
 30
0.0
 11
-1.0
 21
0.166667
 31
0.0
  0
LINE
  5
41
100
AcDbEntity
  8
0
  6
CONTINUOUS
 62
     0
100
AcDbLine
 10
0.0
 20
0.0
 30
0.0
 11
-1.0
 21
-0.166667
 31
0.0
  0
LINE
  5
42
100
AcDbEntity
  8
0
  6
CONTINUOUS
 62
     0
100
AcDbLine
 10
0.0
 20
0.0
 30
0.0
 11
-1.0
 21
0.083333
 31
0.0
  0
LINE
  5
43
100
AcDbEntity
  8
0
  6
CONTINUOUS
 62
     0
100
AcDbLine
 10
0.0
 20
0.0
 30
0.0
 11
-1.0
 21
-0.083333
 31
0.0
  0
LINE
  5
44
100
AcDbEntity
  8
0
  6
CONTINUOUS
 62
     0
100
AcDbLine
 10
-1.0
 20
0.166667
 30
0.0
 11
-1.0
 21
-0.166667
 31
0.0
  0
ENDBLK
  5
45
100
AcDbEntity
  8
0
100
AcDbBlockEnd
  0
BLOCK
  5
46
100
AcDbEntity
  8
0
100
AcDbBlockBegin
  2
_EX_BCIR
 70
     0
 10
0.0
 20
0.0
 30
0.0
  3
_EX_BCIR
  1

  0
LINE
  5
47
100
AcDbEntity
  8
0
  6
CONTINUOUS
 62
     0
100
AcDbLine
 10
0.0
 20
0.0
 30
0.0
 11
-1.0
 21
0.0
 31
0.0
  0
CIRCLE
  5
48
100
AcDbEntity
  8
0
  6
CONTINUOUS
 62
     0
100
AcDbCircle
 10
0.0
 20
0.0
 30
0.0
 40
0.5
  0
CIRCLE
  5
49
100
AcDbEntity
  8
0
  6
CONTINUOUS
 62
     0
100
AcDbCircle
 10
0.0
 20
0.0
 30
0.0
 40
0.25
  0
ENDBLK
  5
4A
100
AcDbEntity
  8
0
100
AcDbBlockEnd
  0
BLOCK
  5
4B
100
AcDbEntity
  8
0
100
AcDbBlockBegin
  2
_EX_RCIVIL
 70
     0
 10
0.0
 20
0.0
 30
0.0
  3
_EX_RCIVIL
  1

  0
LINE
  5
4C
100
AcDbEntity
  8
0
  6
CONTINUOUS
 62
     0
100
AcDbLine
 10
0.0
 20
0.0
 30
0.0
 11
-1.0
 21
0.0
 31
0.0
  0
LINE
  5
4D
100
AcDbEntity
  8
0
  6
CONTINUOUS
 62
     0
100
AcDbLine
 10
-1.0
 20
-0.25
 30
0.0
 11
0.0
 21
-0.25
 31
0.0
  0
LINE
  5
4E
100
AcDbEntity
  8
0
  6
CONTINUOUS
 62
     0
100
AcDbLine
 10
-1.0
 20
-0.125
 30
0.0
 11
0.0
 21
-0.125
 31
0.0
  0
ENDBLK
  5
4F
100
AcDbEntity
  8
0
100
AcDbBlockEnd
  0
BLOCK
  5
50
100
AcDbEntity
  8
0
100
AcDbBlockBegin
  2
_EX_SLANT
 70
     0
 10
0.0
 20
0.0
 30
0.0
  3
_EX_SLANT
  1

  0
LINE
  5
51
100
AcDbEntity
  8
0
  6
CONTINUOUS
 62
     0
100
AcDbLine
 10
0.0
 20
0.0
 30
0.0
 11
-1.0
 21
0.0
 31
0.0
  0
LINE
  5
52
100
AcDbEntity
  8
0
  6
CONTINUOUS
 62
     0
100
AcDbLine
 10
0.707107
 20
0.707107
 30
0.0
 11
-0.707107
 21
-0.707107
 31
0.0
  0
ENDBLK
  5
53
100
AcDbEntity
  8
0
100
AcDbBlockEnd
  0
BLOCK
  5
54
100
AcDbEntity
  8
0
100
AcDbBlockBegin
  2
_EX_NONE
 70
     0
 10
0.0
 20
0.0
 30
0.0
  3
_EX_NONE
  1

  0
LINE
  5
55
100
AcDbEntity
  8
0
  6
CONTINUOUS
 62
     0
100
AcDbLine
 10
0.0
 20
0.0
 30
0.0
 11
-1.0
 21
0.0
 31
0.0
  0
ENDBLK
  5
56
100
AcDbEntity
  8
0
100
AcDbBlockEnd
  0
BLOCK
  5
57
100
AcDbEntity
  8
0
100
AcDbBlockBegin
  2
_EX_CIVIL
 70
     0
 10
0.0
 20
0.0
 30
0.0
  3
_EX_CIVIL
  1

  0
LINE
  5
58
100
AcDbEntity
  8
0
  6
CONTINUOUS
 62
     0
100
AcDbLine
 10
0.0
 20
0.0
 30
0.0
 11
-1.0
 21
0.0
 31
0.0
  0
LINE
  5
59
100
AcDbEntity
  8
0
  6
CONTINUOUS
 62
     0
100
AcDbLine
 10
-1.0
 20
0.25
 30
0.0
 11
0.0
 21
0.25
 31
0.0
  0
LINE
  5
5A
100
AcDbEntity
  8
0
  6
CONTINUOUS
 62
     0
100
AcDbLine
 10
-1.0
 20
0.125
 30
0.0
 11
0.0
 21
0.125
 31
0.0
  0
ENDBLK
  5
5B
100
AcDbEntity
  8
0
100
AcDbBlockEnd
  0
BLOCK
  5
5C
100
AcDbEntity
  8
0
100
AcDbBlockBegin
  2
_EX_WCIR
 70
     0
 10
0.0
 20
0.0
 30
0.0
  3
_EX_WCIR
  1

  0
LINE
  5
5D
100
AcDbEntity
  8
0
  6
CONTINUOUS
 62
     0
100
AcDbLine
 10
0.0
 20
0.0
 30
0.0
 11
-1.0
 21
0.0
 31
0.0
  0
CIRCLE
  5
5E
100
AcDbEntity
  8
0
  6
CONTINUOUS
 62
     0
100
AcDbCircle
 10
0.0
 20
0.0
 30
0.0
 40
0.5
  0
ENDBLK
  5
5F
100
AcDbEntity
  8
0
100
AcDbBlockEnd
  0
BLOCK
  5
60
100
AcDbEntity
  8
0
100
AcDbBlockBegin
  2
_EX_WCIR2
 70
     0
 10
0.0
 20
0.0
 30
0.0
  3
_EX_WCIR2
  1

  0
LINE
  5
61
100
AcDbEntity
  8
0
  6
CONTINUOUS
 62
     0
100
AcDbLine
 10
-0.5
 20
0.0
 30
0.0
 11
-1.0
 21
0.0
 31
0.0
  0
CIRCLE
  5
62
100
AcDbEntity
  8
0
  6
CONTINUOUS
 62
     0
100
AcDbCircle
 10
0.0
 20
0.0
 30
0.0
 40
0.5
  0
ENDBLK
  5
63
100
AcDbEntity
  8
0
100
AcDbBlockEnd
  0
BLOCK
  5
64
100
AcDbEntity
  8
0
100
AcDbBlockBegin
  2
_EX_WNORM
 70
     0
 10
0.0
 20
0.0
 30
0.0
  3
_EX_WNORM
  1

  0
LINE
  5
65
100
AcDbEntity
  8
0
  6
CONTINUOUS
 62
     0
100
AcDbLine
 10
-1.0
 20
0.0
 30
0.0
 11
-1.0
 21
0.0
 31
0.0
  0
LINE
  5
66
100
AcDbEntity
  8
0
  6
CONTINUOUS
 62
     0
100
AcDbLine
 10
0.0
 20
0.0
 30
0.0
 11
-1.0
 21
0.166667
 31
0.0
  0
LINE
  5
67
100
AcDbEntity
  8
0
  6
CONTINUOUS
 62
     0
100
AcDbLine
 10
0.0
 20
0.0
 30
0.0
 11
-1.0
 21
-0.166667
 31
0.0
  0
LINE
  5
68
100
AcDbEntity
  8
0
  6
CONTINUOUS
 62
     0
100
AcDbLine
 10
-1.0
 20
0.166667
 30
0.0
 11
-1.0
 21
-0.166667
 31
0.0
  0
ENDBLK
  5
69
100
AcDbEntity
  8
0
100
AcDbBlockEnd
  0
BLOCK
  5
6A
100
AcDbEntity
  8
0
100
AcDbBlockBegin
  2
_EX_NNORM
 70
     0
 10
0.0
 20
0.0
 30
0.0
  3
_EX_NNORM
  1

  0
LINE
  5
6B
100
AcDbEntity
  8
0
  6
CONTINUOUS
 62
     0
100
AcDbLine
 10
0.0
 20
0.0
 30
0.0
 11
-1.0
 21
0.0
 31
0.0
  0
LINE
  5
6C
100
AcDbEntity
  8
0
  6
CONTINUOUS
 62
     0
100
AcDbLine
 10
0.0
 20
0.0
 30
0.0
 11
-1.0
 21
0.166667
 31
0.0
  0
LINE
  5
6D
100
AcDbEntity
  8
0
  6
CONTINUOUS
 62
     0
100
AcDbLine
 10
0.0
 20
0.0
 30
0.0
 11
-1.0
 21
-0.166667
 31
0.0
  0
LINE
  5
6E
100
AcDbEntity
  8
0
  6
CONTINUOUS
 62
     0
100
AcDbLine
 10
-1.0
 20
0.166667
 30
0.0
 11
-1.0
 21
-0.166667
 31
0.0
  0
ENDBLK
  5
6F
100
AcDbEntity
  8
0
100
AcDbBlockEnd
  0
BLOCK
  5
70
100
AcDbEntity
  8
0
100
AcDbBlockBegin
  2
_EX_BBOX
 70
     0
 10
0.0
 20
0.0
 30
0.0
  3
_EX_BBOX
  1

  0
LINE
  5
71
100
AcDbEntity
  8
0
  6
CONTINUOUS
 62
     0
100
AcDbLine
 10
0.0
 20
0.0
 30
0.0
 11
-1.0
 21
0.0
 31
0.0
  0
LINE
  5
72
100
AcDbEntity
  8
0
  6
CONTINUOUS
 62
     0
100
AcDbLine
 10
-0.5
 20
0.5
 30
0.0
 11
0.5
 21
0.5
 31
0.0
  0
LINE
  5
73
100
AcDbEntity
  8
0
  6
CONTINUOUS
 62
     0
100
AcDbLine
 10
0.5
 20
0.5
 30
0.0
 11
0.5
 21
-0.5
 31
0.0
  0
LINE
  5
74
100
AcDbEntity
  8
0
  6
CONTINUOUS
 62
     0
100
AcDbLine
 10
0.5
 20
-0.5
 30
0.0
 11
-0.5
 21
-0.5
 31
0.0
  0
LINE
  5
75
100
AcDbEntity
  8
0
  6
CONTINUOUS
 62
     0
100
AcDbLine
 10
-0.5
 20
-0.5
 30
0.0
 11
-0.5
 21
0.5
 31
0.0
  0
LINE
  5
76
100
AcDbEntity
  8
0
  6
CONTINUOUS
 62
     0
100
AcDbLine
 10
-0.25
 20
0.25
 30
0.0
 11
0.25
 21
0.25
 31
0.0
  0
LINE
  5
77
100
AcDbEntity
  8
0
  6
CONTINUOUS
 62
     0
100
AcDbLine
 10
0.25
 20
0.25
 30
0.0
 11
0.25
 21
-0.25
 31
0.0
  0
LINE
  5
78
100
AcDbEntity
  8
0
  6
CONTINUOUS
 62
     0
100
AcDbLine
 10
0.25
 20
-0.25
 30
0.0
 11
-0.25
 21
-0.25
 31
0.0
  0
LINE
  5
79
100
AcDbEntity
  8
0
  6
CONTINUOUS
 62
     0
100
AcDbLine
 10
-0.25
 20
-0.25
 30
0.0
 11
-0.25
 21
0.25
 31
0.0
  0
ENDBLK
  5
7A
100
AcDbEntity
  8
0
100
AcDbBlockEnd
  0
BLOCK
  5
7B
100
AcDbEntity
  8
0
100
AcDbBlockBegin
  2
_EX_WBOX
 70
     0
 10
0.0
 20
0.0
 30
0.0
  3
_EX_WBOX
  1

  0
LINE
  5
7C
100
AcDbEntity
  8
0
  6
CONTINUOUS
 62
     0
100
AcDbLine
 10
-0.5
 20
0.0
 30
0.0
 11
-1.0
 21
0.0
 31
0.0
  0
LINE
  5
7D
100
AcDbEntity
  8
0
  6
CONTINUOUS
 62
     0
100
AcDbLine
 10
-0.5
 20
0.5
 30
0.0
 11
0.5
 21
0.5
 31
0.0
  0
LINE
  5
7E
100
AcDbEntity
  8
0
  6
CONTINUOUS
 62
     0
100
AcDbLine
 10
0.5
 20
0.5
 30
0.0
 11
0.5
 21
-0.5
 31
0.0
  0
LINE
  5
7F
100
AcDbEntity
  8
0
  6
CONTINUOUS
 62
     0
100
AcDbLine
 10
0.5
 20
-0.5
 30
0.0
 11
-0.5
 21
-0.5
 31
0.0
  0
LINE
  5
80
100
AcDbEntity
  8
0
  6
CONTINUOUS
 62
     0
100
AcDbLine
 10
-0.5
 20
-0.5
 30
0.0
 11
-0.5
 21
0.5
 31
0.0
  0
ENDBLK
  5
81
100
AcDbEntity
  8
0
100
AcDbBlockEnd
  0
BLOCK
  5
82
100
AcDbEntity
  8
0
100
AcDbBlockBegin
  2
_EX_INTEGRAL
 70
     0
 10
0.0
 20
0.0
 30
0.0
  3
_EX_INTEGRAL
  1

  0
LINE
  5
83
100
AcDbEntity
  8
0
  6
CONTINUOUS
 62
     0
100
AcDbLine
 10
0.0
 20
0.0
 30
0.0
 11
-1.0
 21
0.0
 31
0.0
  0
ARC
  5
84
100
AcDbEntity
  8
0
  6
CONTINUOUS
 62
     0
100
AcDbCircle
 10
0.542115
 20
0.164992
 30
0.0
 40
0.56667
100
AcDbArc
 50
73.07249
 51
196.927513
  0
ARC
  5
85
100
AcDbEntity
  8
0
  6
CONTINUOUS
 62
     0
100
AcDbCircle
 10
-0.542115
 20
-0.164992
 30
0.0
 40
0.56667
100
AcDbArc
 50
253.072487
 51
16.927513
  0
ENDBLK
  5
86
100
AcDbEntity
  8
0
100
AcDbBlockEnd
  0
ENDSEC
  0
SECTION
  2
ENTITIES
  0
TEXT
  5
87
100
AcDbEntity
  8
洗面器
  6
CONTINUOUS
 62
     2
100
AcDbText
 10
877.191925
 20
1937.000696
 30
0.0
 40
40.0
  1
２３５
 50
90.0
 41
0.833
  7
EXCADSTD
 72
     5
 11
877.191925
 21
2056.000695
 31
0.0
100
AcDbText
  0
LINE
  5
88
100
AcDbEntity
  8
洗面器
  6
CONTINUOUS
 62
     3
100
AcDbLine
 10
880.691925
 20
2114.0
 30
0.0
 11
880.691925
 21
1879.001391
 31
0.0
  0
LINE
  5
89
100
AcDbEntity
  8
洗面器
  6
CONTINUOUS
 62
     3
100
AcDbLine
 10
886.525258
 20
2079.0
 30
0.0
 11
880.691925
 21
2114.0
 31
0.0
  0
LINE
  5
8A
100
AcDbEntity
  8
洗面器
  6
CONTINUOUS
 62
     3
100
AcDbLine
 10
880.691925
 20
2114.0
 30
0.0
 11
874.858592
 21
2079.0
 31
0.0
  0
LINE
  5
8B
100
AcDbEntity
  8
洗面器
  6
CONTINUOUS
 62
     3
100
AcDbLine
 10
874.858592
 20
1914.001391
 30
0.0
 11
880.691925
 21
1879.001391
 31
0.0
  0
LINE
  5
8C
100
AcDbEntity
  8
洗面器
  6
CONTINUOUS
 62
     3
100
AcDbLine
 10
880.691925
 20
1879.001391
 30
0.0
 11
886.525258
 21
1914.001391
 31
0.0
  0
TEXT
  5
8D
100
AcDbEntity
  8
洗面器
  6
CONTINUOUS
 62
     2
100
AcDbText
 10
937.191925
 20
1937.001391
 30
0.0
 40
40.0
  1
１８０
 50
90.0
 41
0.833
  7
EXCADSTD
 72
     5
 11
937.191925
 21
2056.001391
 31
0.0
100
AcDbText
  0
LINE
  5
8E
100
AcDbEntity
  8
洗面器
  6
CONTINUOUS
 62
     3
100
AcDbLine
 10
940.691925
 20
2086.501391
 30
0.0
 11
940.691925
 21
1906.501391
 31
0.0
  0
LINE
  5
8F
100
AcDbEntity
  8
洗面器
  6
CONTINUOUS
 62
     3
100
AcDbLine
 10
946.525258
 20
2051.501391
 30
0.0
 11
940.691925
 21
2086.501391
 31
0.0
  0
LINE
  5
90
100
AcDbEntity
  8
洗面器
  6
CONTINUOUS
 62
     3
100
AcDbLine
 10
940.691925
 20
2086.501391
 30
0.0
 11
934.858592
 21
2051.501391
 31
0.0
  0
LINE
  5
91
100
AcDbEntity
  8
洗面器
  6
CONTINUOUS
 62
     3
100
AcDbLine
 10
934.858592
 20
1941.501391
 30
0.0
 11
940.691925
 21
1906.501391
 31
0.0
  0
LINE
  5
92
100
AcDbEntity
  8
洗面器
  6
CONTINUOUS
 62
     3
100
AcDbLine
 10
940.691925
 20
1906.501391
 30
0.0
 11
946.525258
 21
1941.501391
 31
0.0
  0
TEXT
  5
93
100
AcDbEntity
  8
洗面器
  6
CONTINUOUS
 62
     2
100
AcDbText
 10
1329.191925
 20
2033.000704
 30
0.0
 40
40.0
  1
８０
 50
90.0
 41
0.861
  7
EXCADSTD
 72
     5
 11
1329.191925
 21
2108.161904
 31
0.0
100
AcDbText
  0
LINE
  5
94
100
AcDbEntity
  8
洗面器
  6
CONTINUOUS
 62
     3
100
AcDbLine
 10
1332.691925
 20
1989.001407
 30
0.0
 11
1332.691925
 21
2159.0
 31
0.0
  0
LINE
  5
95
100
AcDbEntity
  8
洗面器
  6
CONTINUOUS
 62
     3
100
AcDbLine
 10
1338.525258
 20
1999.001407
 30
0.0
 11
1332.691925
 21
2034.001407
 31
0.0
  0
LINE
  5
96
100
AcDbEntity
  8
洗面器
  6
CONTINUOUS
 62
     3
100
AcDbLine
 10
1332.691925
 20
2034.001407
 30
0.0
 11
1326.858592
 21
1999.001407
 31
0.0
  0
LINE
  5
97
100
AcDbEntity
  8
洗面器
  6
CONTINUOUS
 62
     3
100
AcDbLine
 10
1326.858592
 20
2149.0
 30
0.0
 11
1332.691925
 21
2114.0
 31
0.0
  0
LINE
  5
98
100
AcDbEntity
  8
洗面器
  6
CONTINUOUS
 62
     3
100
AcDbLine
 10
1332.691925
 20
2114.0
 30
0.0
 11
1338.525258
 21
2149.0
 31
0.0
  0
TEXT
  5
99
100
AcDbEntity
  8
洗面器
  6
CONTINUOUS
 62
     2
100
AcDbText
 10
1329.191925
 20
1336.499992
 30
0.0
 40
40.0
  1
３０
 50
90.0
 41
0.861
  7
EXCADSTD
 72
     5
 11
1329.191925
 21
1411.661192
 31
0.0
100
AcDbText
  0
LINE
  5
9A
100
AcDbEntity
  8
洗面器
  6
CONTINUOUS
 62
     3
100
AcDbLine
 10
1332.691925
 20
1402.53252
 30
0.0
 11
1332.691925
 21
1234.999984
 31
0.0
  0
LINE
  5
9B
100
AcDbEntity
  8
洗面器
  6
CONTINUOUS
 62
     3
100
AcDbLine
 10
1326.858592
 20
1345.0
 30
0.0
 11
1332.691925
 21
1310.0
 31
0.0
  0
LINE
  5
9C
100
AcDbEntity
  8
洗面器
  6
CONTINUOUS
 62
     3
100
AcDbLine
 10
1332.691925
 20
1310.0
 30
0.0
 11
1338.525258
 21
1345.0
 31
0.0
  0
LINE
  5
9D
100
AcDbEntity
  8
洗面器
  6
CONTINUOUS
 62
     3
100
AcDbLine
 10
1338.525258
 20
1244.999984
 30
0.0
 11
1332.691925
 21
1279.999984
 31
0.0
  0
LINE
  5
9E
100
AcDbEntity
  8
洗面器
  6
CONTINUOUS
 62
     3
100
AcDbLine
 10
1332.691925
 20
1279.999984
 30
0.0
 11
1326.858592
 21
1244.999984
 31
0.0
  0
TEXT
  5
9F
100
AcDbEntity
  8
洗面器
  6
CONTINUOUS
 62
     2
100
AcDbText
 10
937.191925
 20
1334.100014
 30
0.0
 40
40.0
  1
５０
 50
90.0
 41
0.861
  7
EXCADSTD
 72
     5
 11
937.191925
 21
1409.261214
 31
0.0
100
AcDbText
  0
TEXT
  5
A0
100
AcDbEntity
  8
洗面器
  6
CONTINUOUS
 62
     2
100
AcDbText
 10
937.191925
 20
1128.0
 30
0.0
 40
40.0
  1
１４５
 50
90.0
 41
0.833
  7
EXCADSTD
 72
     5
 11
937.191925
 21
1247.0
 31
0.0
100
AcDbText
  0
LINE
  5
A1
100
AcDbEntity
  8
洗面器
  6
CONTINUOUS
 62
     3
100
AcDbLine
 10
940.691925
 20
1260.0
 30
0.0
 11
940.691925
 21
1115.0
 31
0.0
  0
LINE
  5
A2
100
AcDbEntity
  8
洗面器
  6
CONTINUOUS
 62
     3
100
AcDbLine
 10
946.525258
 20
1225.0
 30
0.0
 11
940.691925
 21
1260.0
 31
0.0
  0
LINE
  5
A3
100
AcDbEntity
  8
洗面器
  6
CONTINUOUS
 62
     3
100
AcDbLine
 10
940.691925
 20
1260.0
 30
0.0
 11
934.858592
 21
1225.0
 31
0.0
  0
LINE
  5
A4
100
AcDbEntity
  8
洗面器
  6
CONTINUOUS
 62
     3
100
AcDbLine
 10
934.858592
 20
1150.0
 30
0.0
 11
940.691925
 21
1115.0
 31
0.0
  0
LINE
  5
A5
100
AcDbEntity
  8
洗面器
  6
CONTINUOUS
 62
     3
100
AcDbLine
 10
940.691925
 20
1115.0
 30
0.0
 11
946.525258
 21
1150.0
 31
0.0
  0
LEADER
  5
A6
100
AcDbEntity
  8
洗面器
  6
CONTINUOUS
 62
     6
100
AcDbLeader
  3
STANDARD
 73
     3
 74
     1
 75
     0
 40
0.0
 76
     2
 10
1157.505115
 20
1283.75
 30
0.0
 10
938.8337
 20
1410.0
 30
0.0
 77
     6
1001
ACAD
1000
DSTYLE
1002
{
1070
    41
1040
35.0
1070
     5
1000
_EX_NORM
1070
     6
1000
_EX_NORM
1070
     7
1000
_EX_NORM
1070
   341
1005
2B
1002
}
  0
LEADER
  5
A7
100
AcDbEntity
  8
水栓
  6
CONTINUOUS
 62
     6
100
AcDbLeader
  3
STANDARD
 73
     3
 74
     1
 75
     0
 40
0.0
 76
     2
 10
1124.537216
 20
1407.146714
 30
0.0
 10
984.02407
 20
1488.272016
 30
0.0
 77
     6
1001
ACAD
1000
DSTYLE
1002
{
1070
    41
1040
35.0
1070
     5
1000
_EX_NORM
1070
     6
1000
_EX_NORM
1070
     7
1000
_EX_NORM
1070
   341
1005
2B
1002
}
  0
LEADER
  5
A8
100
AcDbEntity
  8
水栓
  6
CONTINUOUS
 62
     6
100
AcDbLeader
  3
STANDARD
 73
     3
 74
     1
 75
     0
 40
0.0
 76
     2
 10
1147.741993
 20
486.13316
 30
0.0
 10
1109.285059
 20
419.523798
 30
0.0
 77
     6
1001
ACAD
1000
DSTYLE
1002
{
1070
    41
1040
35.0
1070
     5
1000
_EX_NORM
1070
     6
1000
_EX_NORM
1070
     7
1000
_EX_NORM
1070
   341
1005
2B
1002
}
  0
POLYLINE
  5
A9
100
AcDbEntity
  8
トラップ
  6
CONTINUOUS
 62
     6
100
AcDb2dPolyline
 66
     1
 10
0.0
 20
0.0
 30
0.0
 70
   128
  0
VERTEX
  5
AA
100
AcDbEntity
  8
トラップ
  6
CONTINUOUS
 62
     6
100
AcDbVertex
100
AcDb2dVertex
 10
1251.4
 20
1420.4775
 30
0.0
  0
VERTEX
  5
AB
100
AcDbEntity
  8
トラップ
  6
CONTINUOUS
 62
     6
100
AcDbVertex
100
AcDb2dVertex
 10
1279.536404
 20
1469.211181
 30
0.0
  0
SEQEND
  5
AC
100
AcDbEntity
  8
トラップ
  6
CONTINUOUS
 62
     6
  0
LINE
  5
AD
100
AcDbEntity
  8
トラップ
  6
CONTINUOUS
 62
     6
100
AcDbLine
 10
1263.848185
 20
1453.705056
 30
0.0
 11
1251.4
 21
1420.4775
 31
0.0
  0
LINE
  5
AE
100
AcDbEntity
  8
トラップ
  6
CONTINUOUS
 62
     6
100
AcDbLine
 10
1251.4
 20
1420.4775
 30
0.0
 11
1273.951815
 21
1447.871722
 31
0.0
  0
LEADER
  5
AF
100
AcDbEntity
  8
トラップ
  6
CONTINUOUS
 62
     6
100
AcDbLeader
  3
STANDARD
 73
     3
 74
     1
 75
     0
 40
0.0
 76
     2
 10
1146.700348
 20
2134.185253
 30
0.0
 10
1182.506176
 20
2196.202766
 30
0.0
 77
     6
1001
ACAD
1000
DSTYLE
1002
{
1070
    41
1040
35.0
1070
     5
1000
_EX_NORM
1070
     6
1000
_EX_NORM
1070
     7
1000
_EX_NORM
1070
   341
1005
2B
1002
}
  0
POLYLINE
  5
B0
100
AcDbEntity
  8
トラップ
  6
CONTINUOUS
 62
     6
100
AcDb2dPolyline
 66
     1
 10
0.0
 20
0.0
 30
0.0
 70
   128
  0
VERTEX
  5
B1
100
AcDbEntity
  8
トラップ
  6
CONTINUOUS
 62
     6
100
AcDbVertex
100
AcDb2dVertex
 10
1121.300262
 20
922.332519
 30
0.0
  0
VERTEX
  5
B2
100
AcDbEntity
  8
トラップ
  6
CONTINUOUS
 62
     6
100
AcDbVertex
100
AcDb2dVertex
 10
1091.788663
 20
871.21693
 30
0.0
  0
SEQEND
  5
B3
100
AcDbEntity
  8
トラップ
  6
CONTINUOUS
 62
     6
  0
LINE
  5
B4
100
AcDbEntity
  8
トラップ
  6
CONTINUOUS
 62
     6
100
AcDbLine
 10
1108.852077
 20
889.104964
 30
0.0
 11
1121.300262
 21
922.332519
 31
0.0
  0
LINE
  5
B5
100
AcDbEntity
  8
トラップ
  6
CONTINUOUS
 62
     6
100
AcDbLine
 10
1121.300262
 20
922.332519
 30
0.0
 11
1098.748448
 21
894.938297
 31
0.0
  0
POLYLINE
  5
B6
100
AcDbEntity
  8
トラップ
  6
CONTINUOUS
 62
     6
100
AcDb2dPolyline
 66
     1
 10
0.0
 20
0.0
 30
0.0
 70
   128
  0
VERTEX
  5
B7
100
AcDbEntity
  8
トラップ
  6
CONTINUOUS
 62
     6
100
AcDbVertex
100
AcDb2dVertex
 10
1147.700256
 20
679.0
 30
0.0
  0
VERTEX
  5
B8
100
AcDbEntity
  8
トラップ
  6
CONTINUOUS
 62
     6
100
AcDbVertex
100
AcDb2dVertex
 10
1118.188657
 20
627.884411
 30
0.0
  0
SEQEND
  5
B9
100
AcDbEntity
  8
トラップ
  6
CONTINUOUS
 62
     6
  0
LINE
  5
BA
100
AcDbEntity
  8
トラップ
  6
CONTINUOUS
 62
     6
100
AcDbLine
 10
1135.252071
 20
645.772444
 30
0.0
 11
1147.700256
 21
679.0
 31
0.0
  0
LINE
  5
BB
100
AcDbEntity
  8
トラップ
  6
CONTINUOUS
 62
     6
100
AcDbLine
 10
1147.700256
 20
679.0
 30
0.0
 11
1125.148441
 21
651.605778
 31
0.0
  0
TEXT
  5
BC
100
AcDbEntity
  8
寸法
  6
CONTINUOUS
 62
     2
100
AcDbText
 10
1389.191925
 20
895.5
 30
0.0
 40
40.0
  1
９１０
 50
90.0
 41
0.833
  7
EXCADSTD
 72
     5
 11
1389.191925
 21
1014.5
 31
0.0
100
AcDbText
  0
LINE
  5
BD
100
AcDbEntity
  8
寸法
  6
CONTINUOUS
 62
     3
100
AcDbLine
 10
1392.691925
 20
1410.0
 30
0.0
 11
1392.691925
 21
500.0
 31
0.0
  0
LINE
  5
BE
100
AcDbEntity
  8
寸法
  6
CONTINUOUS
 62
     3
100
AcDbLine
 10
1398.525258
 20
1375.0
 30
0.0
 11
1392.691925
 21
1410.0
 31
0.0
  0
LINE
  5
BF
100
AcDbEntity
  8
寸法
  6
CONTINUOUS
 62
     3
100
AcDbLine
 10
1392.691925
 20
1410.0
 30
0.0
 11
1386.858592
 21
1375.0
 31
0.0
  0
LINE
  5
C0
100
AcDbEntity
  8
寸法
  6
CONTINUOUS
 62
     3
100
AcDbLine
 10
1386.858592
 20
535.0
 30
0.0
 11
1392.691925
 21
500.0
 31
0.0
  0
LINE
  5
C1
100
AcDbEntity
  8
寸法
  6
CONTINUOUS
 62
     3
100
AcDbLine
 10
1392.691925
 20
500.0
 30
0.0
 11
1398.525258
 21
535.0
 31
0.0
  0
TEXT
  5
C2
100
AcDbEntity
  8
寸法
  6
CONTINUOUS
 62
     2
100
AcDbText
 10
877.191925
 20
1060.5
 30
0.0
 40
40.0
  1
２８０
 50
90.0
 41
0.833
  7
EXCADSTD
 72
     5
 11
877.191925
 21
1179.5
 31
0.0
100
AcDbText
  0
LINE
  5
C3
100
AcDbEntity
  8
寸法
  6
CONTINUOUS
 62
     3
100
AcDbLine
 10
880.691925
 20
1260.0
 30
0.0
 11
880.691925
 21
980.0
 31
0.0
  0
LINE
  5
C4
100
AcDbEntity
  8
寸法
  6
CONTINUOUS
 62
     3
100
AcDbLine
 10
886.525258
 20
1225.0
 30
0.0
 11
880.691925
 21
1260.0
 31
0.0
  0
LINE
  5
C5
100
AcDbEntity
  8
寸法
  6
CONTINUOUS
 62
     3
100
AcDbLine
 10
880.691925
 20
1260.0
 30
0.0
 11
874.858592
 21
1225.0
 31
0.0
  0
LINE
  5
C6
100
AcDbEntity
  8
寸法
  6
CONTINUOUS
 62
     3
100
AcDbLine
 10
874.858592
 20
1015.0
 30
0.0
 11
880.691925
 21
980.0
 31
0.0
  0
LINE
  5
C7
100
AcDbEntity
  8
寸法
  6
CONTINUOUS
 62
     3
100
AcDbLine
 10
880.691925
 20
980.0
 30
0.0
 11
886.525258
 21
1015.0
 31
0.0
  0
TEXT
  5
C8
100
AcDbEntity
  8
寸法
  6
CONTINUOUS
 62
     2
100
AcDbText
 10
877.191925
 20
680.5
 30
0.0
 40
40.0
  1
４８０
 50
90.0
 41
0.833
  7
EXCADSTD
 72
     5
 11
877.191925
 21
799.5
 31
0.0
100
AcDbText
  0
LINE
  5
C9
100
AcDbEntity
  8
寸法
  6
CONTINUOUS
 62
     3
100
AcDbLine
 10
880.691925
 20
980.0
 30
0.0
 11
880.691925
 21
500.0
 31
0.0
  0
LINE
  5
CA
100
AcDbEntity
  8
寸法
  6
CONTINUOUS
 62
     3
100
AcDbLine
 10
886.525258
 20
945.0
 30
0.0
 11
880.691925
 21
980.0
 31
0.0
  0
LINE
  5
CB
100
AcDbEntity
  8
寸法
  6
CONTINUOUS
 62
     3
100
AcDbLine
 10
880.691925
 20
980.0
 30
0.0
 11
874.858592
 21
945.0
 31
0.0
  0
LINE
  5
CC
100
AcDbEntity
  8
寸法
  6
CONTINUOUS
 62
     3
100
AcDbLine
 10
874.858592
 20
535.0
 30
0.0
 11
880.691925
 21
500.0
 31
0.0
  0
LINE
  5
CD
100
AcDbEntity
  8
寸法
  6
CONTINUOUS
 62
     3
100
AcDbLine
 10
880.691925
 20
500.0
 30
0.0
 11
886.525258
 21
535.0
 31
0.0
  0
TEXT
  5
CE
100
AcDbEntity
  8
寸法
  6
CONTINUOUS
 62
     2
100
AcDbText
 10
817.191925
 20
820.5
 30
0.0
 40
40.0
  1
７６０
 50
90.0
 41
0.833
  7
EXCADSTD
 72
     5
 11
817.191925
 21
939.5
 31
0.0
100
AcDbText
  0
LINE
  5
CF
100
AcDbEntity
  8
寸法
  6
CONTINUOUS
 62
     3
100
AcDbLine
 10
820.691925
 20
500.0
 30
0.0
 11
820.691925
 21
1260.0
 31
0.0
  0
LINE
  5
D0
100
AcDbEntity
  8
寸法
  6
CONTINUOUS
 62
     3
100
AcDbLine
 10
814.858592
 20
535.0
 30
0.0
 11
820.691925
 21
500.0
 31
0.0
  0
LINE
  5
D1
100
AcDbEntity
  8
寸法
  6
CONTINUOUS
 62
     3
100
AcDbLine
 10
820.691925
 20
500.0
 30
0.0
 11
826.525258
 21
535.0
 31
0.0
  0
LINE
  5
D2
100
AcDbEntity
  8
寸法
  6
CONTINUOUS
 62
     3
100
AcDbLine
 10
826.525258
 20
1225.0
 30
0.0
 11
820.691925
 21
1260.0
 31
0.0
  0
LINE
  5
D3
100
AcDbEntity
  8
寸法
  6
CONTINUOUS
 62
     3
100
AcDbLine
 10
820.691925
 20
1260.0
 30
0.0
 11
814.858592
 21
1225.0
 31
0.0
  0
TEXT
  5
D4
100
AcDbEntity
  8
寸法
  6
CONTINUOUS
 62
     2
100
AcDbText
 10
1271.500305
 20
821.500641
 30
0.0
 40
40.0
  1
１１０
 41
0.833
  7
EXCADSTD
 72
     5
 11
1390.500305
 21
821.500641
 31
0.0
100
AcDbText
  0
LINE
  5
D5
100
AcDbEntity
  8
寸法
  6
CONTINUOUS
 62
     3
100
AcDbLine
 10
1089.000458
 20
818.000641
 30
0.0
 11
1379.699997
 21
818.000641
 31
0.0
  0
LINE
  5
D6
100
AcDbEntity
  8
寸法
  6
CONTINUOUS
 62
     3
100
AcDbLine
 10
1099.000458
 20
812.167308
 30
0.0
 11
1134.000458
 21
818.000641
 31
0.0
  0
LINE
  5
D7
100
AcDbEntity
  8
寸法
  6
CONTINUOUS
 62
     3
100
AcDbLine
 10
1134.000458
 20
818.000641
 30
0.0
 11
1099.000458
 21
823.833974
 31
0.0
  0
LINE
  5
D8
100
AcDbEntity
  8
寸法
  6
CONTINUOUS
 62
     3
100
AcDbLine
 10
1279.000153
 20
823.833974
 30
0.0
 11
1244.000153
 21
818.000641
 31
0.0
  0
LINE
  5
D9
100
AcDbEntity
  8
寸法
  6
CONTINUOUS
 62
     3
100
AcDbLine
 10
1244.000153
 20
818.000641
 30
0.0
 11
1279.000153
 21
812.167308
 31
0.0
  0
LINE
  5
DA
100
AcDbEntity
  8
寸法
  6
CONTINUOUS
 62
     3
100
AcDbLine
 10
1254.0
 20
500.0
 30
0.0
 11
1412.691925
 21
500.0
 31
0.0
  0
LINE
  5
DB
100
AcDbEntity
  8
寸法
  6
CONTINUOUS
 62
     3
100
AcDbLine
 10
1169.4
 20
1410.0
 30
0.0
 11
1188.4
 21
1410.0
 31
0.0
  0
LINE
  5
DC
100
AcDbEntity
  8
寸法
  6
CONTINUOUS
 62
     3
100
AcDbLine
 10
1200.4
 20
1410.0
 30
0.0
 11
1208.4
 21
1410.0
 31
0.0
  0
LINE
  5
DD
100
AcDbEntity
  8
寸法
  6
CONTINUOUS
 62
     3
100
AcDbLine
 10
1220.4
 20
1410.0
 30
0.0
 11
1412.691925
 21
1410.0
 31
0.0
  0
TEXT
  5
DE
100
AcDbEntity
  8
枠
  6
CONTINUOUS
 62
     2
100
AcDbText
 10
840.25
 20
243.75
 30
0.0
 40
62.5
  1
隅付小形手洗器
 41
0.9744
  7
EXCADSTD
 72
     5
 11
1347.75
 21
243.75
 31
0.0
100
AcDbText
  0
TEXT
  5
DF
100
AcDbEntity
  8
枠
  6
CONTINUOUS
 62
     2
100
AcDbText
 10
1458.0
 20
243.75
 30
0.0
 40
62.5
  1
Ｌ９１
 41
0.83552
  7
EXCADSTD
 72
     5
 11
1644.5
 21
243.75
 31
0.0
100
AcDbText
  0
LINE
  5
E0
100
AcDbEntity
  8
枠
  6
CONTINUOUS
 62
     7
100
AcDbLine
 10
179.0
 20
115.0
 30
0.0
 11
1999.0
 21
115.0
 31
0.0
  0
LINE
  5
E1
100
AcDbEntity
  8
枠
  6
CONTINUOUS
 62
     7
100
AcDbLine
 10
1999.0
 20
115.0
 30
0.0
 11
1999.0
 21
2915.0
 31
0.0
  0
LINE
  5
E2
100
AcDbEntity
  8
枠
  6
CONTINUOUS
 62
     7
100
AcDbLine
 10
179.0
 20
115.0
 30
0.0
 11
179.0
 21
2915.0
 31
0.0
  0
LINE
  5
E3
100
AcDbEntity
  8
枠
  6
CONTINUOUS
 62
     7
100
AcDbLine
 10
179.0
 20
2915.0
 30
0.0
 11
1999.0
 21
2915.0
 31
0.0
  0
LINE
  5
E4
100
AcDbEntity
  8
枠
  6
CONTINUOUS
 62
     7
100
AcDbLine
 10
179.0
 20
335.0
 30
0.0
 11
1999.0
 21
335.0
 31
0.0
  0
LINE
  5
E5
100
AcDbEntity
  8
枠
  6
CONTINUOUS
 62
     6
100
AcDbLine
 10
1999.0
 20
215.0
 30
0.0
 11
749.0
 21
215.0
 31
0.0
  0
LINE
  5
E6
100
AcDbEntity
  8
枠
  6
CONTINUOUS
 62
     6
100
AcDbLine
 10
1859.0
 20
335.0
 30
0.0
 11
1859.0
 21
215.0
 31
0.0
  0
LINE
  5
E7
100
AcDbEntity
  8
枠
  6
CONTINUOUS
 62
     6
100
AcDbLine
 10
1809.0
 20
335.0
 30
0.0
 11
1809.0
 21
215.0
 31
0.0
  0
LINE
  5
E8
100
AcDbEntity
  8
枠
  6
CONTINUOUS
 62
     6
100
AcDbLine
 10
1439.0
 20
335.0
 30
0.0
 11
1439.0
 21
115.0
 31
0.0
  0
LINE
  5
E9
100
AcDbEntity
  8
枠
  6
CONTINUOUS
 62
     6
100
AcDbLine
 10
1389.0
 20
335.0
 30
0.0
 11
1389.0
 21
115.0
 31
0.0
  0
LINE
  5
EA
100
AcDbEntity
  8
枠
  6
CONTINUOUS
 62
     6
100
AcDbLine
 10
799.0
 20
335.0
 30
0.0
 11
799.0
 21
215.0
 31
0.0
  0
LINE
  5
EB
100
AcDbEntity
  8
枠
  6
CONTINUOUS
 62
     6
100
AcDbLine
 10
749.0
 20
335.0
 30
0.0
 11
749.0
 21
115.0
 31
0.0
  0
LINE
  5
EC
100
AcDbEntity
  8
枠
  6
CONTINUOUS
 62
     6
100
AcDbLine
 10
619.0
 20
335.0
 30
0.0
 11
619.0
 21
115.0
 31
0.0
  0
LINE
  5
ED
100
AcDbEntity
  8
枠
  6
CONTINUOUS
 62
     6
100
AcDbLine
 10
489.0
 20
335.0
 30
0.0
 11
489.0
 21
115.0
 31
0.0
  0
LINE
  5
EE
100
AcDbEntity
  8
枠
  6
CONTINUOUS
 62
     6
100
AcDbLine
 10
334.0
 20
335.0
 30
0.0
 11
334.0
 21
115.0
 31
0.0
  0
LINE
  5
EF
100
AcDbEntity
  8
枠
  6
CONTINUOUS
 62
     6
100
AcDbLine
 10
179.0
 20
285.0
 30
0.0
 11
749.0
 21
285.0
 31
0.0
  0
LINE
  5
F0
100
AcDbEntity
  8
枠
  6
CONTINUOUS
 62
     6
100
AcDbLine
 10
1891.653809
 20
238.00293
 30
0.0
 11
1968.993897
 21
316.699829
 31
0.0
  0
LINE
  5
F1
100
AcDbEntity
  8
枠
  6
EXLTYPE2
 62
     6
100
AcDbLine
 10
179.0
 20
1515.0
 30
0.0
 11
-21.0
 21
1515.0
 31
0.0
  0
TEXT
  5
F2
100
AcDbEntity
  8
枠
  6
CONTINUOUS
 62
     2
100
AcDbText
 10
1889.537109
 20
282.722778
 30
0.0
 40
30.0
  1
１
 41
0.826
  7
EXCADSTD
 72
     5
 11
1913.13711
 21
282.722778
 31
0.0
100
AcDbText
  0
TEXT
  5
F3
100
AcDbEntity
  8
枠
  6
CONTINUOUS
 62
     2
100
AcDbText
 10
1930.279297
 20
238.348846
 30
0.0
 40
30.0
  1
１０
 41
0.791
  7
EXCADSTD
 72
     5
 11
1982.067198
 21
238.348846
 31
0.0
100
AcDbText
  0
TEXT
  5
F4
100
AcDbEntity
  8
枠
  6
CONTINUOUS
 62
     2
100
AcDbText
 10
201.5
 20
288.75
 30
0.0
 40
42.5
  1
製図
 41
1.087059
  7
EXCADSTD
 72
     5
 11
302.326
 21
288.75
 31
0.0
100
AcDbText
  0
TEXT
  5
F5
100
AcDbEntity
  8
枠
  6
CONTINUOUS
 62
     2
100
AcDbText
 10
356.5
 20
288.75
 30
0.0
 40
42.5
  1
写図
 41
1.087059
  7
EXCADSTD
 72
     5
 11
457.326
 21
288.75
 31
0.0
100
AcDbText
  0
TEXT
  5
F6
100
AcDbEntity
  8
枠
  6
CONTINUOUS
 62
     2
100
AcDbText
 10
506.5
 20
288.75
 30
0.0
 40
42.5
  1
検図
 41
0.938824
  7
EXCADSTD
 72
     5
 11
593.577
 21
288.75
 31
0.0
100
AcDbText
  0
TEXT
  5
F7
100
AcDbEntity
  8
枠
  6
CONTINUOUS
 62
     2
100
AcDbText
 10
636.5
 20
288.75
 30
0.0
 40
42.5
  1
承認
 41
0.938824
  7
EXCADSTD
 72
     5
 11
723.577
 21
288.75
 31
0.0
100
AcDbText
  0
TEXT
  5
F8
100
AcDbEntity
  8
枠
  6
CONTINUOUS
 62
     2
100
AcDbText
 10
752.75
 20
278.75
 30
0.0
 40
42.5
  1
品
 41
0.84
  7
EXCADSTD
 72
     5
 11
786.75
 21
278.75
 31
0.0
100
AcDbText
  0
TEXT
  5
F9
100
AcDbEntity
  8
枠
  6
CONTINUOUS
 62
     2
100
AcDbText
 10
752.75
 20
228.75
 30
0.0
 40
42.5
  1
名
 41
0.84
  7
EXCADSTD
 72
     5
 11
786.75
 21
228.75
 31
0.0
100
AcDbText
  0
TEXT
  5
FA
100
AcDbEntity
  8
枠
  6
CONTINUOUS
 62
     2
100
AcDbText
 10
1392.75
 20
278.75
 30
0.0
 40
42.5
  1
品
 41
0.84
  7
EXCADSTD
 72
     5
 11
1426.75
 21
278.75
 31
0.0
100
AcDbText
  0
TEXT
  5
FB
100
AcDbEntity
  8
枠
  6
CONTINUOUS
 62
     2
100
AcDbText
 10
1392.75
 20
228.75
 30
0.0
 40
42.5
  1
番
 41
0.84
  7
EXCADSTD
 72
     5
 11
1426.75
 21
228.75
 31
0.0
100
AcDbText
  0
TEXT
  5
FC
100
AcDbEntity
  8
枠
  6
CONTINUOUS
 62
     2
100
AcDbText
 10
1812.75
 20
278.75
 30
0.0
 40
42.5
  1
尺
 41
0.84
  7
EXCADSTD
 72
     5
 11
1846.75
 21
278.75
 31
0.0
100
AcDbText
  0
TEXT
  5
FD
100
AcDbEntity
  8
枠
  6
CONTINUOUS
 62
     2
100
AcDbText
 10
1812.75
 20
228.75
 30
0.0
 40
42.5
  1
度
 41
0.84
  7
EXCADSTD
 72
     5
 11
1846.75
 21
228.75
 31
0.0
100
AcDbText
  0
TEXT
  5
FE
100
AcDbEntity
  8
枠
  6
CONTINUOUS
 62
     2
100
AcDbText
 10
1392.75
 20
165.75
 30
0.0
 40
42.5
  1
図
 41
0.84
  7
EXCADSTD
 72
     5
 11
1426.75
 21
165.75
 31
0.0
100
AcDbText
  0
TEXT
  5
FF
100
AcDbEntity
  8
枠
  6
CONTINUOUS
 62
     2
100
AcDbText
 10
1392.75
 20
122.75
 30
0.0
 40
42.5
  1
番
 41
0.84
  7
EXCADSTD
 72
     5
 11
1426.75
 21
122.75
 31
0.0
100
AcDbText
  0
LINE
  5
100
100
AcDbEntity
  8
枠
  6
CONTINUOUS
 62
     3
100
AcDbLine
 10
826.447754
 20
180.287994
 30
0.0
 11
818.384094
 21
180.287994
 31
0.0
  0
LINE
  5
101
100
AcDbEntity
  8
枠
  6
CONTINUOUS
 62
     3
100
AcDbLine
 10
826.447754
 20
188.351959
 30
0.0
 11
826.447754
 21
180.287994
 31
0.0
  0
LINE
  5
102
100
AcDbEntity
  8
枠
  6
CONTINUOUS
 62
     3
100
AcDbLine
 10
818.384094
 20
188.351959
 30
0.0
 11
826.447754
 21
188.351959
 31
0.0
  0
LINE
  5
103
100
AcDbEntity
  8
枠
  6
CONTINUOUS
 62
     3
100
AcDbLine
 10
818.384094
 20
188.351959
 30
0.0
 11
818.384094
 21
180.287994
 31
0.0
  0
LINE
  5
104
100
AcDbEntity
  8
枠
  6
CONTINUOUS
 62
     3
100
AcDbLine
 10
815.359192
 20
180.287994
 30
0.0
 11
807.295532
 21
180.287994
 31
0.0
  0
LINE
  5
105
100
AcDbEntity
  8
枠
  6
CONTINUOUS
 62
     3
100
AcDbLine
 10
815.359192
 20
188.351959
 30
0.0
 11
815.359192
 21
180.287994
 31
0.0
  0
LINE
  5
106
100
AcDbEntity
  8
枠
  6
CONTINUOUS
 62
     3
100
AcDbLine
 10
807.295532
 20
188.351959
 30
0.0
 11
815.359192
 21
188.351959
 31
0.0
  0
LINE
  5
107
100
AcDbEntity
  8
枠
  6
CONTINUOUS
 62
     3
100
AcDbLine
 10
807.295532
 20
188.351959
 30
0.0
 11
807.295532
 21
180.287994
 31
0.0
  0
LINE
  5
108
100
AcDbEntity
  8
枠
  6
CONTINUOUS
 62
     3
100
AcDbLine
 10
798.887329
 20
144.0
 30
0.0
 11
770.0
 21
144.0
 31
0.0
  0
ARC
  5
109
100
AcDbEntity
  8
枠
  6
CONTINUOUS
 62
     3
100
AcDbCircle
 10
798.887329
 20
162.144074
 30
0.0
 40
18.143997
100
AcDbArc
 50
270.000031
 51
334.000137
  0
LINE
  5
10A
100
AcDbEntity
  8
枠
  6
CONTINUOUS
 62
     3
100
AcDbLine
 10
826.447754
 20
177.264008
 30
0.0
 11
815.193024
 21
154.190125
 31
0.0
  0
LINE
  5
10B
100
AcDbEntity
  8
枠
  6
CONTINUOUS
 62
     3
100
AcDbLine
 10
814.112244
 20
177.264008
 30
0.0
 11
826.447754
 21
177.264008
 31
0.0
  0
LINE
  5
10C
100
AcDbEntity
  8
枠
  6
CONTINUOUS
 62
     3
100
AcDbLine
 10
805.01297
 20
158.60907
 30
0.0
 11
814.112244
 21
177.264008
 31
0.0
  0
ARC
  5
10D
100
AcDbEntity
  8
枠
  6
CONTINUOUS
 62
     3
100
AcDbCircle
 10
797.765503
 20
162.144074
 30
0.0
 40
8.064
100
AcDbArc
 50
270.000031
 51
333.99855
  0
LINE
  5
10E
100
AcDbEntity
  8
枠
  6
CONTINUOUS
 62
     3
100
AcDbLine
 10
770.0
 20
154.079956
 30
0.0
 11
797.765503
 21
154.079956
 31
0.0
  0
LINE
  5
10F
100
AcDbEntity
  8
枠
  6
CONTINUOUS
 62
     3
100
AcDbLine
 10
770.0
 20
154.079956
 30
0.0
 11
770.0
 21
144.0
 31
0.0
  0
LINE
  5
110
100
AcDbEntity
  8
枠
  6
CONTINUOUS
 62
     3
100
AcDbLine
 10
798.224945
 20
167.183899
 30
0.0
 11
770.0
 21
167.183899
 31
0.0
  0
LINE
  5
111
100
AcDbEntity
  8
枠
  6
CONTINUOUS
 62
     3
100
AcDbLine
 10
798.224945
 20
176.256012
 30
0.0
 11
798.224945
 21
167.183899
 31
0.0
  0
LINE
  5
112
100
AcDbEntity
  8
枠
  6
CONTINUOUS
 62
     3
100
AcDbLine
 10
770.0
 20
176.256012
 30
0.0
 11
798.224945
 21
176.256012
 31
0.0
  0
LINE
  5
113
100
AcDbEntity
  8
枠
  6
CONTINUOUS
 62
     3
100
AcDbLine
 10
770.0
 20
176.256012
 30
0.0
 11
770.0
 21
167.183899
 31
0.0
  0
LINE
  5
114
100
AcDbEntity
  8
枠
  6
CONTINUOUS
 62
     3
100
AcDbLine
 10
798.224945
 20
179.279999
 30
0.0
 11
770.0
 21
179.279999
 31
0.0
  0
LINE
  5
115
100
AcDbEntity
  8
枠
  6
CONTINUOUS
 62
     3
100
AcDbLine
 10
798.224945
 20
188.351959
 30
0.0
 11
798.224945
 21
179.279999
 31
0.0
  0
LINE
  5
116
100
AcDbEntity
  8
枠
  6
CONTINUOUS
 62
     3
100
AcDbLine
 10
770.0
 20
188.351959
 30
0.0
 11
798.224945
 21
188.351959
 31
0.0
  0
LINE
  5
117
100
AcDbEntity
  8
枠
  6
CONTINUOUS
 62
     3
100
AcDbLine
 10
770.0
 20
188.351959
 30
0.0
 11
770.0
 21
179.279999
 31
0.0
  0
LINE
  5
118
100
AcDbEntity
  8
枠
  6
CONTINUOUS
 62
     3
100
AcDbLine
 10
829.472656
 20
177.264008
 30
0.0
 11
829.472656
 21
170.207886
 31
0.0
  0
LINE
  5
119
100
AcDbEntity
  8
枠
  6
CONTINUOUS
 62
     3
100
AcDbLine
 10
829.472656
 20
177.264008
 30
0.0
 11
838.654022
 21
177.264008
 31
0.0
  0
LINE
  5
11A
100
AcDbEntity
  8
枠
  6
CONTINUOUS
 62
     3
100
AcDbLine
 10
837.536316
 20
184.319977
 30
0.0
 11
838.654022
 21
177.264008
 31
0.0
  0
LINE
  5
11B
100
AcDbEntity
  8
枠
  6
CONTINUOUS
 62
     3
100
AcDbLine
 10
837.536316
 20
184.319977
 30
0.0
 11
848.76236
 21
184.319977
 31
0.0
  0
LINE
  5
11C
100
AcDbEntity
  8
枠
  6
CONTINUOUS
 62
     3
100
AcDbLine
 10
848.76236
 20
184.319977
 30
0.0
 11
849.879913
 21
177.264008
 31
0.0
  0
LINE
  5
11D
100
AcDbEntity
  8
枠
  6
CONTINUOUS
 62
     3
100
AcDbLine
 10
849.879913
 20
177.264008
 30
0.0
 11
877.856751
 21
177.264008
 31
0.0
  0
LINE
  5
11E
100
AcDbEntity
  8
枠
  6
CONTINUOUS
 62
     3
100
AcDbLine
 10
877.856751
 20
177.264008
 30
0.0
 11
871.973114
 21
164.050507
 31
0.0
  0
ARC
  5
11F
100
AcDbEntity
  8
枠
  6
CONTINUOUS
 62
     3
100
AcDbCircle
 10
858.161011
 20
170.200409
 30
0.0
 40
15.120106
100
AcDbArc
 50
263.465775
 51
335.998779
  0
LINE
  5
120
100
AcDbEntity
  8
枠
  6
CONTINUOUS
 62
     3
100
AcDbLine
 10
856.438446
 20
155.178589
 30
0.0
 11
855.337067
 21
162.144074
 31
0.0
  0
ARC
  5
121
100
AcDbEntity
  8
枠
  6
CONTINUOUS
 62
     3
100
AcDbCircle
 10
855.058136
 20
168.192047
 30
0.0
 40
6.048006
100
AcDbArc
 50
272.623749
 51
336.006531
  0
LINE
  5
122
100
AcDbEntity
  8
枠
  6
CONTINUOUS
 62
     3
100
AcDbLine
 10
860.585022
 20
165.732025
 30
0.0
 11
862.576294
 21
170.207886
 31
0.0
  0
LINE
  5
123
100
AcDbEntity
  8
枠
  6
CONTINUOUS
 62
     3
100
AcDbLine
 10
862.576294
 20
170.207886
 30
0.0
 11
850.99762
 21
170.207886
 31
0.0
  0
LINE
  5
124
100
AcDbEntity
  8
枠
  6
CONTINUOUS
 62
     3
100
AcDbLine
 10
850.99762
 20
170.207886
 30
0.0
 11
855.148468
 21
144.0
 31
0.0
  0
LINE
  5
125
100
AcDbEntity
  8
枠
  6
CONTINUOUS
 62
     3
100
AcDbLine
 10
855.148468
 20
144.0
 30
0.0
 11
843.922424
 21
144.0
 31
0.0
  0
LINE
  5
126
100
AcDbEntity
  8
枠
  6
CONTINUOUS
 62
     2
100
AcDbLine
 10
843.922424
 20
144.0
 30
0.0
 11
839.771729
 21
170.207886
 31
0.0
  0
LINE
  5
127
100
AcDbEntity
  8
枠
  6
CONTINUOUS
 62
     2
100
AcDbLine
 10
839.771729
 20
170.207886
 30
0.0
 11
829.472656
 21
170.207886
 31
0.0
  0
LINE
  5
128
100
AcDbEntity
  8
枠
  6
CONTINUOUS
 62
     3
100
AcDbLine
 10
876.847687
 20
144.0
 30
0.0
 11
876.847687
 21
154.079956
 31
0.0
  0
LINE
  5
129
100
AcDbEntity
  8
枠
  6
CONTINUOUS
 62
     3
100
AcDbLine
 10
876.847687
 20
154.079956
 30
0.0
 11
933.295441
 21
154.079956
 31
0.0
  0
LINE
  5
12A
100
AcDbEntity
  8
枠
  6
CONTINUOUS
 62
     3
100
AcDbLine
 10
933.295441
 20
154.079956
 30
0.0
 11
933.295441
 21
144.0
 31
0.0
  0
LINE
  5
12B
100
AcDbEntity
  8
枠
  6
CONTINUOUS
 62
     3
100
AcDbLine
 10
933.295441
 20
144.0
 30
0.0
 11
876.847687
 21
144.0
 31
0.0
  0
LINE
  5
12C
100
AcDbEntity
  8
枠
  6
CONTINUOUS
 62
     3
100
AcDbLine
 10
880.879517
 20
188.351959
 30
0.0
 11
880.879517
 21
178.272003
 31
0.0
  0
LINE
  5
12D
100
AcDbEntity
  8
枠
  6
CONTINUOUS
 62
     3
100
AcDbLine
 10
880.879517
 20
188.351959
 30
0.0
 11
929.263611
 21
188.351959
 31
0.0
  0
LINE
  5
12E
100
AcDbEntity
  8
枠
  6
CONTINUOUS
 62
     3
100
AcDbLine
 10
929.263611
 20
188.351959
 30
0.0
 11
929.263611
 21
178.272003
 31
0.0
  0
LINE
  5
12F
100
AcDbEntity
  8
枠
  6
CONTINUOUS
 62
     3
100
AcDbLine
 10
929.263611
 20
178.272003
 30
0.0
 11
880.879517
 21
178.272003
 31
0.0
  0
LINE
  5
130
100
AcDbEntity
  8
枠
  6
CONTINUOUS
 62
     3
100
AcDbLine
 10
940.352173
 20
188.351959
 30
0.0
 11
940.352173
 21
178.272003
 31
0.0
  0
LINE
  5
131
100
AcDbEntity
  8
枠
  6
CONTINUOUS
 62
     3
100
AcDbLine
 10
940.352173
 20
188.351959
 30
0.0
 11
992.768097
 21
188.351959
 31
0.0
  0
LINE
  5
132
100
AcDbEntity
  8
枠
  6
CONTINUOUS
 62
     3
100
AcDbLine
 10
992.768097
 20
188.351959
 30
0.0
 11
977.050934
 21
166.718964
 31
0.0
  0
LINE
  5
133
100
AcDbEntity
  8
枠
  6
CONTINUOUS
 62
     3
100
AcDbLine
 10
977.050934
 20
166.718964
 30
0.0
 11
996.799927
 21
144.0
 31
0.0
  0
LINE
  5
134
100
AcDbEntity
  8
枠
  6
CONTINUOUS
 62
     3
100
AcDbLine
 10
996.799927
 20
144.0
 30
0.0
 11
982.108154
 21
144.0
 31
0.0
  0
LINE
  5
135
100
AcDbEntity
  8
枠
  6
CONTINUOUS
 62
     3
100
AcDbLine
 10
982.108154
 20
144.0
 30
0.0
 11
970.361328
 21
157.512726
 31
0.0
  0
LINE
  5
136
100
AcDbEntity
  8
枠
  6
CONTINUOUS
 62
     3
100
AcDbLine
 10
970.361328
 20
157.512726
 30
0.0
 11
965.978851
 21
151.479248
 31
0.0
  0
ARC
  5
137
100
AcDbEntity
  8
枠
  6
CONTINUOUS
 62
     3
100
AcDbCircle
 10
951.299286
 20
162.144074
 30
0.0
 40
18.143997
100
AcDbArc
 50
270.000031
 51
324.00116
  0
LINE
  5
138
100
AcDbEntity
  8
枠
  6
CONTINUOUS
 62
     3
100
AcDbLine
 10
951.299286
 20
144.0
 30
0.0
 11
936.320343
 21
144.0
 31
0.0
  0
LINE
  5
139
100
AcDbEntity
  8
枠
  6
CONTINUOUS
 62
     3
100
AcDbLine
 10
936.320343
 20
144.0
 30
0.0
 11
936.320343
 21
154.079956
 31
0.0
  0
LINE
  5
13A
100
AcDbEntity
  8
枠
  6
CONTINUOUS
 62
     3
100
AcDbLine
 10
936.320343
 20
154.079956
 30
0.0
 11
949.0271
 21
154.079956
 31
0.0
  0
ARC
  5
13B
100
AcDbEntity
  8
枠
  6
CONTINUOUS
 62
     3
100
AcDbCircle
 10
949.0271
 20
164.159912
 30
0.0
 40
10.079994
100
AcDbArc
 50
270.000031
 51
323.996597
  0
LINE
  5
13C
100
AcDbEntity
  8
枠
  6
CONTINUOUS
 62
     3
100
AcDbLine
 10
957.180939
 20
158.235077
 30
0.0
 11
971.739502
 21
178.272003
 31
0.0
  0
LINE
  5
13D
100
AcDbEntity
  8
枠
  6
CONTINUOUS
 62
     3
100
AcDbLine
 10
971.739502
 20
178.272003
 30
0.0
 11
940.352173
 21
178.272003
 31
0.0
  0
LINE
  5
13E
100
AcDbEntity
  8
枠
  6
CONTINUOUS
 62
     3
100
AcDbLine
 10
1008.895569
 20
188.351959
 30
0.0
 11
1008.895569
 21
181.29599
 31
0.0
  0
LINE
  5
13F
100
AcDbEntity
  8
枠
  6
CONTINUOUS
 62
     3
100
AcDbLine
 10
1008.895569
 20
188.351959
 30
0.0
 11
1061.31134
 21
188.351959
 31
0.0
  0
LINE
  5
140
100
AcDbEntity
  8
枠
  6
CONTINUOUS
 62
     3
100
AcDbLine
 10
1061.31134
 20
188.351959
 30
0.0
 11
1061.31134
 21
181.29599
 31
0.0
  0
LINE
  5
141
100
AcDbEntity
  8
枠
  6
CONTINUOUS
 62
     3
100
AcDbLine
 10
1061.31134
 20
181.29599
 30
0.0
 11
1040.647736
 21
181.29599
 31
0.0
  0
LINE
  5
142
100
AcDbEntity
  8
枠
  6
CONTINUOUS
 62
     3
100
AcDbLine
 10
1040.647736
 20
181.29599
 30
0.0
 11
1040.647736
 21
152.064117
 31
0.0
  0
LINE
  5
143
100
AcDbEntity
  8
枠
  6
CONTINUOUS
 62
     3
100
AcDbLine
 10
1040.647736
 20
152.064117
 30
0.0
 11
1063.327332
 21
152.064117
 31
0.0
  0
LINE
  5
144
100
AcDbEntity
  8
枠
  6
CONTINUOUS
 62
     3
100
AcDbLine
 10
1063.327332
 20
152.064117
 30
0.0
 11
1063.327332
 21
144.0
 31
0.0
  0
LINE
  5
145
100
AcDbEntity
  8
枠
  6
CONTINUOUS
 62
     3
100
AcDbLine
 10
1063.327332
 20
144.0
 30
0.0
 11
1006.879578
 21
144.0
 31
0.0
  0
LINE
  5
146
100
AcDbEntity
  8
枠
  6
CONTINUOUS
 62
     3
100
AcDbLine
 10
1006.879578
 20
144.0
 30
0.0
 11
1006.879578
 21
152.064117
 31
0.0
  0
LINE
  5
147
100
AcDbEntity
  8
枠
  6
CONTINUOUS
 62
     3
100
AcDbLine
 10
1006.879578
 20
152.064117
 30
0.0
 11
1029.559174
 21
152.064117
 31
0.0
  0
LINE
  5
148
100
AcDbEntity
  8
枠
  6
CONTINUOUS
 62
     3
100
AcDbLine
 10
1029.559174
 20
152.064117
 30
0.0
 11
1029.559174
 21
181.29599
 31
0.0
  0
LINE
  5
149
100
AcDbEntity
  8
枠
  6
CONTINUOUS
 62
     3
100
AcDbLine
 10
1029.559174
 20
181.29599
 30
0.0
 11
1008.895569
 21
181.29599
 31
0.0
  0
LINE
  5
14A
100
AcDbEntity
  8
枠
  6
CONTINUOUS
 62
     3
100
AcDbLine
 10
1064.336243
 20
182.303986
 30
0.0
 11
1064.336243
 21
177.667145
 31
0.0
  0
LINE
  5
14B
100
AcDbEntity
  8
枠
  6
CONTINUOUS
 62
     3
100
AcDbLine
 10
1064.336243
 20
182.303986
 30
0.0
 11
1073.093109
 21
182.303986
 31
0.0
  0
LINE
  5
14C
100
AcDbEntity
  8
枠
  6
CONTINUOUS
 62
     3
100
AcDbLine
 10
1073.093109
 20
182.303986
 30
0.0
 11
1068.368225
 21
188.351959
 31
0.0
  0
LINE
  5
14D
100
AcDbEntity
  8
枠
  6
CONTINUOUS
 62
     3
100
AcDbLine
 10
1068.368225
 20
188.351959
 30
0.0
 11
1077.32193
 21
188.351959
 31
0.0
  0
LINE
  5
14E
100
AcDbEntity
  8
枠
  6
CONTINUOUS
 62
     3
100
AcDbLine
 10
1077.32193
 20
188.351959
 30
0.0
 11
1082.046814
 21
182.303986
 31
0.0
  0
LINE
  5
14F
100
AcDbEntity
  8
枠
  6
CONTINUOUS
 62
     3
100
AcDbLine
 10
1082.046814
 20
182.303986
 30
0.0
 11
1083.993073
 21
182.303986
 31
0.0
  0
LINE
  5
150
100
AcDbEntity
  8
枠
  6
CONTINUOUS
 62
     3
100
AcDbLine
 10
1083.993073
 20
182.303986
 30
0.0
 11
1083.993073
 21
188.351959
 31
0.0
  0
LINE
  5
151
100
AcDbEntity
  8
枠
  6
CONTINUOUS
 62
     3
100
AcDbLine
 10
1083.993073
 20
188.351959
 30
0.0
 11
1091.047669
 21
188.351959
 31
0.0
  0
LINE
  5
152
100
AcDbEntity
  8
枠
  6
CONTINUOUS
 62
     3
100
AcDbLine
 10
1091.047669
 20
188.351959
 30
0.0
 11
1091.047669
 21
182.303986
 31
0.0
  0
LINE
  5
153
100
AcDbEntity
  8
枠
  6
CONTINUOUS
 62
     3
100
AcDbLine
 10
1091.047669
 20
182.303986
 30
0.0
 11
1094.072571
 21
182.303986
 31
0.0
  0
LINE
  5
154
100
AcDbEntity
  8
枠
  6
CONTINUOUS
 62
     3
100
AcDbLine
 10
1094.072571
 20
182.303986
 30
0.0
 11
1094.072571
 21
188.351959
 31
0.0
  0
LINE
  5
155
100
AcDbEntity
  8
枠
  6
CONTINUOUS
 62
     3
100
AcDbLine
 10
1094.072571
 20
188.351959
 30
0.0
 11
1101.127319
 21
188.351959
 31
0.0
  0
LINE
  5
156
100
AcDbEntity
  8
枠
  6
CONTINUOUS
 62
     3
100
AcDbLine
 10
1101.127319
 20
188.351959
 30
0.0
 11
1101.127319
 21
182.303986
 31
0.0
  0
LINE
  5
157
100
AcDbEntity
  8
枠
  6
CONTINUOUS
 62
     3
100
AcDbLine
 10
1101.127319
 20
182.303986
 30
0.0
 11
1103.073578
 21
182.303986
 31
0.0
  0
LINE
  5
158
100
AcDbEntity
  8
枠
  6
CONTINUOUS
 62
     3
100
AcDbLine
 10
1103.073578
 20
182.303986
 30
0.0
 11
1107.798462
 21
188.351959
 31
0.0
  0
LINE
  5
159
100
AcDbEntity
  8
枠
  6
CONTINUOUS
 62
     3
100
AcDbLine
 10
1107.798462
 20
188.351959
 30
0.0
 11
1116.752167
 21
188.351959
 31
0.0
  0
LINE
  5
15A
100
AcDbEntity
  8
枠
  6
CONTINUOUS
 62
     3
100
AcDbLine
 10
1116.752167
 20
188.351959
 30
0.0
 11
1112.027283
 21
182.303986
 31
0.0
  0
LINE
  5
15B
100
AcDbEntity
  8
枠
  6
CONTINUOUS
 62
     3
100
AcDbLine
 10
1112.027283
 20
182.303986
 30
0.0
 11
1120.783997
 21
182.303986
 31
0.0
  0
LINE
  5
15C
100
AcDbEntity
  8
枠
  6
CONTINUOUS
 62
     3
100
AcDbLine
 10
1120.783997
 20
182.303986
 30
0.0
 11
1120.783997
 21
177.667145
 31
0.0
  0
LINE
  5
15D
100
AcDbEntity
  8
枠
  6
CONTINUOUS
 62
     3
100
AcDbLine
 10
1120.783997
 20
177.667145
 30
0.0
 11
1110.16098
 21
177.667145
 31
0.0
  0
LINE
  5
15E
100
AcDbEntity
  8
枠
  6
CONTINUOUS
 62
     3
100
AcDbLine
 10
1110.16098
 20
177.667145
 30
0.0
 11
1108.327637
 21
172.627319
 31
0.0
  0
LINE
  5
15F
100
AcDbEntity
  8
枠
  6
CONTINUOUS
 62
     3
100
AcDbLine
 10
1108.327637
 20
172.627319
 30
0.0
 11
1120.783997
 21
172.627319
 31
0.0
  0
LINE
  5
160
100
AcDbEntity
  8
枠
  6
CONTINUOUS
 62
     3
100
AcDbLine
 10
1120.783997
 20
172.627319
 30
0.0
 11
1120.783997
 21
167.990478
 31
0.0
  0
LINE
  5
161
100
AcDbEntity
  8
枠
  6
CONTINUOUS
 62
     3
100
AcDbLine
 10
1120.783997
 20
167.990478
 30
0.0
 11
1097.599945
 21
167.990478
 31
0.0
  0
LINE
  5
162
100
AcDbEntity
  8
枠
  6
CONTINUOUS
 62
     3
100
AcDbLine
 10
1097.599945
 20
167.990478
 30
0.0
 11
1097.599945
 21
165.672058
 31
0.0
  0
LINE
  5
163
100
AcDbEntity
  8
枠
  6
CONTINUOUS
 62
     3
100
AcDbLine
 10
1097.599945
 20
165.672058
 30
0.0
 11
1120.783997
 21
165.672058
 31
0.0
  0
LINE
  5
164
100
AcDbEntity
  8
枠
  6
CONTINUOUS
 62
     3
100
AcDbLine
 10
1120.783997
 20
165.672058
 30
0.0
 11
1120.783997
 21
161.035217
 31
0.0
  0
LINE
  5
165
100
AcDbEntity
  8
枠
  6
CONTINUOUS
 62
     3
100
AcDbLine
 10
1120.783997
 20
161.035217
 30
0.0
 11
1097.599945
 21
161.035217
 31
0.0
  0
LINE
  5
166
100
AcDbEntity
  8
枠
  6
CONTINUOUS
 62
     3
100
AcDbLine
 10
1097.599945
 20
161.035217
 30
0.0
 11
1097.599945
 21
158.716797
 31
0.0
  0
LINE
  5
167
100
AcDbEntity
  8
枠
  6
CONTINUOUS
 62
     3
100
AcDbLine
 10
1097.599945
 20
158.716797
 30
0.0
 11
1120.783997
 21
158.716797
 31
0.0
  0
LINE
  5
168
100
AcDbEntity
  8
枠
  6
CONTINUOUS
 62
     3
100
AcDbLine
 10
1120.783997
 20
158.716797
 30
0.0
 11
1120.783997
 21
154.079956
 31
0.0
  0
LINE
  5
169
100
AcDbEntity
  8
枠
  6
CONTINUOUS
 62
     3
100
AcDbLine
 10
1120.783997
 20
154.079956
 30
0.0
 11
1109.627838
 21
154.079956
 31
0.0
  0
LINE
  5
16A
100
AcDbEntity
  8
枠
  6
CONTINUOUS
 62
     3
100
AcDbLine
 10
1109.627838
 20
154.079956
 30
0.0
 11
1120.783997
 21
144.0
 31
0.0
  0
LINE
  5
16B
100
AcDbEntity
  8
枠
  6
CONTINUOUS
 62
     3
100
AcDbLine
 10
1120.783997
 20
144.0
 30
0.0
 11
1108.756256
 21
144.0
 31
0.0
  0
LINE
  5
16C
100
AcDbEntity
  8
枠
  6
CONTINUOUS
 62
     3
100
AcDbLine
 10
1108.756256
 20
144.0
 30
0.0
 11
1097.599945
 21
154.079956
 31
0.0
  0
LINE
  5
16D
100
AcDbEntity
  8
枠
  6
CONTINUOUS
 62
     3
100
AcDbLine
 10
1097.599945
 20
154.079956
 30
0.0
 11
1097.599945
 21
144.0
 31
0.0
  0
LINE
  5
16E
100
AcDbEntity
  8
枠
  6
CONTINUOUS
 62
     3
100
AcDbLine
 10
1097.599945
 20
144.0
 30
0.0
 11
1087.520447
 21
144.0
 31
0.0
  0
LINE
  5
16F
100
AcDbEntity
  8
枠
  6
CONTINUOUS
 62
     3
100
AcDbLine
 10
1087.520447
 20
144.0
 30
0.0
 11
1087.520447
 21
154.079956
 31
0.0
  0
LINE
  5
170
100
AcDbEntity
  8
枠
  6
CONTINUOUS
 62
     3
100
AcDbLine
 10
1087.520447
 20
154.079956
 30
0.0
 11
1076.364136
 21
144.0
 31
0.0
  0
LINE
  5
171
100
AcDbEntity
  8
枠
  6
CONTINUOUS
 62
     3
100
AcDbLine
 10
1076.364136
 20
144.0
 30
0.0
 11
1064.336243
 21
144.0
 31
0.0
  0
LINE
  5
172
100
AcDbEntity
  8
枠
  6
CONTINUOUS
 62
     3
100
AcDbLine
 10
1064.336243
 20
144.0
 30
0.0
 11
1075.492554
 21
154.079956
 31
0.0
  0
LINE
  5
173
100
AcDbEntity
  8
枠
  6
CONTINUOUS
 62
     3
100
AcDbLine
 10
1075.492554
 20
154.079956
 30
0.0
 11
1064.336243
 21
154.079956
 31
0.0
  0
LINE
  5
174
100
AcDbEntity
  8
枠
  6
CONTINUOUS
 62
     3
100
AcDbLine
 10
1064.336243
 20
154.079956
 30
0.0
 11
1064.336243
 21
158.716797
 31
0.0
  0
LINE
  5
175
100
AcDbEntity
  8
枠
  6
CONTINUOUS
 62
     3
100
AcDbLine
 10
1064.336243
 20
158.716797
 30
0.0
 11
1087.520447
 21
158.716797
 31
0.0
  0
LINE
  5
176
100
AcDbEntity
  8
枠
  6
CONTINUOUS
 62
     3
100
AcDbLine
 10
1087.520447
 20
158.716797
 30
0.0
 11
1087.520447
 21
161.035217
 31
0.0
  0
LINE
  5
177
100
AcDbEntity
  8
枠
  6
CONTINUOUS
 62
     3
100
AcDbLine
 10
1087.520447
 20
161.035217
 30
0.0
 11
1064.336243
 21
161.035217
 31
0.0
  0
LINE
  5
178
100
AcDbEntity
  8
枠
  6
CONTINUOUS
 62
     3
100
AcDbLine
 10
1064.336243
 20
161.035217
 30
0.0
 11
1064.336243
 21
165.672058
 31
0.0
  0
LINE
  5
179
100
AcDbEntity
  8
枠
  6
CONTINUOUS
 62
     3
100
AcDbLine
 10
1064.336243
 20
165.672058
 30
0.0
 11
1087.520447
 21
165.672058
 31
0.0
  0
LINE
  5
17A
100
AcDbEntity
  8
枠
  6
CONTINUOUS
 62
     3
100
AcDbLine
 10
1087.520447
 20
165.672058
 30
0.0
 11
1087.520447
 21
167.990478
 31
0.0
  0
LINE
  5
17B
100
AcDbEntity
  8
枠
  6
CONTINUOUS
 62
     3
100
AcDbLine
 10
1087.520447
 20
167.990478
 30
0.0
 11
1064.336243
 21
167.990478
 31
0.0
  0
LINE
  5
17C
100
AcDbEntity
  8
枠
  6
CONTINUOUS
 62
     3
100
AcDbLine
 10
1064.336243
 20
167.990478
 30
0.0
 11
1064.336243
 21
172.627319
 31
0.0
  0
LINE
  5
17D
100
AcDbEntity
  8
枠
  6
CONTINUOUS
 62
     3
100
AcDbLine
 10
1064.336243
 20
172.627319
 30
0.0
 11
1076.792755
 21
172.627319
 31
0.0
  0
LINE
  5
17E
100
AcDbEntity
  8
枠
  6
CONTINUOUS
 62
     3
100
AcDbLine
 10
1076.792755
 20
172.627319
 30
0.0
 11
1074.959412
 21
177.667145
 31
0.0
  0
LINE
  5
17F
100
AcDbEntity
  8
枠
  6
CONTINUOUS
 62
     3
100
AcDbLine
 10
1074.959412
 20
177.667145
 30
0.0
 11
1064.336243
 21
177.667145
 31
0.0
  0
LINE
  5
180
100
AcDbEntity
  8
枠
  6
CONTINUOUS
 62
     3
100
AcDbLine
 10
1085.684967
 20
177.667145
 30
0.0
 11
1099.435425
 21
177.667145
 31
0.0
  0
LINE
  5
181
100
AcDbEntity
  8
枠
  6
CONTINUOUS
 62
     3
100
AcDbLine
 10
1099.435425
 20
177.667145
 30
0.0
 11
1097.599945
 21
172.627319
 31
0.0
  0
LINE
  5
182
100
AcDbEntity
  8
枠
  6
CONTINUOUS
 62
     3
100
AcDbLine
 10
1097.599945
 20
172.627319
 30
0.0
 11
1087.520447
 21
172.627319
 31
0.0
  0
LINE
  5
183
100
AcDbEntity
  8
枠
  6
CONTINUOUS
 62
     3
100
AcDbLine
 10
1087.520447
 20
172.627319
 30
0.0
 11
1085.684967
 21
177.667145
 31
0.0
  0
LINE
  5
184
100
AcDbEntity
  8
枠
  6
CONTINUOUS
 62
     3
100
AcDbLine
 10
1148.256378
 20
188.351959
 30
0.0
 11
1144.989472
 21
175.248016
 31
0.0
  0
LINE
  5
185
100
AcDbEntity
  8
枠
  6
CONTINUOUS
 62
     3
100
AcDbLine
 10
1148.256378
 20
188.351959
 30
0.0
 11
1156.568146
 21
188.351959
 31
0.0
  0
LINE
  5
186
100
AcDbEntity
  8
枠
  6
CONTINUOUS
 62
     3
100
AcDbLine
 10
1156.568146
 20
188.351959
 30
0.0
 11
1155.310974
 21
183.311981
 31
0.0
  0
LINE
  5
187
100
AcDbEntity
  8
枠
  6
CONTINUOUS
 62
     3
100
AcDbLine
 10
1155.310974
 20
183.311981
 30
0.0
 11
1158.584137
 21
183.311981
 31
0.0
  0
LINE
  5
188
100
AcDbEntity
  8
枠
  6
CONTINUOUS
 62
     3
100
AcDbLine
 10
1158.584137
 20
183.311981
 30
0.0
 11
1158.584137
 21
188.351959
 31
0.0
  0
LINE
  5
189
100
AcDbEntity
  8
枠
  6
CONTINUOUS
 62
     3
100
AcDbLine
 10
1158.584137
 20
188.351959
 30
0.0
 11
1167.656708
 21
188.351959
 31
0.0
  0
LINE
  5
18A
100
AcDbEntity
  8
枠
  6
CONTINUOUS
 62
     3
100
AcDbLine
 10
1167.656708
 20
188.351959
 30
0.0
 11
1167.656708
 21
183.311981
 31
0.0
  0
LINE
  5
18B
100
AcDbEntity
  8
枠
  6
CONTINUOUS
 62
     3
100
AcDbLine
 10
1167.656708
 20
183.311981
 30
0.0
 11
1179.247742
 21
183.311981
 31
0.0
  0
LINE
  5
18C
100
AcDbEntity
  8
枠
  6
CONTINUOUS
 62
     3
100
AcDbLine
 10
1179.247742
 20
183.311981
 30
0.0
 11
1179.247742
 21
178.272003
 31
0.0
  0
LINE
  5
18D
100
AcDbEntity
  8
枠
  6
CONTINUOUS
 62
     3
100
AcDbLine
 10
1167.656708
 20
178.272003
 30
0.0
 11
1179.247742
 21
178.272003
 31
0.0
  0
LINE
  5
18E
100
AcDbEntity
  8
枠
  6
CONTINUOUS
 62
     3
100
AcDbLine
 10
1167.656708
 20
178.272003
 30
0.0
 11
1167.656708
 21
173.232025
 31
0.0
  0
LINE
  5
18F
100
AcDbEntity
  8
枠
  6
CONTINUOUS
 62
     3
100
AcDbLine
 10
1167.656708
 20
173.232025
 30
0.0
 11
1180.256653
 21
173.232025
 31
0.0
  0
LINE
  5
190
100
AcDbEntity
  8
枠
  6
CONTINUOUS
 62
     3
100
AcDbLine
 10
1180.256653
 20
173.232025
 30
0.0
 11
1180.256653
 21
168.192047
 31
0.0
  0
LINE
  5
191
100
AcDbEntity
  8
枠
  6
CONTINUOUS
 62
     3
100
AcDbLine
 10
1180.256653
 20
168.192047
 30
0.0
 11
1175.851593
 21
168.192047
 31
0.0
  0
LINE
  5
192
100
AcDbEntity
  8
枠
  6
CONTINUOUS
 62
     3
100
AcDbLine
 10
1175.851593
 20
168.192047
 30
0.0
 11
1180.256653
 21
144.0
 31
0.0
  0
LINE
  5
193
100
AcDbEntity
  8
枠
  6
CONTINUOUS
 62
     3
100
AcDbLine
 10
1180.256653
 20
144.0
 30
0.0
 11
1172.059784
 21
144.0
 31
0.0
  0
LINE
  5
194
100
AcDbEntity
  8
枠
  6
CONTINUOUS
 62
     3
100
AcDbLine
 10
1172.059784
 20
144.0
 30
0.0
 11
1167.656708
 21
168.191742
 31
0.0
  0
LINE
  5
195
100
AcDbEntity
  8
枠
  6
CONTINUOUS
 62
     3
100
AcDbLine
 10
1167.656708
 20
168.191742
 30
0.0
 11
1167.656708
 21
144.0
 31
0.0
  0
LINE
  5
196
100
AcDbEntity
  8
枠
  6
CONTINUOUS
 62
     3
100
AcDbLine
 10
1167.656708
 20
144.0
 30
0.0
 11
1158.584137
 21
144.0
 31
0.0
  0
LINE
  5
197
100
AcDbEntity
  8
枠
  6
CONTINUOUS
 62
     3
100
AcDbLine
 10
1158.584137
 20
144.0
 30
0.0
 11
1158.584137
 21
168.192047
 31
0.0
  0
LINE
  5
198
100
AcDbEntity
  8
枠
  6
CONTINUOUS
 62
     3
100
AcDbLine
 10
1158.584137
 20
168.192047
 30
0.0
 11
1154.181061
 21
144.0
 31
0.0
  0
LINE
  5
199
100
AcDbEntity
  8
枠
  6
CONTINUOUS
 62
     3
100
AcDbLine
 10
1154.181061
 20
144.0
 30
0.0
 11
1145.984039
 21
144.0
 31
0.0
  0
LINE
  5
19A
100
AcDbEntity
  8
枠
  6
CONTINUOUS
 62
     3
100
AcDbLine
 10
1145.984039
 20
144.0
 30
0.0
 11
1150.387115
 21
168.192047
 31
0.0
  0
LINE
  5
19B
100
AcDbEntity
  8
枠
  6
CONTINUOUS
 62
     3
100
AcDbLine
 10
1150.387115
 20
168.192047
 30
0.0
 11
1145.984039
 21
168.192047
 31
0.0
  0
LINE
  5
19C
100
AcDbEntity
  8
枠
  6
CONTINUOUS
 62
     3
100
AcDbLine
 10
1145.984039
 20
168.192047
 30
0.0
 11
1145.984039
 21
173.232025
 31
0.0
  0
LINE
  5
19D
100
AcDbEntity
  8
枠
  6
CONTINUOUS
 62
     3
100
AcDbLine
 10
1145.984039
 20
173.232025
 30
0.0
 11
1158.584137
 21
173.232025
 31
0.0
  0
LINE
  5
19E
100
AcDbEntity
  8
枠
  6
CONTINUOUS
 62
     3
100
AcDbLine
 10
1158.584137
 20
173.232025
 30
0.0
 11
1158.584137
 21
178.272003
 31
0.0
  0
LINE
  5
19F
100
AcDbEntity
  8
枠
  6
CONTINUOUS
 62
     3
100
AcDbLine
 10
1158.584137
 20
178.272003
 30
0.0
 11
1154.053955
 21
178.272003
 31
0.0
  0
LINE
  5
1A0
100
AcDbEntity
  8
枠
  6
CONTINUOUS
 62
     3
100
AcDbLine
 10
1154.053955
 20
178.272003
 30
0.0
 11
1153.301239
 21
175.248016
 31
0.0
  0
LINE
  5
1A1
100
AcDbEntity
  8
枠
  6
CONTINUOUS
 62
     3
100
AcDbLine
 10
1153.301239
 20
175.248016
 30
0.0
 11
1144.989472
 21
175.248016
 31
0.0
  0
LINE
  5
1A2
100
AcDbEntity
  8
枠
  6
CONTINUOUS
 62
     3
100
AcDbLine
 10
1122.799988
 20
183.311981
 30
0.0
 11
1122.799988
 21
178.272003
 31
0.0
  0
LINE
  5
1A3
100
AcDbEntity
  8
枠
  6
CONTINUOUS
 62
     3
100
AcDbLine
 10
1122.799988
 20
183.311981
 30
0.0
 11
1132.879639
 21
183.311981
 31
0.0
  0
LINE
  5
1A4
100
AcDbEntity
  8
枠
  6
CONTINUOUS
 62
     3
100
AcDbLine
 10
1132.879639
 20
183.311981
 30
0.0
 11
1132.879639
 21
188.351959
 31
0.0
  0
LINE
  5
1A5
100
AcDbEntity
  8
枠
  6
CONTINUOUS
 62
     3
100
AcDbLine
 10
1132.879639
 20
188.351959
 30
0.0
 11
1141.95221
 21
188.351959
 31
0.0
  0
LINE
  5
1A6
100
AcDbEntity
  8
枠
  6
CONTINUOUS
 62
     3
100
AcDbLine
 10
1141.95221
 20
188.351959
 30
0.0
 11
1141.95221
 21
183.311981
 31
0.0
  0
LINE
  5
1A7
100
AcDbEntity
  8
枠
  6
CONTINUOUS
 62
     3
100
AcDbLine
 10
1141.95221
 20
183.311981
 30
0.0
 11
1144.975128
 21
183.311981
 31
0.0
  0
LINE
  5
1A8
100
AcDbEntity
  8
枠
  6
CONTINUOUS
 62
     3
100
AcDbLine
 10
1144.975128
 20
183.311981
 30
0.0
 11
1144.975128
 21
178.272003
 31
0.0
  0
LINE
  5
1A9
100
AcDbEntity
  8
枠
  6
CONTINUOUS
 62
     3
100
AcDbLine
 10
1144.975128
 20
178.272003
 30
0.0
 11
1141.95221
 21
178.272003
 31
0.0
  0
LINE
  5
1AA
100
AcDbEntity
  8
枠
  6
CONTINUOUS
 62
     3
100
AcDbLine
 10
1141.95221
 20
178.272003
 30
0.0
 11
1144.975128
 21
174.110016
 31
0.0
  0
LINE
  5
1AB
100
AcDbEntity
  8
枠
  6
CONTINUOUS
 62
     3
100
AcDbLine
 10
1144.975128
 20
174.110016
 30
0.0
 11
1144.975128
 21
163.820709
 31
0.0
  0
LINE
  5
1AC
100
AcDbEntity
  8
枠
  6
CONTINUOUS
 62
     3
100
AcDbLine
 10
1144.975128
 20
163.820709
 30
0.0
 11
1141.95221
 21
167.982849
 31
0.0
  0
LINE
  5
1AD
100
AcDbEntity
  8
枠
  6
CONTINUOUS
 62
     3
100
AcDbLine
 10
1141.95221
 20
167.982849
 30
0.0
 11
1141.95221
 21
144.0
 31
0.0
  0
LINE
  5
1AE
100
AcDbEntity
  8
枠
  6
CONTINUOUS
 62
     3
100
AcDbLine
 10
1141.95221
 20
144.0
 30
0.0
 11
1132.879639
 21
144.0
 31
0.0
  0
LINE
  5
1AF
100
AcDbEntity
  8
枠
  6
CONTINUOUS
 62
     3
100
AcDbLine
 10
1132.879639
 20
144.0
 30
0.0
 11
1132.879639
 21
178.272003
 31
0.0
  0
LINE
  5
1B0
100
AcDbEntity
  8
枠
  6
CONTINUOUS
 62
     3
100
AcDbLine
 10
1132.483826
 20
178.272003
 30
0.0
 11
1128.880615
 21
144.0
 31
0.0
  0
LINE
  5
1B1
100
AcDbEntity
  8
枠
  6
CONTINUOUS
 62
     3
100
AcDbLine
 10
1128.880615
 20
144.0
 30
0.0
 11
1122.799988
 21
144.0
 31
0.0
  0
LINE
  5
1B2
100
AcDbEntity
  8
枠
  6
CONTINUOUS
 62
     3
100
AcDbLine
 10
1122.799988
 20
144.0
 30
0.0
 11
1126.403198
 21
178.272003
 31
0.0
  0
LINE
  5
1B3
100
AcDbEntity
  8
枠
  6
CONTINUOUS
 62
     3
100
AcDbLine
 10
1126.403198
 20
178.272003
 30
0.0
 11
1122.799988
 21
178.272003
 31
0.0
  0
LINE
  5
1B4
100
AcDbEntity
  8
枠
  6
CONTINUOUS
 62
     3
100
AcDbLine
 10
1185.295563
 20
172.22403
 30
0.0
 11
1185.295563
 21
166.176056
 31
0.0
  0
LINE
  5
1B5
100
AcDbEntity
  8
枠
  6
CONTINUOUS
 62
     3
100
AcDbLine
 10
1185.295563
 20
172.22403
 30
0.0
 11
1215.536347
 21
172.22403
 31
0.0
  0
LINE
  5
1B6
100
AcDbEntity
  8
枠
  6
CONTINUOUS
 62
     3
100
AcDbLine
 10
1215.536347
 20
172.22403
 30
0.0
 11
1215.536347
 21
166.176056
 31
0.0
  0
LINE
  5
1B7
100
AcDbEntity
  8
枠
  6
CONTINUOUS
 62
     3
100
AcDbLine
 10
1215.536347
 20
166.176056
 30
0.0
 11
1205.959167
 21
166.176056
 31
0.0
  0
LINE
  5
1B8
100
AcDbEntity
  8
枠
  6
CONTINUOUS
 62
     3
100
AcDbLine
 10
1205.959167
 20
166.176056
 30
0.0
 11
1205.959167
 21
157.774109
 31
0.0
  0
LINE
  5
1B9
100
AcDbEntity
  8
枠
  6
CONTINUOUS
 62
     3
100
AcDbLine
 10
1205.959167
 20
157.774109
 30
0.0
 11
1216.040802
 21
159.916596
 31
0.0
  0
LINE
  5
1BA
100
AcDbEntity
  8
枠
  6
CONTINUOUS
 62
     3
100
AcDbLine
 10
1216.040802
 20
159.916596
 30
0.0
 11
1216.040802
 21
150.641998
 31
0.0
  0
LINE
  5
1BB
100
AcDbEntity
  8
枠
  6
CONTINUOUS
 62
     3
100
AcDbLine
 10
1216.040802
 20
150.641998
 30
0.0
 11
1184.790955
 21
144.0
 31
0.0
  0
LINE
  5
1BC
100
AcDbEntity
  8
枠
  6
CONTINUOUS
 62
     3
100
AcDbLine
 10
1184.790955
 20
144.0
 30
0.0
 11
1184.790955
 21
153.274597
 31
0.0
  0
LINE
  5
1BD
100
AcDbEntity
  8
枠
  6
CONTINUOUS
 62
     3
100
AcDbLine
 10
1184.790955
 20
153.274597
 30
0.0
 11
1194.872589
 21
155.417236
 31
0.0
  0
LINE
  5
1BE
100
AcDbEntity
  8
枠
  6
CONTINUOUS
 62
     3
100
AcDbLine
 10
1194.872589
 20
155.417236
 30
0.0
 11
1194.872589
 21
166.176056
 31
0.0
  0
LINE
  5
1BF
100
AcDbEntity
  8
枠
  6
CONTINUOUS
 62
     3
100
AcDbLine
 10
1194.872589
 20
166.176056
 30
0.0
 11
1185.295563
 21
166.176056
 31
0.0
  0
LINE
  5
1C0
100
AcDbEntity
  8
枠
  6
CONTINUOUS
 62
     3
100
AcDbLine
 10
1182.272644
 20
184.319977
 30
0.0
 11
1182.272644
 21
178.272003
 31
0.0
  0
LINE
  5
1C1
100
AcDbEntity
  8
枠
  6
CONTINUOUS
 62
     3
100
AcDbLine
 10
1182.272644
 20
184.319977
 30
0.0
 11
1212.244873
 21
184.319977
 31
0.0
  0
LINE
  5
1C2
100
AcDbEntity
  8
枠
  6
CONTINUOUS
 62
     3
100
AcDbLine
 10
1212.244873
 20
184.319977
 30
0.0
 11
1210.778504
 21
188.351959
 31
0.0
  0
LINE
  5
1C3
100
AcDbEntity
  8
枠
  6
CONTINUOUS
 62
     3
100
AcDbLine
 10
1210.778504
 20
188.351959
 30
0.0
 11
1222.576599
 21
188.351959
 31
0.0
  0
LINE
  5
1C4
100
AcDbEntity
  8
枠
  6
CONTINUOUS
 62
     3
100
AcDbLine
 10
1222.576599
 20
188.351959
 30
0.0
 11
1224.044952
 21
184.319977
 31
0.0
  0
LINE
  5
1C5
100
AcDbEntity
  8
枠
  6
CONTINUOUS
 62
     3
100
AcDbLine
 10
1224.044952
 20
184.319977
 30
0.0
 11
1226.624909
 21
184.319977
 31
0.0
  0
LINE
  5
1C6
100
AcDbEntity
  8
枠
  6
CONTINUOUS
 62
     3
100
AcDbLine
 10
1226.624909
 20
184.319977
 30
0.0
 11
1226.624909
 21
188.351959
 31
0.0
  0
LINE
  5
1C7
100
AcDbEntity
  8
枠
  6
CONTINUOUS
 62
     3
100
AcDbLine
 10
1226.624909
 20
188.351959
 30
0.0
 11
1235.695496
 21
188.351959
 31
0.0
  0
LINE
  5
1C8
100
AcDbEntity
  8
枠
  6
CONTINUOUS
 62
     3
100
AcDbLine
 10
1235.695496
 20
188.351959
 30
0.0
 11
1235.695496
 21
184.319977
 31
0.0
  0
LINE
  5
1C9
100
AcDbEntity
  8
枠
  6
CONTINUOUS
 62
     3
100
AcDbLine
 10
1235.695496
 20
184.319977
 30
0.0
 11
1238.720398
 21
184.319977
 31
0.0
  0
LINE
  5
1CA
100
AcDbEntity
  8
枠
  6
CONTINUOUS
 62
     3
100
AcDbLine
 10
1238.720398
 20
184.319977
 30
0.0
 11
1238.720398
 21
178.272003
 31
0.0
  0
LINE
  5
1CB
100
AcDbEntity
  8
枠
  6
CONTINUOUS
 62
     3
100
AcDbLine
 10
1238.720398
 20
178.272003
 30
0.0
 11
1226.245422
 21
178.272003
 31
0.0
  0
LINE
  5
1CC
100
AcDbEntity
  8
枠
  6
CONTINUOUS
 62
     3
100
AcDbLine
 10
1226.245422
 20
178.272003
 30
0.0
 11
1238.720398
 21
144.0
 31
0.0
  0
LINE
  5
1CD
100
AcDbEntity
  8
枠
  6
CONTINUOUS
 62
     3
100
AcDbLine
 10
1238.720398
 20
144.0
 30
0.0
 11
1226.920166
 21
144.0
 31
0.0
  0
LINE
  5
1CE
100
AcDbEntity
  8
枠
  6
CONTINUOUS
 62
     3
100
AcDbLine
 10
1226.920166
 20
144.0
 30
0.0
 11
1214.447327
 21
178.272003
 31
0.0
  0
LINE
  5
1CF
100
AcDbEntity
  8
枠
  6
CONTINUOUS
 62
     3
100
AcDbLine
 10
1214.447327
 20
178.272003
 30
0.0
 11
1182.272644
 21
178.272003
 31
0.0
  0
LINE
  5
1D0
100
AcDbEntity
  8
枠
  6
CONTINUOUS
 62
     3
100
AcDbLine
 10
1240.736389
 20
179.747833
 30
0.0
 11
1240.736389
 21
173.369965
 31
0.0
  0
LINE
  5
1D1
100
AcDbEntity
  8
枠
  6
CONTINUOUS
 62
     3
100
AcDbLine
 10
1240.736389
 20
179.747833
 30
0.0
 11
1269.463654
 21
189.359955
 31
0.0
  0
LINE
  5
1D2
100
AcDbEntity
  8
枠
  6
CONTINUOUS
 62
     3
100
AcDbLine
 10
1269.463654
 20
189.359955
 30
0.0
 11
1298.191071
 21
179.747528
 31
0.0
  0
LINE
  5
1D3
100
AcDbEntity
  8
枠
  6
CONTINUOUS
 62
     3
100
AcDbLine
 10
1298.191071
 20
179.747528
 30
0.0
 11
1298.191071
 21
173.369965
 31
0.0
  0
LINE
  5
1D4
100
AcDbEntity
  8
枠
  6
CONTINUOUS
 62
     3
100
AcDbLine
 10
1298.191071
 20
173.369965
 30
0.0
 11
1289.624939
 21
176.236786
 31
0.0
  0
LINE
  5
1D5
100
AcDbEntity
  8
枠
  6
CONTINUOUS
 62
     3
100
AcDbLine
 10
1289.624939
 20
176.236786
 30
0.0
 11
1289.624939
 21
171.216034
 31
0.0
  0
LINE
  5
1D6
100
AcDbEntity
  8
枠
  6
CONTINUOUS
 62
     3
100
AcDbLine
 10
1289.624939
 20
171.216034
 30
0.0
 11
1249.304504
 21
171.216034
 31
0.0
  0
LINE
  5
1D7
100
AcDbEntity
  8
枠
  6
CONTINUOUS
 62
     3
100
AcDbLine
 10
1249.304504
 20
171.216034
 30
0.0
 11
1249.304504
 21
176.236786
 31
0.0
  0
LINE
  5
1D8
100
AcDbEntity
  8
枠
  6
CONTINUOUS
 62
     3
100
AcDbLine
 10
1249.304504
 20
176.236786
 30
0.0
 11
1240.736389
 21
173.369965
 31
0.0
  0
LINE
  5
1D9
100
AcDbEntity
  8
枠
  6
CONTINUOUS
 62
     3
100
AcDbLine
 10
1252.374573
 20
177.264008
 30
0.0
 11
1269.463654
 21
182.982239
 31
0.0
  0
LINE
  5
1DA
100
AcDbEntity
  8
枠
  6
CONTINUOUS
 62
     3
100
AcDbLine
 10
1269.463654
 20
182.982239
 30
0.0
 11
1286.554871
 21
177.264008
 31
0.0
  0
LINE
  5
1DB
100
AcDbEntity
  8
枠
  6
CONTINUOUS
 62
     3
100
AcDbLine
 10
1286.554871
 20
177.264008
 30
0.0
 11
1252.374573
 21
177.264008
 31
0.0
  0
LINE
  5
1DC
100
AcDbEntity
  8
枠
  6
CONTINUOUS
 62
     3
100
AcDbLine
 10
1240.736389
 20
167.183899
 30
0.0
 11
1240.736389
 21
161.135925
 31
0.0
  0
LINE
  5
1DD
100
AcDbEntity
  8
枠
  6
CONTINUOUS
 62
     3
100
AcDbLine
 10
1240.736389
 20
167.183899
 30
0.0
 11
1298.191071
 21
167.183899
 31
0.0
  0
LINE
  5
1DE
100
AcDbEntity
  8
枠
  6
CONTINUOUS
 62
     3
100
AcDbLine
 10
1298.191071
 20
167.183899
 30
0.0
 11
1298.191071
 21
161.135925
 31
0.0
  0
LINE
  5
1DF
100
AcDbEntity
  8
枠
  6
CONTINUOUS
 62
     3
100
AcDbLine
 10
1298.191071
 20
161.135925
 30
0.0
 11
1290.201111
 21
161.135925
 31
0.0
  0
LINE
  5
1E0
100
AcDbEntity
  8
枠
  6
CONTINUOUS
 62
     3
100
AcDbLine
 10
1290.201111
 20
161.135925
 30
0.0
 11
1298.191071
 21
144.0
 31
0.0
  0
LINE
  5
1E1
100
AcDbEntity
  8
枠
  6
CONTINUOUS
 62
     3
100
AcDbLine
 10
1298.191071
 20
144.0
 30
0.0
 11
1240.736389
 21
144.0
 31
0.0
  0
LINE
  5
1E2
100
AcDbEntity
  8
枠
  6
CONTINUOUS
 62
     3
100
AcDbLine
 10
1240.736389
 20
144.0
 30
0.0
 11
1248.726196
 21
161.135925
 31
0.0
  0
LINE
  5
1E3
100
AcDbEntity
  8
枠
  6
CONTINUOUS
 62
     3
100
AcDbLine
 10
1248.726196
 20
161.135925
 30
0.0
 11
1240.736389
 21
161.135925
 31
0.0
  0
LINE
  5
1E4
100
AcDbEntity
  8
枠
  6
CONTINUOUS
 62
     3
100
AcDbLine
 10
1259.847565
 20
161.135925
 30
0.0
 11
1279.079743
 21
161.135925
 31
0.0
  0
LINE
  5
1E5
100
AcDbEntity
  8
枠
  6
CONTINUOUS
 62
     3
100
AcDbLine
 10
1279.079743
 20
161.135925
 30
0.0
 11
1284.249725
 21
150.047974
 31
0.0
  0
LINE
  5
1E6
100
AcDbEntity
  8
枠
  6
CONTINUOUS
 62
     3
100
AcDbLine
 10
1284.249725
 20
150.047974
 30
0.0
 11
1254.677582
 21
150.047974
 31
0.0
  0
LINE
  5
1E7
100
AcDbEntity
  8
枠
  6
CONTINUOUS
 62
     3
100
AcDbLine
 10
1259.847565
 20
161.135925
 30
0.0
 11
1254.677582
 21
150.047974
 31
0.0
  0
LINE
  5
1E8
100
AcDbEntity
  8
枠
  6
CONTINUOUS
 62
     3
100
AcDbLine
 10
1327.424927
 20
177.264008
 30
0.0
 11
1327.424927
 21
171.216034
 31
0.0
  0
LINE
  5
1E9
100
AcDbEntity
  8
枠
  6
CONTINUOUS
 62
     3
100
AcDbLine
 10
1327.424927
 20
177.264008
 30
0.0
 11
1336.495514
 21
177.264008
 31
0.0
  0
LINE
  5
1EA
100
AcDbEntity
  8
枠
  6
CONTINUOUS
 62
     3
100
AcDbLine
 10
1336.495514
 20
177.264008
 30
0.0
 11
1336.495514
 21
188.351959
 31
0.0
  0
LINE
  5
1EB
100
AcDbEntity
  8
枠
  6
CONTINUOUS
 62
     3
100
AcDbLine
 10
1336.495514
 20
188.351959
 30
0.0
 11
1346.575012
 21
188.351959
 31
0.0
  0
LINE
  5
1EC
100
AcDbEntity
  8
枠
  6
CONTINUOUS
 62
     3
100
AcDbLine
 10
1346.575012
 20
188.351959
 30
0.0
 11
1346.575012
 21
177.264008
 31
0.0
  0
LINE
  5
1ED
100
AcDbEntity
  8
枠
  6
CONTINUOUS
 62
     3
100
AcDbLine
 10
1346.575012
 20
177.264008
 30
0.0
 11
1355.647736
 21
177.264008
 31
0.0
  0
LINE
  5
1EE
100
AcDbEntity
  8
枠
  6
CONTINUOUS
 62
     3
100
AcDbLine
 10
1355.647736
 20
177.264008
 30
0.0
 11
1355.647736
 21
171.216034
 31
0.0
  0
LINE
  5
1EF
100
AcDbEntity
  8
枠
  6
CONTINUOUS
 62
     3
100
AcDbLine
 10
1355.647736
 20
171.216034
 30
0.0
 11
1346.575012
 21
171.216034
 31
0.0
  0
LINE
  5
1F0
100
AcDbEntity
  8
枠
  6
CONTINUOUS
 62
     3
100
AcDbLine
 10
1346.575012
 20
171.216034
 30
0.0
 11
1346.575012
 21
150.047974
 31
0.0
  0
LINE
  5
1F1
100
AcDbEntity
  8
枠
  6
CONTINUOUS
 62
     3
100
AcDbLine
 10
1346.575012
 20
150.047974
 30
0.0
 11
1356.656647
 21
150.047974
 31
0.0
  0
LINE
  5
1F2
100
AcDbEntity
  8
枠
  6
CONTINUOUS
 62
     3
100
AcDbLine
 10
1356.656647
 20
150.047974
 30
0.0
 11
1356.656647
 21
144.0
 31
0.0
  0
LINE
  5
1F3
100
AcDbEntity
  8
枠
  6
CONTINUOUS
 62
     3
100
AcDbLine
 10
1356.656647
 20
144.0
 30
0.0
 11
1323.390961
 21
144.0
 31
0.0
  0
LINE
  5
1F4
100
AcDbEntity
  8
枠
  6
CONTINUOUS
 62
     3
100
AcDbLine
 10
1323.390961
 20
144.0
 30
0.0
 11
1323.390961
 21
150.047974
 31
0.0
  0
LINE
  5
1F5
100
AcDbEntity
  8
枠
  6
CONTINUOUS
 62
     3
100
AcDbLine
 10
1323.390961
 20
150.047974
 30
0.0
 11
1336.495514
 21
150.047974
 31
0.0
  0
LINE
  5
1F6
100
AcDbEntity
  8
枠
  6
CONTINUOUS
 62
     3
100
AcDbLine
 10
1336.495514
 20
150.047974
 30
0.0
 11
1336.495514
 21
171.216034
 31
0.0
  0
LINE
  5
1F7
100
AcDbEntity
  8
枠
  6
CONTINUOUS
 62
     3
100
AcDbLine
 10
1336.495514
 20
171.216034
 30
0.0
 11
1327.424927
 21
171.216034
 31
0.0
  0
LINE
  5
1F8
100
AcDbEntity
  8
枠
  6
CONTINUOUS
 62
     3
100
AcDbLine
 10
1300.206909
 20
184.319977
 30
0.0
 11
1300.206909
 21
178.272003
 31
0.0
  0
LINE
  5
1F9
100
AcDbEntity
  8
枠
  6
CONTINUOUS
 62
     3
100
AcDbLine
 10
1300.206909
 20
184.319977
 30
0.0
 11
1309.279633
 21
184.319977
 31
0.0
  0
LINE
  5
1FA
100
AcDbEntity
  8
枠
  6
CONTINUOUS
 62
     3
100
AcDbLine
 10
1309.279633
 20
184.319977
 30
0.0
 11
1309.279633
 21
188.351959
 31
0.0
  0
LINE
  5
1FB
100
AcDbEntity
  8
枠
  6
CONTINUOUS
 62
     3
100
AcDbLine
 10
1309.279633
 20
188.351959
 30
0.0
 11
1319.359131
 21
188.351959
 31
0.0
  0
LINE
  5
1FC
100
AcDbEntity
  8
枠
  6
CONTINUOUS
 62
     3
100
AcDbLine
 10
1319.359131
 20
188.351959
 30
0.0
 11
1319.359131
 21
184.319977
 31
0.0
  0
LINE
  5
1FD
100
AcDbEntity
  8
枠
  6
CONTINUOUS
 62
     3
100
AcDbLine
 10
1319.359131
 20
184.319977
 30
0.0
 11
1328.431854
 21
184.319977
 31
0.0
  0
LINE
  5
1FE
100
AcDbEntity
  8
枠
  6
CONTINUOUS
 62
     3
100
AcDbLine
 10
1328.431854
 20
184.319977
 30
0.0
 11
1318.026123
 21
169.45578
 31
0.0
  0
LINE
  5
1FF
100
AcDbEntity
  8
枠
  6
CONTINUOUS
 62
     3
100
AcDbLine
 10
1318.026123
 20
169.45578
 30
0.0
 11
1327.424927
 21
162.875885
 31
0.0
  0
LINE
  5
200
100
AcDbEntity
  8
枠
  6
CONTINUOUS
 62
     3
100
AcDbLine
 10
1327.424927
 20
162.875885
 30
0.0
 11
1327.424927
 21
151.801209
 31
0.0
  0
LINE
  5
201
100
AcDbEntity
  8
枠
  6
CONTINUOUS
 62
     3
100
AcDbLine
 10
1327.424927
 20
151.801209
 30
0.0
 11
1319.359131
 21
157.447723
 31
0.0
  0
LINE
  5
202
100
AcDbEntity
  8
枠
  6
CONTINUOUS
 62
     3
100
AcDbLine
 10
1319.359131
 20
157.447723
 30
0.0
 11
1319.359131
 21
144.0
 31
0.0
  0
LINE
  5
203
100
AcDbEntity
  8
枠
  6
CONTINUOUS
 62
     3
100
AcDbLine
 10
1319.359131
 20
144.0
 30
0.0
 11
1309.279633
 21
144.0
 31
0.0
  0
LINE
  5
204
100
AcDbEntity
  8
枠
  6
CONTINUOUS
 62
     3
100
AcDbLine
 10
1309.279633
 20
144.0
 30
0.0
 11
1309.279633
 21
156.9599
 31
0.0
  0
LINE
  5
205
100
AcDbEntity
  8
枠
  6
CONTINUOUS
 62
     3
100
AcDbLine
 10
1309.279633
 20
156.9599
 30
0.0
 11
1300.206909
 21
144.0
 31
0.0
  0
LINE
  5
206
100
AcDbEntity
  8
枠
  6
CONTINUOUS
 62
     3
100
AcDbLine
 10
1300.206909
 20
144.0
 30
0.0
 11
1300.206909
 21
159.819397
 31
0.0
  0
LINE
  5
207
100
AcDbEntity
  8
枠
  6
CONTINUOUS
 62
     3
100
AcDbLine
 10
1300.206909
 20
159.819397
 30
0.0
 11
1313.124848
 21
178.272003
 31
0.0
  0
LINE
  5
208
100
AcDbEntity
  8
枠
  6
CONTINUOUS
 62
     3
100
AcDbLine
 10
1313.124848
 20
178.272003
 30
0.0
 11
1300.206909
 21
178.272003
 31
0.0
  0
ARC
  5
209
100
AcDbEntity
  8
枠
  6
CONTINUOUS
 62
     2
100
AcDbCircle
 10
858.161011
 20
170.200409
 30
0.0
 40
6.300122
100
AcDbArc
 50
310.768311
 51
335.998779
  0
LINE
  5
20A
100
AcDbEntity
  8
枠
  6
CONTINUOUS
 62
     2
100
AcDbLine
 10
865.400238
 20
170.964111
 30
0.0
 11
863.919678
 21
167.639069
 31
0.0
  0
LINE
  5
20B
100
AcDbEntity
  8
枠
  6
CONTINUOUS
 62
     2
100
AcDbLine
 10
847.985077
 20
174.744019
 30
0.0
 11
871.218414
 21
174.744019
 31
0.0
  0
ARC
  5
20C
100
AcDbEntity
  8
枠
  6
CONTINUOUS
 62
     2
100
AcDbCircle
 10
951.299286
 20
162.144074
 30
0.0
 40
15.624008
100
AcDbArc
 50
270.000031
 51
324.00116
  0
ARC
  5
20D
100
AcDbEntity
  8
枠
  6
CONTINUOUS
 62
     2
100
AcDbCircle
 10
951.299286
 20
162.144074
 30
0.0
 40
13.10401
100
AcDbArc
 50
270.000031
 51
324.00116
  0
ARC
  5
20E
100
AcDbEntity
  8
枠
  6
CONTINUOUS
 62
     2
100
AcDbCircle
 10
798.565674
 20
162.144074
 30
0.0
 40
15.62398
100
AcDbArc
 50
270.000031
 51
333.99855
  0
ARC
  5
20F
100
AcDbEntity
  8
枠
  6
CONTINUOUS
 62
     2
100
AcDbCircle
 10
797.765503
 20
162.144074
 30
0.0
 40
10.583992
100
AcDbArc
 50
270.000031
 51
333.99855
  0
ARC
  5
210
100
AcDbEntity
  8
枠
  6
CONTINUOUS
 62
     2
100
AcDbCircle
 10
798.165588
 20
162.144074
 30
0.0
 40
13.103991
100
AcDbArc
 50
270.000031
 51
333.99855
  0
LINE
  5
211
100
AcDbEntity
  8
枠
  6
CONTINUOUS
 62
     2
100
AcDbLine
 10
771.84082
 20
186.032127
 30
0.0
 11
796.383972
 21
186.032127
 31
0.0
  0
LINE
  5
212
100
AcDbEntity
  8
枠
  6
CONTINUOUS
 62
     2
100
AcDbLine
 10
771.84082
 20
183.712143
 30
0.0
 11
796.383972
 21
183.712143
 31
0.0
  0
LINE
  5
213
100
AcDbEntity
  8
枠
  6
CONTINUOUS
 62
     2
100
AcDbLine
 10
771.84082
 20
181.392311
 30
0.0
 11
796.383972
 21
181.392311
 31
0.0
  0
LINE
  5
214
100
AcDbEntity
  8
枠
  6
CONTINUOUS
 62
     2
100
AcDbLine
 10
771.84082
 20
174.136032
 30
0.0
 11
796.383972
 21
174.136032
 31
0.0
  0
LINE
  5
215
100
AcDbEntity
  8
枠
  6
CONTINUOUS
 62
     2
100
AcDbLine
 10
771.84082
 20
171.615891
 30
0.0
 11
796.383972
 21
171.615891
 31
0.0
  0
LINE
  5
216
100
AcDbEntity
  8
枠
  6
CONTINUOUS
 62
     2
100
AcDbLine
 10
771.84082
 20
169.296059
 30
0.0
 11
796.383972
 21
169.296059
 31
0.0
  0
LINE
  5
217
100
AcDbEntity
  8
枠
  6
CONTINUOUS
 62
     2
100
AcDbLine
 10
771.84082
 20
151.559967
 30
0.0
 11
797.765503
 21
151.559967
 31
0.0
  0
LINE
  5
218
100
AcDbEntity
  8
枠
  6
CONTINUOUS
 62
     2
100
AcDbLine
 10
771.84082
 20
149.039978
 30
0.0
 11
797.765503
 21
149.039978
 31
0.0
  0
LINE
  5
219
100
AcDbEntity
  8
枠
  6
CONTINUOUS
 62
     2
100
AcDbLine
 10
771.84082
 20
146.519989
 30
0.0
 11
797.765503
 21
146.519989
 31
0.0
  0
LINE
  5
21A
100
AcDbEntity
  8
枠
  6
CONTINUOUS
 62
     2
100
AcDbLine
 10
807.277069
 20
157.504028
 30
0.0
 11
816.108246
 21
175.610365
 31
0.0
  0
LINE
  5
21B
100
AcDbEntity
  8
枠
  6
CONTINUOUS
 62
     2
100
AcDbLine
 10
809.941254
 20
156.399597
 30
0.0
 11
819.311676
 21
175.610375
 31
0.0
  0
LINE
  5
21C
100
AcDbEntity
  8
枠
  6
CONTINUOUS
 62
     2
100
AcDbLine
 10
812.605286
 20
155.294251
 30
0.0
 11
822.513123
 21
175.610346
 31
0.0
  0
LINE
  5
21D
100
AcDbEntity
  8
枠
  6
CONTINUOUS
 62
     2
100
AcDbLine
 10
809.136353
 20
185.695976
 30
0.0
 11
813.518372
 21
185.695976
 31
0.0
  0
LINE
  5
21E
100
AcDbEntity
  8
枠
  6
CONTINUOUS
 62
     2
100
AcDbLine
 10
809.136353
 20
182.839989
 30
0.0
 11
813.518372
 21
182.839989
 31
0.0
  0
LINE
  5
21F
100
AcDbEntity
  8
枠
  6
CONTINUOUS
 62
     2
100
AcDbLine
 10
820.224915
 20
185.695976
 30
0.0
 11
824.606934
 21
185.695976
 31
0.0
  0
LINE
  5
220
100
AcDbEntity
  8
枠
  6
CONTINUOUS
 62
     2
100
AcDbLine
 10
820.224915
 20
182.839989
 30
0.0
 11
824.606934
 21
182.839989
 31
0.0
  0
LINE
  5
221
100
AcDbEntity
  8
枠
  6
CONTINUOUS
 62
     2
100
AcDbLine
 10
831.313477
 20
172.224182
 30
0.0
 11
843.28064
 21
172.224182
 31
0.0
  0
LINE
  5
222
100
AcDbEntity
  8
枠
  6
CONTINUOUS
 62
     2
100
AcDbLine
 10
840.375366
 20
182.502684
 30
0.0
 11
841.605072
 21
174.744019
 31
0.0
  0
LINE
  5
223
100
AcDbEntity
  8
枠
  6
CONTINUOUS
 62
     2
100
AcDbLine
 10
846.188049
 20
145.817303
 30
0.0
 11
842.449036
 21
169.419044
 31
0.0
  0
ARC
  5
224
100
AcDbEntity
  8
枠
  6
CONTINUOUS
 62
     2
100
AcDbCircle
 10
857.960968
 20
170.200409
 30
0.0
 40
8.820121
100
AcDbArc
 50
272.671387
 51
335.998779
  0
ARC
  5
225
100
AcDbEntity
  8
枠
  6
CONTINUOUS
 62
     2
100
AcDbCircle
 10
857.760925
 20
170.200409
 30
0.0
 40
11.340113
100
AcDbArc
 50
267.367432
 51
335.998779
  0
LINE
  5
226
100
AcDbEntity
  8
枠
  6
CONTINUOUS
 62
     2
100
AcDbLine
 10
872.351685
 20
175.090527
 30
0.0
 11
868.12149
 21
165.588592
 31
0.0
  0
LINE
  5
227
100
AcDbEntity
  8
枠
  6
CONTINUOUS
 62
     2
100
AcDbLine
 10
852.090607
 20
145.817303
 30
0.0
 11
848.220367
 21
170.248817
 31
0.0
  0
LINE
  5
228
100
AcDbEntity
  8
枠
  6
CONTINUOUS
 62
     2
100
AcDbLine
 10
849.339294
 20
145.817303
 30
0.0
 11
843.528442
 21
182.502674
 31
0.0
  0
LINE
  5
229
100
AcDbEntity
  8
枠
  6
CONTINUOUS
 62
     2
100
AcDbLine
 10
846.279755
 20
182.502674
 30
0.0
 11
847.39563
 21
175.459465
 31
0.0
  0
LINE
  5
22A
100
AcDbEntity
  8
枠
  6
CONTINUOUS
 62
     2
100
AcDbLine
 10
831.313477
 20
174.744019
 30
0.0
 11
839.605103
 21
174.744019
 31
0.0
  0
LINE
  5
22B
100
AcDbEntity
  8
枠
  6
CONTINUOUS
 62
     2
100
AcDbLine
 10
868.669891
 20
172.570395
 30
0.0
 11
866.020508
 21
166.613525
 31
0.0
  0
LINE
  5
22C
100
AcDbEntity
  8
枠
  6
CONTINUOUS
 62
     2
100
AcDbLine
 10
847.107391
 20
172.224182
 30
0.0
 11
866.338196
 21
172.224182
 31
0.0
  0
ARC
  5
22D
100
AcDbEntity
  8
枠
  6
CONTINUOUS
 62
     2
100
AcDbCircle
 10
857.560883
 20
170.200409
 30
0.0
 40
13.860111
100
AcDbArc
 50
269.611328
 51
335.998779
  0
LINE
  5
22E
100
AcDbEntity
  8
枠
  6
CONTINUOUS
 62
     2
100
AcDbLine
 10
874.909821
 20
175.090555
 30
0.0
 11
870.222473
 21
164.563354
 31
0.0
  0
LINE
  5
22F
100
AcDbEntity
  8
枠
  6
CONTINUOUS
 62
     2
100
AcDbLine
 10
982.312622
 20
183.312134
 30
0.0
 11
961.880646
 21
155.182709
 31
0.0
  0
LINE
  5
230
100
AcDbEntity
  8
枠
  6
CONTINUOUS
 62
     2
100
AcDbLine
 10
976.868134
 20
180.792297
 30
0.0
 11
959.342041
 21
156.664032
 31
0.0
  0
ARC
  5
231
100
AcDbEntity
  8
枠
  6
CONTINUOUS
 62
     2
100
AcDbCircle
 10
951.999359
 20
161.744064
 30
0.0
 40
9.324021
100
AcDbArc
 50
270.000031
 51
324.00116
  0
LINE
  5
232
100
AcDbEntity
  8
枠
  6
CONTINUOUS
 62
     2
100
AcDbLine
 10
882.879486
 20
186.015591
 30
0.0
 11
927.263641
 21
186.015591
 31
0.0
  0
LINE
  5
233
100
AcDbEntity
  8
枠
  6
CONTINUOUS
 62
     2
100
AcDbLine
 10
882.879486
 20
183.395752
 30
0.0
 11
927.263641
 21
183.395752
 31
0.0
  0
LINE
  5
234
100
AcDbEntity
  8
枠
  6
CONTINUOUS
 62
     2
100
AcDbLine
 10
882.879486
 20
180.675911
 30
0.0
 11
927.263641
 21
180.675911
 31
0.0
  0
LINE
  5
235
100
AcDbEntity
  8
枠
  6
CONTINUOUS
 62
     2
100
AcDbLine
 10
878.847656
 20
151.644043
 30
0.0
 11
931.295471
 21
151.644043
 31
0.0
  0
LINE
  5
236
100
AcDbEntity
  8
枠
  6
CONTINUOUS
 62
     2
100
AcDbLine
 10
878.847656
 20
149.124054
 30
0.0
 11
931.295471
 21
149.124054
 31
0.0
  0
LINE
  5
237
100
AcDbEntity
  8
枠
  6
CONTINUOUS
 62
     2
100
AcDbLine
 10
878.847656
 20
146.403908
 30
0.0
 11
931.295471
 21
146.403908
 31
0.0
  0
LINE
  5
238
100
AcDbEntity
  8
枠
  6
CONTINUOUS
 62
     2
100
AcDbLine
 10
942.352142
 20
185.932125
 30
0.0
 11
985.256806
 21
185.932125
 31
0.0
  0
LINE
  5
239
100
AcDbEntity
  8
枠
  6
CONTINUOUS
 62
     2
100
AcDbLine
 10
987.856903
 20
185.832123
 30
0.0
 11
964.519043
 21
153.700623
 31
0.0
  0
LINE
  5
23A
100
AcDbEntity
  8
枠
  6
CONTINUOUS
 62
     2
100
AcDbLine
 10
942.352142
 20
183.312134
 30
0.0
 11
980.3125
 21
183.312134
 31
0.0
  0
LINE
  5
23B
100
AcDbEntity
  8
枠
  6
CONTINUOUS
 62
     2
100
AcDbLine
 10
951.299286
 20
151.659969
 30
0.0
 11
938.320313
 21
151.659969
 31
0.0
  0
LINE
  5
23C
100
AcDbEntity
  8
枠
  6
CONTINUOUS
 62
     2
100
AcDbLine
 10
951.299286
 20
149.039978
 30
0.0
 11
938.320313
 21
149.039978
 31
0.0
  0
LINE
  5
23D
100
AcDbEntity
  8
枠
  6
CONTINUOUS
 62
     2
100
AcDbLine
 10
951.299286
 20
146.419987
 30
0.0
 11
938.320313
 21
146.419987
 31
0.0
  0
LINE
  5
23E
100
AcDbEntity
  8
枠
  6
CONTINUOUS
 62
     2
100
AcDbLine
 10
971.431885
 20
159.737152
 30
0.0
 11
983.371582
 21
145.999998
 31
0.0
  0
LINE
  5
23F
100
AcDbEntity
  8
枠
  6
CONTINUOUS
 62
     2
100
AcDbLine
 10
972.953491
 20
161.530508
 30
0.0
 11
986.451721
 21
145.999998
 31
0.0
  0
LINE
  5
240
100
AcDbEntity
  8
枠
  6
CONTINUOUS
 62
     2
100
AcDbLine
 10
974.473114
 20
163.322949
 30
0.0
 11
989.529419
 21
145.999998
 31
0.0
  0
LINE
  5
241
100
AcDbEntity
  8
枠
  6
CONTINUOUS
 62
     2
100
AcDbLine
 10
975.992737
 20
165.115847
 30
0.0
 11
992.609253
 21
145.999998
 31
0.0
  0
LINE
  5
242
100
AcDbEntity
  8
枠
  6
CONTINUOUS
 62
     2
100
AcDbLine
 10
942.352142
 20
180.592293
 30
0.0
 11
974.367981
 21
180.592293
 31
0.0
  0
LINE
  5
243
100
AcDbEntity
  8
枠
  6
CONTINUOUS
 62
     2
100
AcDbLine
 10
1010.895538
 20
186.032127
 30
0.0
 11
1059.311371
 21
186.032127
 31
0.0
  0
LINE
  5
244
100
AcDbEntity
  8
枠
  6
CONTINUOUS
 62
     2
100
AcDbLine
 10
1010.895538
 20
183.512138
 30
0.0
 11
1059.311371
 21
183.512138
 31
0.0
  0
LINE
  5
245
100
AcDbEntity
  8
枠
  6
CONTINUOUS
 62
     2
100
AcDbLine
 10
1031.677399
 20
151.479916
 30
0.0
 11
1031.677399
 21
181.212219
 31
0.0
  0
LINE
  5
246
100
AcDbEntity
  8
枠
  6
CONTINUOUS
 62
     2
100
AcDbLine
 10
1034.195862
 20
151.479916
 30
0.0
 11
1034.195862
 21
181.212219
 31
0.0
  0
LINE
  5
247
100
AcDbEntity
  8
枠
  6
CONTINUOUS
 62
     2
100
AcDbLine
 10
1036.714172
 20
151.479916
 30
0.0
 11
1036.714172
 21
181.212219
 31
0.0
  0
LINE
  5
248
100
AcDbEntity
  8
枠
  6
CONTINUOUS
 62
     2
100
AcDbLine
 10
1039.03244
 20
151.479916
 30
0.0
 11
1039.03244
 21
181.212219
 31
0.0
  0
LINE
  5
249
100
AcDbEntity
  8
枠
  6
CONTINUOUS
 62
     2
100
AcDbLine
 10
1008.879547
 20
149.479918
 30
0.0
 11
1061.327362
 21
149.479918
 31
0.0
  0
LINE
  5
24A
100
AcDbEntity
  8
枠
  6
CONTINUOUS
 62
     2
100
AcDbLine
 10
1008.879547
 20
146.459927
 30
0.0
 11
1061.327362
 21
146.459927
 31
0.0
  0
LINE
  5
24B
100
AcDbEntity
  8
枠
  6
CONTINUOUS
 62
     2
100
AcDbLine
 10
1073.127594
 20
186.351961
 30
0.0
 11
1076.87088
 21
181.561502
 31
0.0
  0
LINE
  5
24C
100
AcDbEntity
  8
枠
  6
CONTINUOUS
 62
     2
100
AcDbLine
 10
1076.324768
 20
186.351961
 30
0.0
 11
1080.068054
 21
181.561502
 31
0.0
  0
LINE
  5
24D
100
AcDbEntity
  8
枠
  6
CONTINUOUS
 62
     2
100
AcDbLine
 10
1086.31134
 20
186.351961
 30
0.0
 11
1086.31134
 21
181.985563
 31
0.0
  0
LINE
  5
24E
100
AcDbEntity
  8
枠
  6
CONTINUOUS
 62
     2
100
AcDbLine
 10
1089.029846
 20
186.351961
 30
0.0
 11
1089.029846
 21
181.985563
 31
0.0
  0
LINE
  5
24F
100
AcDbEntity
  8
枠
  6
CONTINUOUS
 62
     2
100
AcDbLine
 10
1096.390991
 20
186.351961
 30
0.0
 11
1096.390991
 21
181.985563
 31
0.0
  0
LINE
  5
250
100
AcDbEntity
  8
枠
  6
CONTINUOUS
 62
     2
100
AcDbLine
 10
1099.309387
 20
186.351961
 30
0.0
 11
1099.309387
 21
181.985563
 31
0.0
  0
LINE
  5
251
100
AcDbEntity
  8
枠
  6
CONTINUOUS
 62
     2
100
AcDbLine
 10
1108.995667
 20
186.351961
 30
0.0
 11
1105.25238
 21
181.561502
 31
0.0
  0
LINE
  5
252
100
AcDbEntity
  8
枠
  6
CONTINUOUS
 62
     2
100
AcDbLine
 10
1112.392883
 20
186.351961
 30
0.0
 11
1108.649597
 21
181.561502
 31
0.0
  0
LINE
  5
253
100
AcDbEntity
  8
枠
  6
CONTINUOUS
 62
     2
100
AcDbLine
 10
1066.336212
 20
179.985565
 30
0.0
 11
1118.784027
 21
179.985565
 31
0.0
  0
LINE
  5
254
100
AcDbEntity
  8
枠
  6
CONTINUOUS
 62
     2
100
AcDbLine
 10
1079.431763
 20
172.188286
 30
0.0
 11
1077.277832
 21
178.106178
 31
0.0
  0
LINE
  5
255
100
AcDbEntity
  8
枠
  6
CONTINUOUS
 62
     2
100
AcDbLine
 10
1082.512207
 20
172.188286
 30
0.0
 11
1080.358276
 21
178.106178
 31
0.0
  0
LINE
  5
256
100
AcDbEntity
  8
枠
  6
CONTINUOUS
 62
     2
100
AcDbLine
 10
1085.392609
 20
172.188515
 30
0.0
 11
1083.241119
 21
178.105949
 31
0.0
  0
LINE
  5
257
100
AcDbEntity
  8
枠
  6
CONTINUOUS
 62
     2
100
AcDbLine
 10
1099.919434
 20
172.188066
 30
0.0
 11
1102.075653
 21
178.106398
 31
0.0
  0
LINE
  5
258
100
AcDbEntity
  8
枠
  6
CONTINUOUS
 62
     2
100
AcDbLine
 10
1103.002014
 20
172.188066
 30
0.0
 11
1105.158234
 21
178.106398
 31
0.0
  0
LINE
  5
259
100
AcDbEntity
  8
枠
  6
CONTINUOUS
 62
     2
100
AcDbLine
 10
1105.882416
 20
172.188066
 30
0.0
 11
1108.038635
 21
178.106398
 31
0.0
  0
LINE
  5
25A
100
AcDbEntity
  8
枠
  6
CONTINUOUS
 62
     2
100
AcDbLine
 10
1066.336212
 20
170.308899
 30
0.0
 11
1118.784027
 21
170.308899
 31
0.0
  0
LINE
  5
25B
100
AcDbEntity
  8
枠
  6
CONTINUOUS
 62
     2
100
AcDbLine
 10
1066.336212
 20
163.353638
 30
0.0
 11
1087.838745
 21
163.353638
 31
0.0
  0
LINE
  5
25C
100
AcDbEntity
  8
枠
  6
CONTINUOUS
 62
     2
100
AcDbLine
 10
1066.336212
 20
156.398377
 30
0.0
 11
1087.838745
 21
156.398377
 31
0.0
  0
LINE
  5
25D
100
AcDbEntity
  8
枠
  6
CONTINUOUS
 62
     2
100
AcDbLine
 10
1097.475586
 20
156.398377
 30
0.0
 11
1118.784027
 21
156.398377
 31
0.0
  0
LINE
  5
25E
100
AcDbEntity
  8
枠
  6
CONTINUOUS
 62
     2
100
AcDbLine
 10
1069.50882
 20
145.999998
 30
0.0
 11
1079.533234
 21
155.057539
 31
0.0
  0
LINE
  5
25F
100
AcDbEntity
  8
枠
  6
CONTINUOUS
 62
     2
100
AcDbLine
 10
1072.867737
 20
145.999998
 30
0.0
 11
1082.892456
 21
155.057558
 31
0.0
  0
LINE
  5
260
100
AcDbEntity
  8
枠
  6
CONTINUOUS
 62
     2
100
AcDbLine
 10
1076.028748
 20
145.999998
 30
0.0
 11
1086.053467
 21
155.057558
 31
0.0
  0
LINE
  5
261
100
AcDbEntity
  8
枠
  6
CONTINUOUS
 62
     2
100
AcDbLine
 10
1089.838715
 20
145.999998
 30
0.0
 11
1089.838715
 21
168.308901
 31
0.0
  0
LINE
  5
262
100
AcDbEntity
  8
枠
  6
CONTINUOUS
 62
     2
100
AcDbLine
 10
1092.757111
 20
145.999998
 30
0.0
 11
1092.757111
 21
168.308901
 31
0.0
  0
LINE
  5
263
100
AcDbEntity
  8
枠
  6
CONTINUOUS
 62
     2
100
AcDbLine
 10
1095.475617
 20
145.999998
 30
0.0
 11
1095.475617
 21
168.308901
 31
0.0
  0
LINE
  5
264
100
AcDbEntity
  8
枠
  6
CONTINUOUS
 62
     2
100
AcDbLine
 10
1109.171753
 20
145.999998
 30
0.0
 11
1099.147339
 21
155.057539
 31
0.0
  0
LINE
  5
265
100
AcDbEntity
  8
枠
  6
CONTINUOUS
 62
     2
100
AcDbLine
 10
1112.530823
 20
145.999998
 30
0.0
 11
1102.506104
 21
155.057558
 31
0.0
  0
LINE
  5
266
100
AcDbEntity
  8
枠
  6
CONTINUOUS
 62
     2
100
AcDbLine
 10
1115.891876
 20
145.999998
 30
0.0
 11
1105.867157
 21
155.057558
 31
0.0
  0
LINE
  5
267
100
AcDbEntity
  8
枠
  6
CONTINUOUS
 62
     2
100
AcDbLine
 10
1134.997864
 20
186.351961
 30
0.0
 11
1134.997864
 21
182.79199
 31
0.0
  0
LINE
  5
268
100
AcDbEntity
  8
枠
  6
CONTINUOUS
 62
     2
100
AcDbLine
 10
1137.516174
 20
186.351961
 30
0.0
 11
1137.516174
 21
182.79199
 31
0.0
  0
LINE
  5
269
100
AcDbEntity
  8
枠
  6
CONTINUOUS
 62
     2
100
AcDbLine
 10
1140.034638
 20
186.351961
 30
0.0
 11
1140.034638
 21
182.79199
 31
0.0
  0
LINE
  5
26A
100
AcDbEntity
  8
枠
  6
CONTINUOUS
 62
     2
100
AcDbLine
 10
1124.799957
 20
180.791992
 30
0.0
 11
1142.975159
 21
180.791992
 31
0.0
  0
LINE
  5
26B
100
AcDbEntity
  8
枠
  6
CONTINUOUS
 62
     2
100
AcDbLine
 10
1124.944153
 20
145.98905
 30
0.0
 11
1128.392029
 21
178.802942
 31
0.0
  0
LINE
  5
26C
100
AcDbEntity
  8
枠
  6
CONTINUOUS
 62
     2
100
AcDbLine
 10
1127.276764
 20
145.98905
 30
0.0
 11
1130.724792
 21
178.802942
 31
0.0
  0
LINE
  5
26D
100
AcDbEntity
  8
枠
  6
CONTINUOUS
 62
     2
100
AcDbLine
 10
1134.997864
 20
145.999998
 30
0.0
 11
1134.997864
 21
178.791994
 31
0.0
  0
LINE
  5
26E
100
AcDbEntity
  8
枠
  6
CONTINUOUS
 62
     2
100
AcDbLine
 10
1137.516174
 20
145.999998
 30
0.0
 11
1137.516174
 21
178.791994
 31
0.0
  0
LINE
  5
26F
100
AcDbEntity
  8
枠
  6
CONTINUOUS
 62
     2
100
AcDbLine
 10
1140.034638
 20
145.999998
 30
0.0
 11
1140.034638
 21
178.791994
 31
0.0
  0
LINE
  5
270
100
AcDbEntity
  8
枠
  6
CONTINUOUS
 62
     2
100
AcDbLine
 10
1141.209259
 20
176.154245
 30
0.0
 11
1143.800354
 21
172.583841
 31
0.0
  0
LINE
  5
271
100
AcDbEntity
  8
枠
  6
CONTINUOUS
 62
     2
100
AcDbLine
 10
1141.209259
 20
172.264246
 30
0.0
 11
1143.800354
 21
168.693842
 31
0.0
  0
LINE
  5
272
100
AcDbEntity
  8
枠
  6
CONTINUOUS
 62
     2
100
AcDbLine
 10
1147.469177
 20
177.188601
 30
0.0
 11
1149.768829
 21
186.411375
 31
0.0
  0
LINE
  5
273
100
AcDbEntity
  8
枠
  6
CONTINUOUS
 62
     2
100
AcDbLine
 10
1149.867401
 20
177.188686
 30
0.0
 11
1152.165222
 21
186.411289
 31
0.0
  0
LINE
  5
274
100
AcDbEntity
  8
枠
  6
CONTINUOUS
 62
     2
100
AcDbLine
 10
1151.963806
 20
177.188601
 30
0.0
 11
1154.263458
 21
186.411375
 31
0.0
  0
LINE
  5
275
100
AcDbEntity
  8
枠
  6
CONTINUOUS
 62
     2
100
AcDbLine
 10
1160.702362
 20
182.79199
 30
0.0
 11
1160.702362
 21
186.351961
 31
0.0
  0
LINE
  5
276
100
AcDbEntity
  8
枠
  6
CONTINUOUS
 62
     2
100
AcDbLine
 10
1163.420715
 20
182.79199
 30
0.0
 11
1163.420715
 21
186.351961
 31
0.0
  0
LINE
  5
277
100
AcDbEntity
  8
枠
  6
CONTINUOUS
 62
     2
100
AcDbLine
 10
1165.939179
 20
182.79199
 30
0.0
 11
1165.939179
 21
186.351961
 31
0.0
  0
LINE
  5
278
100
AcDbEntity
  8
枠
  6
CONTINUOUS
 62
     2
100
AcDbLine
 10
1154.862213
 20
180.791992
 30
0.0
 11
1177.247772
 21
180.791992
 31
0.0
  0
LINE
  5
279
100
AcDbEntity
  8
枠
  6
CONTINUOUS
 62
     2
100
AcDbLine
 10
1160.702362
 20
178.791994
 30
0.0
 11
1160.702362
 21
172.712034
 31
0.0
  0
LINE
  5
27A
100
AcDbEntity
  8
枠
  6
CONTINUOUS
 62
     2
100
AcDbLine
 10
1163.420715
 20
178.791994
 30
0.0
 11
1163.420715
 21
172.712034
 31
0.0
  0
LINE
  5
27B
100
AcDbEntity
  8
枠
  6
CONTINUOUS
 62
     2
100
AcDbLine
 10
1165.939179
 20
178.791994
 30
0.0
 11
1165.939179
 21
172.712034
 31
0.0
  0
LINE
  5
27C
100
AcDbEntity
  8
枠
  6
CONTINUOUS
 62
     2
100
AcDbLine
 10
1147.984009
 20
170.712036
 30
0.0
 11
1178.256683
 21
170.712036
 31
0.0
  0
LINE
  5
27D
100
AcDbEntity
  8
枠
  6
CONTINUOUS
 62
     2
100
AcDbLine
 10
1152.447968
 20
168.744387
 30
0.0
 11
1148.300781
 21
145.967649
 31
0.0
  0
LINE
  5
27E
100
AcDbEntity
  8
枠
  6
CONTINUOUS
 62
     2
100
AcDbLine
 10
1154.807282
 20
168.744387
 30
0.0
 11
1150.660248
 21
145.967649
 31
0.0
  0
LINE
  5
27F
100
AcDbEntity
  8
枠
  6
CONTINUOUS
 62
     2
100
AcDbLine
 10
1156.889191
 20
168.744415
 30
0.0
 11
1152.740021
 21
145.967621
 31
0.0
  0
LINE
  5
280
100
AcDbEntity
  8
枠
  6
CONTINUOUS
 62
     2
100
AcDbLine
 10
1160.702362
 20
168.712038
 30
0.0
 11
1160.702362
 21
145.999998
 31
0.0
  0
LINE
  5
281
100
AcDbEntity
  8
枠
  6
CONTINUOUS
 62
     2
100
AcDbLine
 10
1163.220673
 20
168.712038
 30
0.0
 11
1163.220673
 21
145.999998
 31
0.0
  0
LINE
  5
282
100
AcDbEntity
  8
枠
  6
CONTINUOUS
 62
     3
100
AcDbLine
 10
1165.939179
 20
168.712038
 30
0.0
 11
1165.939179
 21
145.999998
 31
0.0
  0
LINE
  5
283
100
AcDbEntity
  8
枠
  6
CONTINUOUS
 62
     2
100
AcDbLine
 10
1169.349518
 20
168.744415
 30
0.0
 11
1173.498688
 21
145.967621
 31
0.0
  0
LINE
  5
284
100
AcDbEntity
  8
枠
  6
CONTINUOUS
 62
     2
100
AcDbLine
 10
1171.510925
 20
168.744415
 30
0.0
 11
1175.660095
 21
145.967621
 31
0.0
  0
LINE
  5
285
100
AcDbEntity
  8
枠
  6
CONTINUOUS
 62
     2
100
AcDbLine
 10
1174.070282
 20
168.744415
 30
0.0
 11
1178.219452
 21
145.967621
 31
0.0
  0
LINE
  5
286
100
AcDbEntity
  8
枠
  6
CONTINUOUS
 62
     2
100
AcDbLine
 10
1184.272614
 20
182.400154
 30
0.0
 11
1212.824097
 21
182.400154
 31
0.0
  0
LINE
  5
287
100
AcDbEntity
  8
枠
  6
CONTINUOUS
 62
     2
100
AcDbLine
 10
1184.272614
 20
179.880165
 30
0.0
 11
1213.741303
 21
179.880165
 31
0.0
  0
LINE
  5
288
100
AcDbEntity
  8
枠
  6
CONTINUOUS
 62
     2
100
AcDbLine
 10
1228.116608
 20
145.879387
 30
0.0
 11
1213.34198
 21
186.472572
 31
0.0
  0
LINE
  5
289
100
AcDbEntity
  8
枠
  6
CONTINUOUS
 62
     2
100
AcDbLine
 10
1230.796967
 20
145.879396
 30
0.0
 11
1216.022949
 21
186.472563
 31
0.0
  0
LINE
  5
28A
100
AcDbEntity
  8
枠
  6
CONTINUOUS
 62
     2
100
AcDbLine
 10
1233.477326
 20
145.879396
 30
0.0
 11
1218.703308
 21
186.472563
 31
0.0
  0
LINE
  5
28B
100
AcDbEntity
  8
枠
  6
CONTINUOUS
 62
     2
100
AcDbLine
 10
1236.157684
 20
145.879358
 30
0.0
 11
1221.381378
 21
186.472591
 31
0.0
  0
LINE
  5
28C
100
AcDbEntity
  8
枠
  6
CONTINUOUS
 62
     2
100
AcDbLine
 10
1228.543091
 20
184.400152
 30
0.0
 11
1228.543091
 21
186.351961
 31
0.0
  0
LINE
  5
28D
100
AcDbEntity
  8
枠
  6
CONTINUOUS
 62
     2
100
AcDbLine
 10
1231.261597
 20
184.400152
 30
0.0
 11
1231.261597
 21
186.351961
 31
0.0
  0
LINE
  5
28E
100
AcDbEntity
  8
枠
  6
CONTINUOUS
 62
     2
100
AcDbLine
 10
1233.97995
 20
184.400152
 30
0.0
 11
1233.97995
 21
186.351961
 31
0.0
  0
LINE
  5
28F
100
AcDbEntity
  8
枠
  6
CONTINUOUS
 62
     2
100
AcDbLine
 10
1224.863739
 20
182.400154
 30
0.0
 11
1236.720429
 21
182.400154
 31
0.0
  0
LINE
  5
290
100
AcDbEntity
  8
枠
  6
CONTINUOUS
 62
     2
100
AcDbLine
 10
1225.781098
 20
179.880165
 30
0.0
 11
1236.720429
 21
179.880165
 31
0.0
  0
LINE
  5
291
100
AcDbEntity
  8
枠
  6
CONTINUOUS
 62
     2
100
AcDbLine
 10
1187.295532
 20
170.364098
 30
0.0
 11
1213.536377
 21
170.364098
 31
0.0
  0
LINE
  5
292
100
AcDbEntity
  8
枠
  6
CONTINUOUS
 62
     2
100
AcDbLine
 10
1187.295532
 20
167.843956
 30
0.0
 11
1213.536377
 21
167.843956
 31
0.0
  0
LINE
  5
293
100
AcDbEntity
  8
枠
  6
CONTINUOUS
 62
     2
100
AcDbLine
 10
1196.790924
 20
165.843958
 30
0.0
 11
1196.790924
 21
155.791153
 31
0.0
  0
LINE
  5
294
100
AcDbEntity
  8
枠
  6
CONTINUOUS
 62
     2
100
AcDbLine
 10
1199.309235
 20
165.843958
 30
0.0
 11
1199.309235
 21
156.326431
 31
0.0
  0
LINE
  5
295
100
AcDbEntity
  8
枠
  6
CONTINUOUS
 62
     2
100
AcDbLine
 10
1201.827545
 20
165.843958
 30
0.0
 11
1201.827545
 21
156.861719
 31
0.0
  0
LINE
  5
296
100
AcDbEntity
  8
枠
  6
CONTINUOUS
 62
     2
100
AcDbLine
 10
1204.346008
 20
165.843958
 30
0.0
 11
1204.346008
 21
157.397026
 31
0.0
  0
LINE
  5
297
100
AcDbEntity
  8
枠
  6
CONTINUOUS
 62
     2
100
AcDbLine
 10
1186.747284
 20
151.656317
 30
0.0
 11
1214.084473
 21
157.466997
 31
0.0
  0
LINE
  5
298
100
AcDbEntity
  8
枠
  6
CONTINUOUS
 62
     2
100
AcDbLine
 10
1186.747284
 20
148.880028
 30
0.0
 11
1214.084473
 21
154.690851
 31
0.0
  0
LINE
  5
299
100
AcDbEntity
  8
枠
  6
CONTINUOUS
 62
     2
100
AcDbLine
 10
1186.747284
 20
146.503729
 30
0.0
 11
1214.084473
 21
152.314409
 31
0.0
  0
LINE
  5
29A
100
AcDbEntity
  8
枠
  6
CONTINUOUS
 62
     2
100
AcDbLine
 10
1242.633057
 20
178.325943
 30
0.0
 11
1268.51532
 21
186.985401
 31
0.0
  0
LINE
  5
29B
100
AcDbEntity
  8
枠
  6
CONTINUOUS
 62
     2
100
AcDbLine
 10
1242.633057
 20
175.668625
 30
0.0
 11
1268.51532
 21
184.328236
 31
0.0
  0
LINE
  5
29C
100
AcDbEntity
  8
枠
  6
CONTINUOUS
 62
     2
100
AcDbLine
 10
1270.411987
 20
186.985392
 30
0.0
 11
1296.294403
 21
178.325304
 31
0.0
  0
LINE
  5
29D
100
AcDbEntity
  8
枠
  6
CONTINUOUS
 62
     2
100
AcDbLine
 10
1270.411987
 20
184.528231
 30
0.0
 11
1296.294403
 21
175.868143
 31
0.0
  0
LINE
  5
29E
100
AcDbEntity
  8
枠
  6
CONTINUOUS
 62
     2
100
AcDbLine
 10
1287.62497
 20
175.596107
 30
0.0
 11
1251.304474
 21
175.596107
 31
0.0
  0
LINE
  5
29F
100
AcDbEntity
  8
枠
  6
CONTINUOUS
 62
     2
100
AcDbLine
 10
1287.62497
 20
172.875961
 30
0.0
 11
1251.304474
 21
172.875961
 31
0.0
  0
LINE
  5
2A0
100
AcDbEntity
  8
枠
  6
CONTINUOUS
 62
     2
100
AcDbLine
 10
1242.736359
 20
165.063919
 30
0.0
 11
1296.191101
 21
165.063919
 31
0.0
  0
LINE
  5
2A1
100
AcDbEntity
  8
枠
  6
CONTINUOUS
 62
     2
100
AcDbLine
 10
1242.736359
 20
162.744087
 30
0.0
 11
1296.191101
 21
162.744087
 31
0.0
  0
LINE
  5
2A2
100
AcDbEntity
  8
枠
  6
CONTINUOUS
 62
     2
100
AcDbLine
 10
1251.013336
 20
160.931534
 30
0.0
 11
1245.911255
 21
149.99246
 31
0.0
  0
LINE
  5
2A3
100
AcDbEntity
  8
枠
  6
CONTINUOUS
 62
     2
100
AcDbLine
 10
1254.194336
 20
160.931543
 30
0.0
 11
1249.092102
 21
149.99246
 31
0.0
  0
LINE
  5
2A4
100
AcDbEntity
  8
枠
  6
CONTINUOUS
 62
     2
100
AcDbLine
 10
1257.375336
 20
160.931543
 30
0.0
 11
1252.273102
 21
149.99246
 31
0.0
  0
LINE
  5
2A5
100
AcDbEntity
  8
枠
  6
CONTINUOUS
 62
     2
100
AcDbLine
 10
1281.554108
 20
160.931667
 30
0.0
 11
1286.658325
 21
149.992336
 31
0.0
  0
LINE
  5
2A6
100
AcDbEntity
  8
枠
  6
CONTINUOUS
 62
     2
100
AcDbLine
 10
1284.737091
 20
160.931419
 30
0.0
 11
1289.837036
 21
149.992584
 31
0.0
  0
LINE
  5
2A7
100
AcDbEntity
  8
枠
  6
CONTINUOUS
 62
     2
100
AcDbLine
 10
1287.919922
 20
160.931315
 30
0.0
 11
1293.018189
 21
149.992689
 31
0.0
  0
LINE
  5
2A8
100
AcDbEntity
  8
枠
  6
CONTINUOUS
 62
     2
100
AcDbLine
 10
1244.685364
 20
148.179916
 30
0.0
 11
1294.242096
 21
148.179916
 31
0.0
  0
LINE
  5
2A9
100
AcDbEntity
  8
枠
  6
CONTINUOUS
 62
     2
100
AcDbLine
 10
1243.510285
 20
145.659927
 30
0.0
 11
1295.417175
 21
145.659927
 31
0.0
  0
LINE
  5
2AA
100
AcDbEntity
  8
枠
  6
CONTINUOUS
 62
     2
100
AcDbLine
 10
1311.397858
 20
184.400152
 30
0.0
 11
1311.397858
 21
186.351961
 31
0.0
  0
LINE
  5
2AB
100
AcDbEntity
  8
枠
  6
CONTINUOUS
 62
     2
100
AcDbLine
 10
1314.316254
 20
184.400152
 30
0.0
 11
1314.316254
 21
186.351961
 31
0.0
  0
LINE
  5
2AC
100
AcDbEntity
  8
枠
  6
CONTINUOUS
 62
     2
100
AcDbLine
 10
1317.234802
 20
184.400152
 30
0.0
 11
1317.234802
 21
186.351961
 31
0.0
  0
LINE
  5
2AD
100
AcDbEntity
  8
枠
  6
CONTINUOUS
 62
     2
100
AcDbLine
 10
1302.206879
 20
182.400154
 30
0.0
 11
1325.087891
 21
182.400154
 31
0.0
  0
LINE
  5
2AE
100
AcDbEntity
  8
枠
  6
CONTINUOUS
 62
     2
100
AcDbLine
 10
1302.206879
 20
179.880165
 30
0.0
 11
1323.323822
 21
179.880165
 31
0.0
  0
LINE
  5
2AF
100
AcDbEntity
  8
枠
  6
CONTINUOUS
 62
     2
100
AcDbLine
 10
1315.379181
 20
178.241676
 30
0.0
 11
1301.35376
 21
158.204722
 31
0.0
  0
LINE
  5
2B0
100
AcDbEntity
  8
枠
  6
CONTINUOUS
 62
     2
100
AcDbLine
 10
1318.656616
 20
178.2418
 30
0.0
 11
1301.353912
 21
153.528513
 31
0.0
  0
LINE
  5
2B1
100
AcDbEntity
  8
枠
  6
CONTINUOUS
 62
     2
100
AcDbLine
 10
1321.737976
 20
178.241772
 30
0.0
 11
1301.353912
 21
149.125732
 31
0.0
  0
LINE
  5
2B2
100
AcDbEntity
  8
枠
  6
CONTINUOUS
 62
     2
100
AcDbLine
 10
1316.929932
 20
167.88691
 30
0.0
 11
1325.786743
 21
161.684641
 31
0.0
  0
LINE
  5
2B3
100
AcDbEntity
  8
枠
  6
CONTINUOUS
 62
     2
100
AcDbLine
 10
1315.484467
 20
165.821995
 30
0.0
 11
1325.786591
 21
158.607992
 31
0.0
  0
LINE
  5
2B4
100
AcDbEntity
  8
枠
  6
CONTINUOUS
 62
     2
100
AcDbLine
 10
1313.945007
 20
163.623127
 30
0.0
 11
1325.786591
 21
155.331501
 31
0.0
  0
LINE
  5
2B5
100
AcDbEntity
  8
枠
  6
CONTINUOUS
 62
     2
100
AcDbLine
 10
1311.397858
 20
161.472229
 30
0.0
 11
1311.397858
 21
145.999998
 31
0.0
  0
LINE
  5
2B6
100
AcDbEntity
  8
枠
  6
CONTINUOUS
 62
     2
100
AcDbLine
 10
1314.316254
 20
161.363157
 30
0.0
 11
1314.316254
 21
145.999998
 31
0.0
  0
LINE
  5
2B7
100
AcDbEntity
  8
枠
  6
CONTINUOUS
 62
     2
100
AcDbLine
 10
1317.234802
 20
159.319567
 30
0.0
 11
1317.234802
 21
145.999998
 31
0.0
  0
LINE
  5
2B8
100
AcDbEntity
  8
枠
  6
CONTINUOUS
 62
     2
100
AcDbLine
 10
1338.613739
 20
150.179915
 30
0.0
 11
1338.613739
 21
186.351961
 31
0.0
  0
LINE
  5
2B9
100
AcDbEntity
  8
枠
  6
CONTINUOUS
 62
     2
100
AcDbLine
 10
1341.532135
 20
150.179915
 30
0.0
 11
1341.532135
 21
186.351961
 31
0.0
  0
LINE
  5
2BA
100
AcDbEntity
  8
枠
  6
CONTINUOUS
 62
     2
100
AcDbLine
 10
1344.450684
 20
150.179915
 30
0.0
 11
1344.450684
 21
186.351961
 31
0.0
  0
LINE
  5
2BB
100
AcDbEntity
  8
枠
  6
CONTINUOUS
 62
     2
100
AcDbLine
 10
1329.424896
 20
175.344032
 30
0.0
 11
1336.61377
 21
175.344032
 31
0.0
  0
LINE
  5
2BC
100
AcDbEntity
  8
枠
  6
CONTINUOUS
 62
     2
100
AcDbLine
 10
1329.424896
 20
172.824196
 30
0.0
 11
1336.61377
 21
172.824196
 31
0.0
  0
LINE
  5
2BD
100
AcDbEntity
  8
枠
  6
CONTINUOUS
 62
     2
100
AcDbLine
 10
1346.450653
 20
175.344032
 30
0.0
 11
1353.647766
 21
175.344032
 31
0.0
  0
LINE
  5
2BE
100
AcDbEntity
  8
枠
  6
CONTINUOUS
 62
     2
100
AcDbLine
 10
1346.450653
 20
172.624191
 30
0.0
 11
1353.647766
 21
172.624191
 31
0.0
  0
LINE
  5
2BF
100
AcDbEntity
  8
枠
  6
CONTINUOUS
 62
     2
100
AcDbLine
 10
1325.39093
 20
148.179916
 30
0.0
 11
1354.656677
 21
148.179916
 31
0.0
  0
LINE
  5
2C0
100
AcDbEntity
  8
枠
  6
CONTINUOUS
 62
     2
100
AcDbLine
 10
1325.39093
 20
145.659927
 30
0.0
 11
1354.656677
 21
145.659927
 31
0.0
  0
LINE
  5
2C1
100
AcDbEntity
  8
枠
  6
CONTINUOUS
 62
     2
100
AcDbLine
 10
1097.475586
 20
163.353638
 30
0.0
 11
1118.784027
 21
163.353638
 31
0.0
  0
TEXT
  5
2C2
100
AcDbEntity
  8
枠
  6
CONTINUOUS
 62
     7
100
AcDbText
 10
1453.25
 20
130.75
 30
0.0
 40
70.0
  1
Ｌ００９１０１１
 41
0.795
  7
EXCADSTD
 72
     5
 11
1983.25
 21
130.75
 31
0.0
100
AcDbText
  0
LINE
  5
2C3
100
AcDbEntity
  8
枠
  6
EXLTYPE2
 62
     6
100
AcDbLine
 10
179.0
 20
165.0
 30
0.0
 11
489.0
 21
165.0
 31
0.0
  0
CIRCLE
  5
2C4
100
AcDbEntity
  8
枠
  6
CONTINUOUS
 62
     6
100
AcDbCircle
 10
229.0
 20
140.0
 30
0.0
 40
1.0
  0
CIRCLE
  5
2C5
100
AcDbEntity
  8
枠
  6
CONTINUOUS
 62
     6
100
AcDbCircle
 10
279.0
 20
140.0
 30
0.0
 40
1.0
  0
CIRCLE
  5
2C6
100
AcDbEntity
  8
枠
  6
CONTINUOUS
 62
     6
100
AcDbCircle
 10
384.0
 20
140.0
 30
0.0
 40
1.0
  0
CIRCLE
  5
2C7
100
AcDbEntity
  8
枠
  6
CONTINUOUS
 62
     6
100
AcDbCircle
 10
434.0
 20
140.0
 30
0.0
 40
1.0
  0
TEXT
  5
2C8
100
AcDbEntity
  8
枠
  6
CONTINUOUS
 62
     6
100
AcDbText
 10
584.0
 20
199.5
 30
0.0
 40
30.0
  1
ゆ
 41
0.98
  7
EXCADSTD
 72
     5
 11
612.0
 21
199.5
 31
0.0
100
AcDbText
  0
TEXT
  5
2C9
100
AcDbEntity
  8
枠
  6
CONTINUOUS
 62
     6
100
AcDbText
 10
496.0
 20
200.0
 30
0.0
 40
50.0
  1
間瀬
 41
0.7728
  7
EXCADSTD
 72
     5
 11
580.3272
 21
200.0
 31
0.0
100
AcDbText
  0
TEXT
  5
2CA
100
AcDbEntity
  8
枠
  6
CONTINUOUS
 62
     6
100
AcDbText
 10
635.0
 20
200.0
 30
0.0
 40
50.0
  1
又場
 41
0.8568
  7
EXCADSTD
 72
     5
 11
728.4932
 21
200.0
 31
0.0
100
AcDbText
  0
TEXT
  5
2CB
100
AcDbEntity
  8
枠
  6
CONTINUOUS
 62
     6
100
AcDbText
 10
205.5
 20
200.0
 30
0.0
 40
50.0
  1
風穴
 41
0.8568
  7
EXCADSTD
 72
     5
 11
298.9932
 21
200.0
 31
0.0
100
AcDbText
  0
TEXT
  5
2CC
100
AcDbEntity
  8
枠
  6
CONTINUOUS
 62
     6
100
AcDbText
 10
181.044116
 20
126.950073
 30
0.0
 40
25.0
  1
１７
 41
0.75768
  7
EXCADSTD
 72
     5
 11
222.382775
 21
126.950073
 31
0.0
100
AcDbText
  0
TEXT
  5
2CD
100
AcDbEntity
  8
枠
  6
CONTINUOUS
 62
     6
100
AcDbText
 10
283.044116
 20
126.950073
 30
0.0
 40
25.0
  1
２５
 41
0.75768
  7
EXCADSTD
 72
     5
 11
324.382775
 21
126.950073
 31
0.0
100
AcDbText
  0
TEXT
  5
2CE
100
AcDbEntity
  8
枠
  6
CONTINUOUS
 62
     6
100
AcDbText
 10
231.144116
 20
126.950073
 30
0.0
 40
25.0
  1
　４
 41
0.75768
  7
EXCADSTD
 72
     5
 11
272.482775
 21
126.950073
 31
0.0
100
AcDbText
  0
LINE
  5
2CF
100
AcDbEntity
  8
洗面器
  6
CONTINUOUS
 62
     3
100
AcDbLine
 10
940.691925
 20
1310.000029
 30
0.0
 11
949.750592
 21
1343.807433
 31
0.0
  0
LINE
  5
2D0
100
AcDbEntity
  8
洗面器
  6
CONTINUOUS
 62
     3
100
AcDbLine
 10
940.691925
 20
1310.000029
 30
0.0
 11
931.633258
 21
1343.807433
 31
0.0
  0
LINE
  5
2D1
100
AcDbEntity
  8
洗面器
  6
CONTINUOUS
 62
     7
100
AcDbLine
 10
1021.000122
 20
1260.0
 30
0.0
 11
1244.000153
 21
1260.0
 31
0.0
  0
ARC
  5
2D2
100
AcDbEntity
  8
洗面器
  6
CONTINUOUS
 62
     7
100
AcDbCircle
 10
1021.000122
 20
1248.00003
 30
0.0
 40
11.999998
100
AcDbArc
 50
90.0
 51
180.0
  0
ARC
  5
2D3
100
AcDbEntity
  8
洗面器
  6
CONTINUOUS
 62
     7
100
AcDbCircle
 10
1215.384277
 20
1265.0
 30
0.0
 40
5.0
100
AcDbArc
 50
270.0
 51
355.42627
  0
ARC
  5
2D4
100
AcDbEntity
  8
洗面器
  6
CONTINUOUS
 62
     7
100
AcDbCircle
 10
1231.385864
 20
1301.99997
 30
0.0
 40
8.0
100
AcDbArc
 50
90.0
 51
175.426041
  0
ARC
  5
2D5
100
AcDbEntity
  8
洗面器
  6
CONTINUOUS
 62
     7
100
AcDbCircle
 10
1014.0
 20
1235.0
 30
0.0
 40
5.0
100
AcDbArc
 50
180.0
 51
270.0
  0
ARC
  5
2D6
100
AcDbEntity
  8
洗面器
  6
CONTINUOUS
 62
     7
100
AcDbCircle
 10
1103.837952
 20
1298.00003
 30
0.0
 40
11.999998
100
AcDbArc
 50
90.0
 51
168.690216
  0
ARC
  5
2D7
100
AcDbEntity
  8
洗面器
  6
CONTINUOUS
 62
     7
100
AcDbCircle
 10
1079.901184
 20
1265.0
 30
0.0
 40
5.0
100
AcDbArc
 50
270.0
 51
348.69043
  0
LINE
  5
2D8
100
AcDbEntity
  8
洗面器
  6
CONTINUOUS
 62
     7
100
AcDbLine
 10
1223.411316
 20
1302.637939
 30
0.0
 11
1220.368256
 21
1264.601288
 31
0.0
  0
LINE
  5
2D9
100
AcDbEntity
  8
洗面器
  6
CONTINUOUS
 62
     7
100
AcDbLine
 10
1092.070984
 20
1300.353546
 30
0.0
 11
1084.803986
 21
1264.01947
 31
0.0
  0
LINE
  5
2DA
100
AcDbEntity
  8
洗面器
  6
CONTINUOUS
 62
     7
100
AcDbLine
 10
1103.837952
 20
1310.0
 30
0.0
 11
1244.000305
 21
1310.0
 31
0.0
  0
LINE
  5
2DB
100
AcDbEntity
  8
洗面器
  6
CONTINUOUS
 62
     7
100
AcDbLine
 10
1014.0
 20
1230.0
 30
0.0
 11
1244.0
 21
1230.0
 31
0.0
  0
LINE
  5
2DC
100
AcDbEntity
  8
洗面器
  6
CONTINUOUS
 62
     7
100
AcDbLine
 10
1009.000153
 20
1248.00003
 30
0.0
 11
1009.0
 21
1235.0
 31
0.0
  0
LINE
  5
2DD
100
AcDbEntity
  8
洗面器
  6
EXLTYPE2
 62
     2
100
AcDbLine
 10
1117.999634
 20
1115.0
 30
0.0
 11
1149.999756
 21
1115.0
 31
0.0
  0
LINE
  5
2DE
100
AcDbEntity
  8
洗面器
  6
EXLTYPE2
 62
     2
100
AcDbLine
 10
1117.999786
 20
1140.0
 30
0.0
 11
1117.999634
 21
1115.0
 31
0.0
  0
LINE
  5
2DF
100
AcDbEntity
  8
洗面器
  6
EXLTYPE2
 62
     2
100
AcDbLine
 10
1149.999908
 20
1140.0
 30
0.0
 11
1149.999756
 21
1115.0
 31
0.0
  0
LINE
  5
2E0
100
AcDbEntity
  8
洗面器
  6
CONTINUOUS
 62
     7
100
AcDbLine
 10
1108.999695
 20
1140.0
 30
0.0
 11
1158.999695
 21
1140.0
 31
0.0
  0
CIRCLE
  5
2E1
100
AcDbEntity
  8
洗面器
  6
CONTINUOUS
 62
     6
100
AcDbCircle
 10
1164.000305
 20
1280.0
 30
0.0
 40
7.5
  0
ARC
  5
2E2
100
AcDbEntity
  8
洗面器
  6
CONTINUOUS
 62
     6
100
AcDbCircle
 10
1258.970093
 20
1306.925812
 30
0.0
 40
30.0
100
AcDbArc
 50
276.178467
 51
296.165039
  0
ARC
  5
2E3
100
AcDbEntity
  8
洗面器
  6
CONTINUOUS
 62
     6
100
AcDbCircle
 10
1258.970093
 20
1253.074188
 30
0.0
 40
30.0
100
AcDbArc
 50
63.834961
 51
83.821533
  0
ARC
  5
2E4
100
AcDbEntity
  8
洗面器
  6
CONTINUOUS
 62
     6
100
AcDbCircle
 10
1222.716736
 20
1280.0
 30
0.0
 40
7.517859
100
AcDbArc
 50
93.950073
 51
256.904785
  0
LINE
  5
2E5
100
AcDbEntity
  8
洗面器
  6
CONTINUOUS
 62
     6
100
AcDbLine
 10
1244.000305
 20
1282.899933
 30
0.0
 11
1262.198853
 21
1282.899933
 31
0.0
  0
LINE
  5
2E6
100
AcDbEntity
  8
洗面器
  6
CONTINUOUS
 62
     6
100
AcDbLine
 10
1244.000305
 20
1277.100067
 30
0.0
 11
1262.198853
 21
1277.100067
 31
0.0
  0
ARC
  5
2E7
100
AcDbEntity
  8
洗面器
  6
CONTINUOUS
 62
     7
100
AcDbCircle
 10
1228.10141
 20
1225.0
 30
0.0
 40
5.0
100
AcDbArc
 50
90.0
 51
170.507492
  0
ARC
  5
2E8
100
AcDbEntity
  8
洗面器
  6
CONTINUOUS
 62
     7
100
AcDbCircle
 10
1017.452301
 20
1225.0
 30
0.0
 40
5.0
100
AcDbArc
 50
14.744898
 51
90.0
  0
ARC
  5
2E9
100
AcDbEntity
  8
洗面器
  6
CONTINUOUS
 62
     7
100
AcDbCircle
 10
1099.350189
 20
1137.375488
 30
0.0
 40
10.0
100
AcDbArc
 50
15.215476
 51
75.506165
  0
ARC
  5
2EA
100
AcDbEntity
  8
洗面器
  6
CONTINUOUS
 62
     7
100
AcDbCircle
 10
1168.211731
 20
1136.109314
 30
0.0
 40
10.0
100
AcDbArc
 50
116.782043
 51
157.103333
  0
ARC
  5
2EB
100
AcDbEntity
  8
洗面器
  6
CONTINUOUS
 62
     7
100
AcDbCircle
 10
1113.689636
 20
1244.129334
 30
0.0
 40
111.000004
100
AcDbArc
 50
296.781982
 51
350.508057
  0
ARC
  5
2EC
100
AcDbEntity
  8
洗面器
  6
CONTINUOUS
 62
     7
100
AcDbCircle
 10
1129.632019
 20
1254.524994
 30
0.0
 40
111.000004
100
AcDbArc
 50
194.745514
 51
255.506897
  0
LINE
  5
2ED
100
AcDbEntity
  8
洗面器
  6
CONTINUOUS
 62
     3
100
AcDbLine
 10
1254.0
 20
1310.0
 30
0.0
 11
1352.691925
 21
1310.0
 31
0.0
  0
LINE
  5
2EE
100
AcDbEntity
  8
洗面器
  6
CONTINUOUS
 62
     3
100
AcDbLine
 10
1281.198841
 20
1279.999984
 30
0.0
 11
1352.691925
 21
1279.999984
 31
0.0
  0
LINE
  5
2EF
100
AcDbEntity
  8
洗面器
  6
CONTINUOUS
 62
     3
100
AcDbLine
 10
1084.000329
 20
1310.000029
 30
0.0
 11
920.691925
 21
1310.000029
 31
0.0
  0
LINE
  5
2F0
100
AcDbEntity
  8
洗面器
  6
CONTINUOUS
 62
     3
100
AcDbLine
 10
1001.000122
 20
1260.0
 30
0.0
 11
800.691925
 21
1260.0
 31
0.0
  0
LINE
  5
2F1
100
AcDbEntity
  8
洗面器
  6
CONTINUOUS
 62
     3
100
AcDbLine
 10
1107.999634
 20
1115.0
 30
0.0
 11
920.691925
 21
1115.0
 31
0.0
  0
LINE
  5
2F2
100
AcDbEntity
  8
洗面器
  6
CONTINUOUS
 62
     6
100
AcDbLine
 10
1164.000305
 20
1302.5
 30
0.0
 11
1164.000305
 21
1260.0
 31
0.0
  0
LINE
  5
2F3
100
AcDbEntity
  8
洗面器
  6
CONTINUOUS
 62
     6
100
AcDbLine
 10
1186.500305
 20
1280.0
 30
0.0
 11
1141.500305
 21
1280.0
 31
0.0
  0
LINE
  5
2F4
100
AcDbEntity
  8
洗面器
  6
CONTINUOUS
 62
     3
100
AcDbLine
 10
940.691925
 20
1399.33252
 30
0.0
 11
940.691925
 21
1260.0
 31
0.0
  0
LINE
  5
2F5
100
AcDbEntity
  8
洗面器
  6
CONTINUOUS
 62
     6
100
AcDbLine
 10
938.8337
 20
1410.0
 30
0.0
 11
782.1
 21
1410.0
 31
0.0
  0
TEXT
  5
2F6
100
AcDbEntity
  8
洗面器
  6
CONTINUOUS
 62
     2
100
AcDbText
 10
782.8337
 20
1413.5
 30
0.0
 40
40.0
  1
ＮＴ７Ａ
 41
0.819
  7
EXCADSTD
 72
     5
 11
938.8337
 21
1413.5
 31
0.0
100
AcDbText
  0
LINE
  5
2F7
100
AcDbEntity
  8
洗面器
  6
CONTINUOUS
 62
     7
100
AcDbLine
 10
1244.0
 20
1617.0
 30
0.0
 11
1244.0
 21
500.0
 31
0.0
  0
LINE
  5
2F8
100
AcDbEntity
  8
洗面器
  6
CONTINUOUS
 62
     3
100
AcDbLine
 10
860.691925
 20
980.0
 30
0.0
 11
1124.000305
 21
980.0
 31
0.0
  0
LINE
  5
2F9
100
AcDbEntity
  8
洗面器
  6
CONTINUOUS
 62
     3
100
AcDbLine
 10
1131.000305
 20
980.0
 30
0.0
 11
1137.000305
 21
980.0
 31
0.0
  0
LINE
  5
2FA
100
AcDbEntity
  8
洗面器
  6
CONTINUOUS
 62
     3
100
AcDbLine
 10
1144.000305
 20
980.0
 30
0.0
 11
1184.000305
 21
980.0
 31
0.0
  0
LINE
  5
2FB
100
AcDbEntity
  8
洗面器
  6
CONTINUOUS
 62
     6
100
AcDbLine
 10
1134.000305
 20
983.0
 30
0.0
 11
1134.000305
 21
977.0
 31
0.0
  0
LINE
  5
2FC
100
AcDbEntity
  8
洗面器
  6
CONTINUOUS
 62
     6
100
AcDbLine
 10
1134.000305
 20
970.0
 30
0.0
 11
1134.000305
 21
804.332519
 31
0.0
  0
LINE
  5
2FD
100
AcDbEntity
  8
洗面器
  6
CONTINUOUS
 62
     6
100
AcDbLine
 10
1134.000305
 20
1160.0
 30
0.0
 11
1134.000305
 21
1078.33252
 31
0.0
  0
LINE
  5
2FE
100
AcDbEntity
  8
洗面器
  6
CONTINUOUS
 62
     6
100
AcDbLine
 10
1134.000305
 20
1066.33252
 30
0.0
 11
1134.000305
 21
1058.33252
 31
0.0
  0
LINE
  5
2FF
100
AcDbEntity
  8
洗面器
  6
CONTINUOUS
 62
     6
100
AcDbLine
 10
1134.000305
 20
1046.33252
 30
0.0
 11
1134.000305
 21
990.0
 31
0.0
  0
TEXT
  5
300
100
AcDbEntity
  8
洗面器
  6
CONTINUOUS
 62
     2
100
AcDbText
 10
1240.5
 20
1499.33252
 30
0.0
 40
40.0
  1
Ｗ．Ｌ
 50
90.0
 41
0.833
  7
EXCADSTD
 72
     5
 11
1240.5
 21
1618.332519
 31
0.0
100
AcDbText
  0
ARC
  5
301
100
AcDbEntity
  8
洗面器
  6
CONTINUOUS
 62
     7
100
AcDbCircle
 10
1126.500305
 20
1996.501391
 30
0.0
 40
90.0
100
AcDbArc
 50
11.837217
 51
357.771787
  0
ARC
  5
302
100
AcDbEntity
  8
洗面器
  6
CONTINUOUS
 62
     7
100
AcDbCircle
 10
998.869843
 20
2126.948168
 30
0.0
 40
300.0
100
AcDbArc
 50
314.374512
 51
324.795654
  0
ARC
  5
303
100
AcDbEntity
  8
洗面器
  6
CONTINUOUS
 62
     7
100
AcDbCircle
 10
1256.948456
 20
1868.869555
 30
0.0
 40
300.0
100
AcDbArc
 50
125.204315
 51
135.625519
  0
ARC
  5
304
100
AcDbEntity
  8
洗面器
  6
CONTINUOUS
 62
     7
100
AcDbCircle
 10
1126.500305
 20
1996.501391
 30
0.0
 40
117.5
100
AcDbArc
 50
135.625519
 51
314.374512
  0
ARC
  5
305
100
AcDbEntity
  8
洗面器
  6
CONTINUOUS
 62
     7
100
AcDbCircle
 10
1219.000305
 20
2089.001391
 30
0.0
 40
5.0
100
AcDbArc
 50
0.0
 51
90.0
  0
LINE
  5
306
100
AcDbEntity
  8
洗面器
  6
CONTINUOUS
 62
     7
100
AcDbLine
 10
1094.000305
 20
2094.001391
 30
0.0
 11
1219.000305
 21
2094.001391
 31
0.0
  0
ARC
  5
307
100
AcDbEntity
  8
洗面器
  6
CONTINUOUS
 62
     6
100
AcDbCircle
 10
1190.926117
 20
2130.772631
 30
0.0
 40
30.0
100
AcDbArc
 50
153.834961
 51
173.821533
  0
ARC
  5
308
100
AcDbEntity
  8
洗面器
  6
CONTINUOUS
 62
     6
100
AcDbCircle
 10
1137.074493
 20
2130.772631
 30
0.0
 40
30.0
100
AcDbArc
 50
6.178467
 51
26.165039
  0
ARC
  5
309
100
AcDbEntity
  8
洗面器
  6
CONTINUOUS
 62
     6
100
AcDbCircle
 10
1164.000305
 20
2094.519274
 30
0.0
 40
7.517859
100
AcDbArc
 50
183.950073
 51
356.050049
  0
LINE
  5
30A
100
AcDbEntity
  8
洗面器
  6
CONTINUOUS
 62
     6
100
AcDbLine
 10
1166.900238
 20
2114.001391
 30
0.0
 11
1166.900238
 21
2134.001391
 31
0.0
  0
LINE
  5
30B
100
AcDbEntity
  8
洗面器
  6
CONTINUOUS
 62
     6
100
AcDbLine
 10
1161.100372
 20
2114.001391
 30
0.0
 11
1161.100372
 21
2134.001391
 31
0.0
  0
ARC
  5
30C
100
AcDbEntity
  8
洗面器
  6
CONTINUOUS
 62
     6
100
AcDbCircle
 10
1260.771545
 20
2007.075579
 30
0.0
 40
30.0
100
AcDbArc
 50
63.834961
 51
83.821533
  0
ARC
  5
30D
100
AcDbEntity
  8
洗面器
  6
CONTINUOUS
 62
     6
100
AcDbCircle
 10
1260.771545
 20
2060.927203
 30
0.0
 40
30.0
100
AcDbArc
 50
276.178467
 51
296.165039
  0
ARC
  5
30E
100
AcDbEntity
  8
洗面器
  6
CONTINUOUS
 62
     6
100
AcDbCircle
 10
1224.518188
 20
2034.001391
 30
0.0
 40
7.517859
100
AcDbArc
 50
93.950073
 51
266.050049
  0
LINE
  5
30F
100
AcDbEntity
  8
洗面器
  6
CONTINUOUS
 62
     6
100
AcDbLine
 10
1244.000305
 20
2036.901324
 30
0.0
 11
1264.000305
 21
2036.901324
 31
0.0
  0
LINE
  5
310
100
AcDbEntity
  8
洗面器
  6
CONTINUOUS
 62
     6
100
AcDbLine
 10
1244.000305
 20
2031.101458
 30
0.0
 11
1264.000305
 21
2031.101458
 31
0.0
  0
ARC
  5
311
100
AcDbEntity
  8
洗面器
  6
CONTINUOUS
 62
     7
100
AcDbCircle
 10
1134.000305
 20
2004.001391
 30
0.0
 40
15.0
100
AcDbArc
 50
119.666422
 51
240.333578
  0
LINE
  5
312
100
AcDbEntity
  8
洗面器
  6
CONTINUOUS
 62
     3
100
AcDbLine
 10
1283.000294
 20
2034.001407
 30
0.0
 11
1352.691925
 21
2034.001407
 31
0.0
  0
LINE
  5
313
100
AcDbEntity
  8
洗面器
  6
CONTINUOUS
 62
     3
100
AcDbLine
 10
1091.500305
 20
2086.501391
 30
0.0
 11
920.691925
 21
2086.501391
 31
0.0
  0
LINE
  5
314
100
AcDbEntity
  8
洗面器
  6
CONTINUOUS
 62
     3
100
AcDbLine
 10
1091.500305
 20
1906.501391
 30
0.0
 11
920.691925
 21
1906.501391
 31
0.0
  0
LINE
  5
315
100
AcDbEntity
  8
洗面器
  6
CONTINUOUS
 62
     3
100
AcDbLine
 10
1086.500305
 20
1879.001391
 30
0.0
 11
860.691925
 21
1879.001391
 31
0.0
  0
LINE
  5
316
100
AcDbEntity
  8
洗面器
  6
CONTINUOUS
 62
     6
100
AcDbLine
 10
1134.000305
 20
2034.001391
 30
0.0
 11
1134.000305
 21
2020.771992
 31
0.0
  0
LINE
  5
317
100
AcDbEntity
  8
洗面器
  6
CONTINUOUS
 62
     6
100
AcDbLine
 10
1134.000305
 20
1987.23079
 30
0.0
 11
1134.000305
 21
1974.001391
 31
0.0
  0
LINE
  5
318
100
AcDbEntity
  8
洗面器
  6
CONTINUOUS
 62
     7
100
AcDbLine
 10
777.0
 20
2114.0
 30
0.0
 11
1244.0
 21
2114.0
 31
0.0
  0
LINE
  5
319
100
AcDbEntity
  8
洗面器
  6
CONTINUOUS
 62
     3
100
AcDbLine
 10
1254.0
 20
2114.0
 30
0.0
 11
1352.691925
 21
2114.0
 31
0.0
  0
LINE
  5
31A
100
AcDbEntity
  8
洗面器
  6
CONTINUOUS
 62
     7
100
AcDbLine
 10
1224.000305
 20
1964.001391
 30
0.0
 11
1224.000305
 21
1993.001391
 31
0.0
  0
LINE
  5
31B
100
AcDbEntity
  8
洗面器
  6
CONTINUOUS
 62
     7
100
AcDbLine
 10
1224.000305
 20
2015.001391
 30
0.0
 11
1224.000305
 21
2089.001391
 31
0.0
  0
LINE
  5
31C
100
AcDbEntity
  8
洗面器
  6
CONTINUOUS
 62
     6
100
AcDbLine
 10
1181.2
 20
2004.001391
 30
0.0
 11
1104.000305
 21
2004.001391
 31
0.0
  0
LINE
  5
31D
100
AcDbEntity
  8
洗面器
  6
CONTINUOUS
 62
     6
100
AcDbLine
 10
1272.000195
 20
2004.001391
 30
0.0
 11
1213.2
 21
2004.001391
 31
0.0
  0
LINE
  5
31E
100
AcDbEntity
  8
洗面器
  6
CONTINUOUS
 62
     6
100
AcDbLine
 10
1201.2
 20
2004.001391
 30
0.0
 11
1193.2
 21
2004.001391
 31
0.0
  0
LINE
  5
31F
100
AcDbEntity
  8
洗面器
  6
CONTINUOUS
 62
     7
100
AcDbLine
 10
1244.0
 20
2114.0
 30
0.0
 11
1244.0
 21
1746.0
 31
0.0
  0
LINE
  5
320
100
AcDbEntity
  8
洗面器
  6
CONTINUOUS
 62
     7
100
AcDbLine
 10
760.0
 20
500.0
 30
0.0
 11
1244.000153
 21
500.0
 31
0.0
  0
TEXT
  5
321
100
AcDbEntity
  8
洗面器
  6
CONTINUOUS
 62
     2
100
AcDbText
 10
930.0
 20
503.5
 30
0.0
 40
40.0
  1
Ｆ．Ｌ
 41
0.833
  7
EXCADSTD
 72
     5
 11
1049.0
 21
503.5
 31
0.0
100
AcDbText
  0
LINE
  5
322
100
AcDbEntity
  8
水栓
  6
CONTINUOUS
 62
     6
100
AcDbLine
 10
1243.0
 20
1433.0
 30
0.0
 11
1244.0
 21
1433.0
 31
0.0
  0
LINE
  5
323
100
AcDbEntity
  8
水栓
  6
CONTINUOUS
 62
     6
100
AcDbLine
 10
1243.0
 20
1387.0
 30
0.0
 11
1244.0
 21
1387.0
 31
0.0
  0
ARC
  5
324
100
AcDbEntity
  8
水栓
  6
CONTINUOUS
 62
     6
100
AcDbCircle
 10
1243.0
 20
1431.0
 30
0.0
 40
2.0
100
AcDbArc
 50
90.0
 51
180.0
  0
ARC
  5
325
100
AcDbEntity
  8
水栓
  6
CONTINUOUS
 62
     6
100
AcDbCircle
 10
1243.0
 20
1389.0
 30
0.0
 40
2.0
100
AcDbArc
 50
180.0
 51
270.0
  0
LINE
  5
326
100
AcDbEntity
  8
水栓
  6
CONTINUOUS
 62
     6
100
AcDbLine
 10
1159.8
 20
1419.0
 30
0.0
 11
1238.0
 21
1419.0
 31
0.0
  0
ARC
  5
327
100
AcDbEntity
  8
水栓
  6
CONTINUOUS
 62
     6
100
AcDbCircle
 10
1238.0
 20
1422.0
 30
0.0
 40
3.0
100
AcDbArc
 50
270.0
 51
0.0
  0
LINE
  5
328
100
AcDbEntity
  8
水栓
  6
CONTINUOUS
 62
     6
100
AcDbLine
 10
1241.0
 20
1431.0
 30
0.0
 11
1241.0
 21
1389.0
 31
0.0
  0
LINE
  5
329
100
AcDbEntity
  8
水栓
  6
CONTINUOUS
 62
     6
100
AcDbLine
 10
1121.5
 20
1382.0
 30
0.0
 11
1156.5
 21
1382.0
 31
0.0
  0
ARC
  5
32A
100
AcDbEntity
  8
水栓
  6
CONTINUOUS
 62
     6
100
AcDbCircle
 10
1141.848339
 20
1294.0
 30
0.0
 40
130.0
100
AcDbArc
 50
83.802313
 51
96.415769
  0
LINE
  5
32B
100
AcDbEntity
  8
水栓
  6
CONTINUOUS
 62
     6
100
AcDbLine
 10
1156.5
 20
1394.7
 30
0.0
 11
1156.5
 21
1382.0
 31
0.0
  0
LINE
  5
32C
100
AcDbEntity
  8
水栓
  6
CONTINUOUS
 62
     6
100
AcDbLine
 10
1124.792166
 20
1409.257579
 30
0.0
 11
1121.5
 21
1382.0
 31
0.0
  0
ARC
  5
32D
100
AcDbEntity
  8
水栓
  6
CONTINUOUS
 62
     6
100
AcDbCircle
 10
1162.8
 20
1394.7
 30
0.0
 40
6.3
100
AcDbArc
 50
90.0
 51
180.0
  0
ARC
  5
32E
100
AcDbEntity
  8
水栓
  6
CONTINUOUS
 62
     6
100
AcDbCircle
 10
1159.8
 20
1422.3
 30
0.0
 40
3.3
100
AcDbArc
 50
176.498721
 51
270.0
  0
ARC
  5
32F
100
AcDbEntity
  8
水栓
  6
CONTINUOUS
 62
     6
100
AcDbCircle
 10
1422.627654
 20
1373.285062
 30
0.0
 40
300.0
100
AcDbArc
 50
170.537573
 51
173.113184
  0
ARC
  5
330
100
AcDbEntity
  8
水栓
  6
CONTINUOUS
 62
     6
100
AcDbCircle
 10
1127.400043
 20
1422.49022
 30
0.0
 40
0.7
100
AcDbArc
 50
96.415769
 51
170.537573
  0
ARC
  5
331
100
AcDbEntity
  8
水栓
  6
CONTINUOUS
 62
     6
100
AcDbCircle
 10
1155.807466
 20
1422.544283
 30
0.0
 40
0.7
100
AcDbArc
 50
356.498721
 51
83.802313
  0
LINE
  5
332
100
AcDbEntity
  8
水栓
  6
CONTINUOUS
 62
     6
100
AcDbLine
 10
1131.75
 20
1382.0
 30
0.0
 11
1131.75
 21
1376.0
 31
0.0
  0
LINE
  5
333
100
AcDbEntity
  8
水栓
  6
CONTINUOUS
 62
     6
100
AcDbLine
 10
1146.25
 20
1382.0
 30
0.0
 11
1146.25
 21
1376.0
 31
0.0
  0
ARC
  5
334
100
AcDbEntity
  8
水栓
  6
CONTINUOUS
 62
     6
100
AcDbCircle
 10
1132.75
 20
1376.0
 30
0.0
 40
1.0
100
AcDbArc
 50
180.0
 51
270.0
  0
ARC
  5
335
100
AcDbEntity
  8
水栓
  6
CONTINUOUS
 62
     6
100
AcDbCircle
 10
1145.25
 20
1376.0
 30
0.0
 40
1.0
100
AcDbArc
 50
270.0
 51
0.0
  0
LINE
  5
336
100
AcDbEntity
  8
水栓
  6
CONTINUOUS
 62
     6
100
AcDbLine
 10
1162.8
 20
1401.0
 30
0.0
 11
1238.0
 21
1401.0
 31
0.0
  0
ARC
  5
337
100
AcDbEntity
  8
水栓
  6
CONTINUOUS
 62
     6
100
AcDbCircle
 10
1238.0
 20
1398.0
 30
0.0
 40
3.0
100
AcDbArc
 50
0.0
 51
90.0
  0
LINE
  5
338
100
AcDbEntity
  8
水栓
  6
CONTINUOUS
 62
     6
100
AcDbLine
 10
1256.2725
 20
1420.4775
 30
0.0
 11
1258.0
 21
1418.75
 31
0.0
  0
LINE
  5
339
100
AcDbEntity
  8
水栓
  6
CONTINUOUS
 62
     6
100
AcDbLine
 10
1257.4345
 20
1419.3155
 30
0.0
 11
1245.162
 21
1419.3155
 31
0.0
  0
LINE
  5
33A
100
AcDbEntity
  8
水栓
  6
CONTINUOUS
 62
     6
100
AcDbLine
 10
1244.0
 20
1420.4775
 30
0.0
 11
1245.162
 21
1419.3155
 31
0.0
  0
LINE
  5
33B
100
AcDbEntity
  8
水栓
  6
CONTINUOUS
 62
     6
100
AcDbLine
 10
1256.2725
 20
1399.5225
 30
0.0
 11
1258.0
 21
1401.25
 31
0.0
  0
LINE
  5
33C
100
AcDbEntity
  8
水栓
  6
CONTINUOUS
 62
     6
100
AcDbLine
 10
1257.4345
 20
1400.6845
 30
0.0
 11
1245.162
 21
1400.6845
 31
0.0
  0
LINE
  5
33D
100
AcDbEntity
  8
水栓
  6
CONTINUOUS
 62
     6
100
AcDbLine
 10
1244.0
 20
1399.5225
 30
0.0
 11
1245.162
 21
1400.6845
 31
0.0
  0
LINE
  5
33E
100
AcDbEntity
  8
水栓
  6
CONTINUOUS
 62
     6
100
AcDbLine
 10
1244.0
 20
1420.4775
 30
0.0
 11
1256.2725
 21
1420.4775
 31
0.0
  0
LINE
  5
33F
100
AcDbEntity
  8
水栓
  6
CONTINUOUS
 62
     6
100
AcDbLine
 10
1244.0
 20
1399.5225
 30
0.0
 11
1256.2725
 21
1399.5225
 31
0.0
  0
LINE
  5
340
100
AcDbEntity
  8
水栓
  6
CONTINUOUS
 62
     6
100
AcDbLine
 10
1258.0
 20
1401.25
 30
0.0
 11
1258.0
 21
1418.75
 31
0.0
  0
LINE
  5
341
100
AcDbEntity
  8
水栓
  6
CONTINUOUS
 62
     6
100
AcDbLine
 10
1128.0
 20
1356.0
 30
0.0
 11
1150.0
 21
1356.0
 31
0.0
  0
ARC
  5
342
100
AcDbEntity
  8
水栓
  6
CONTINUOUS
 62
     6
100
AcDbCircle
 10
1128.0
 20
1360.0
 30
0.0
 40
4.0
100
AcDbArc
 50
108.715366
 51
270.0
  0
LINE
  5
343
100
AcDbEntity
  8
水栓
  6
CONTINUOUS
 62
     6
100
AcDbLine
 10
1135.75
 20
1372.0
 30
0.0
 11
1135.75
 21
1369.0
 31
0.0
  0
ARC
  5
344
100
AcDbEntity
  8
水栓
  6
CONTINUOUS
 62
     6
100
AcDbCircle
 10
1132.75
 20
1369.0
 30
0.0
 40
3.0
100
AcDbArc
 50
288.715366
 51
0.0
  0
LINE
  5
345
100
AcDbEntity
  8
水栓
  6
CONTINUOUS
 62
     6
100
AcDbLine
 10
1133.712601
 20
1366.158627
 30
0.0
 11
1126.716532
 21
1363.788497
 31
0.0
  0
LINE
  5
346
100
AcDbEntity
  8
水栓
  6
CONTINUOUS
 62
     6
100
AcDbLine
 10
1132.75
 20
1375.0
 30
0.0
 11
1145.25
 21
1375.0
 31
0.0
  0
LINE
  5
347
100
AcDbEntity
  8
水栓
  6
CONTINUOUS
 62
     6
100
AcDbLine
 10
1134.0
 20
1375.0
 30
0.0
 11
1134.0
 21
1374.727178
 31
0.0
  0
ARC
  5
348
100
AcDbEntity
  8
水栓
  6
CONTINUOUS
 62
     6
100
AcDbCircle
 10
1132.75
 20
1372.0
 30
0.0
 40
3.0
100
AcDbArc
 50
0.0
 51
65.375682
  0
ARC
  5
349
100
AcDbEntity
  8
水栓
  6
CONTINUOUS
 62
     6
100
AcDbCircle
 10
1145.25
 20
1369.0
 30
0.0
 40
3.0
100
AcDbArc
 50
180.0
 51
251.284634
  0
LINE
  5
34A
100
AcDbEntity
  8
水栓
  6
CONTINUOUS
 62
     6
100
AcDbLine
 10
1142.25
 20
1372.0
 30
0.0
 11
1142.25
 21
1369.0
 31
0.0
  0
ARC
  5
34B
100
AcDbEntity
  8
水栓
  6
CONTINUOUS
 62
     6
100
AcDbCircle
 10
1145.25
 20
1372.0
 30
0.0
 40
3.0
100
AcDbArc
 50
114.624318
 51
180.0
  0
LINE
  5
34C
100
AcDbEntity
  8
水栓
  6
CONTINUOUS
 62
     6
100
AcDbLine
 10
1144.0
 20
1375.0
 30
0.0
 11
1144.0
 21
1374.727178
 31
0.0
  0
LINE
  5
34D
100
AcDbEntity
  8
水栓
  6
CONTINUOUS
 62
     6
100
AcDbLine
 10
1144.287399
 20
1366.158627
 30
0.0
 11
1151.283468
 21
1363.788497
 31
0.0
  0
ARC
  5
34E
100
AcDbEntity
  8
水栓
  6
CONTINUOUS
 62
     6
100
AcDbCircle
 10
1150.0
 20
1360.0
 30
0.0
 40
4.0
100
AcDbArc
 50
270.0
 51
71.284634
  0
LINE
  5
34F
100
AcDbEntity
  8
水栓
  6
CONTINUOUS
 62
     6
100
AcDbLine
 10
1256.2725
 20
1420.4775
 30
0.0
 11
1256.2725
 21
1399.5225
 31
0.0
  0
ARC
  5
350
100
AcDbEntity
  8
水栓
  6
CONTINUOUS
 62
     6
100
AcDbCircle
 10
1139.0
 20
2004.001391
 30
0.0
 40
17.5
100
AcDbArc
 50
40.142122
 51
319.857878
  0
LINE
  5
351
100
AcDbEntity
  8
水栓
  6
CONTINUOUS
 62
     6
100
AcDbLine
 10
1238.0
 20
1995.001391
 30
0.0
 11
1163.572607
 21
1995.001391
 31
0.0
  0
LINE
  5
352
100
AcDbEntity
  8
水栓
  6
CONTINUOUS
 62
     6
100
AcDbLine
 10
1238.0
 20
2013.001391
 30
0.0
 11
1163.572607
 21
2013.001391
 31
0.0
  0
LINE
  5
353
100
AcDbEntity
  8
水栓
  6
CONTINUOUS
 62
     6
100
AcDbLine
 10
1243.0
 20
2027.001391
 30
0.0
 11
1244.0
 21
2027.001391
 31
0.0
  0
LINE
  5
354
100
AcDbEntity
  8
水栓
  6
CONTINUOUS
 62
     6
100
AcDbLine
 10
1243.0
 20
1981.001391
 30
0.0
 11
1244.0
 21
1981.001391
 31
0.0
  0
ARC
  5
355
100
AcDbEntity
  8
水栓
  6
CONTINUOUS
 62
     6
100
AcDbCircle
 10
1243.0
 20
2025.001391
 30
0.0
 40
2.0
100
AcDbArc
 50
90.0
 51
180.0
  0
ARC
  5
356
100
AcDbEntity
  8
水栓
  6
CONTINUOUS
 62
     6
100
AcDbCircle
 10
1243.0
 20
1983.001391
 30
0.0
 40
2.0
100
AcDbArc
 50
180.0
 51
270.0
  0
ARC
  5
357
100
AcDbEntity
  8
水栓
  6
CONTINUOUS
 62
     6
100
AcDbCircle
 10
1238.0
 20
2016.001391
 30
0.0
 40
3.0
100
AcDbArc
 50
270.0
 51
0.0
  0
ARC
  5
358
100
AcDbEntity
  8
水栓
  6
CONTINUOUS
 62
     6
100
AcDbCircle
 10
1238.0
 20
1992.001391
 30
0.0
 40
3.0
100
AcDbArc
 50
0.0
 51
90.0
  0
LINE
  5
359
100
AcDbEntity
  8
水栓
  6
CONTINUOUS
 62
     6
100
AcDbLine
 10
1241.0
 20
1983.001391
 30
0.0
 11
1241.0
 21
2025.001391
 31
0.0
  0
ARC
  5
35A
100
AcDbEntity
  8
水栓
  6
CONTINUOUS
 62
     6
100
AcDbCircle
 10
1163.572607
 20
2041.601391
 30
0.0
 40
28.6
100
AcDbArc
 50
239.585471
 51
270.0
  0
ARC
  5
35B
100
AcDbEntity
  8
水栓
  6
CONTINUOUS
 62
     6
100
AcDbCircle
 10
1163.572607
 20
1966.401391
 30
0.0
 40
28.6
100
AcDbArc
 50
90.0
 51
120.414529
  0
CIRCLE
  5
35C
100
AcDbEntity
  8
水栓
  6
CONTINUOUS
 62
     6
100
AcDbCircle
 10
1141.5
 20
2004.001391
 30
0.0
 40
15.0
  0
LINE
  5
35D
100
AcDbEntity
  8
水栓
  6
CONTINUOUS
 62
     6
100
AcDbLine
 10
1256.2725
 20
2014.478891
 30
0.0
 11
1258.0
 21
2012.751391
 31
0.0
  0
LINE
  5
35E
100
AcDbEntity
  8
水栓
  6
CONTINUOUS
 62
     6
100
AcDbLine
 10
1257.4345
 20
2013.316891
 30
0.0
 11
1245.162
 21
2013.316891
 31
0.0
  0
LINE
  5
35F
100
AcDbEntity
  8
水栓
  6
CONTINUOUS
 62
     6
100
AcDbLine
 10
1244.0
 20
2014.478891
 30
0.0
 11
1245.162
 21
2013.316891
 31
0.0
  0
LINE
  5
360
100
AcDbEntity
  8
水栓
  6
CONTINUOUS
 62
     6
100
AcDbLine
 10
1256.2725
 20
1993.523891
 30
0.0
 11
1258.0
 21
1995.251391
 31
0.0
  0
LINE
  5
361
100
AcDbEntity
  8
水栓
  6
CONTINUOUS
 62
     6
100
AcDbLine
 10
1257.4345
 20
1994.685891
 30
0.0
 11
1245.162
 21
1994.685891
 31
0.0
  0
LINE
  5
362
100
AcDbEntity
  8
水栓
  6
CONTINUOUS
 62
     6
100
AcDbLine
 10
1244.0
 20
1993.523891
 30
0.0
 11
1245.162
 21
1994.685891
 31
0.0
  0
LINE
  5
363
100
AcDbEntity
  8
水栓
  6
CONTINUOUS
 62
     6
100
AcDbLine
 10
1244.0
 20
2014.478891
 30
0.0
 11
1256.2725
 21
2014.478891
 31
0.0
  0
LINE
  5
364
100
AcDbEntity
  8
水栓
  6
CONTINUOUS
 62
     6
100
AcDbLine
 10
1244.0
 20
1993.523891
 30
0.0
 11
1256.2725
 21
1993.523891
 31
0.0
  0
LINE
  5
365
100
AcDbEntity
  8
水栓
  6
CONTINUOUS
 62
     6
100
AcDbLine
 10
1258.0
 20
1995.251391
 30
0.0
 11
1258.0
 21
2012.751391
 31
0.0
  0
LINE
  5
366
100
AcDbEntity
  8
水栓
  6
CONTINUOUS
 62
     6
100
AcDbLine
 10
1256.2725
 20
2014.478891
 30
0.0
 11
1256.2725
 21
1993.523891
 31
0.0
  0
TEXT
  5
367
100
AcDbEntity
  8
水栓
  6
CONTINUOUS
 62
     2
100
AcDbText
 10
724.02407
 20
1491.772016
 30
0.0
 40
40.0
  1
ＮＬ１５－ＭＹ
 41
0.801
  7
EXCADSTD
 72
     5
 11
991.02407
 21
1491.772016
 31
0.0
100
AcDbText
  0
LINE
  5
368
100
AcDbEntity
  8
水栓
  6
CONTINUOUS
 62
     6
100
AcDbLine
 10
984.02407
 20
1488.272016
 30
0.0
 11
729.0
 21
1488.272016
 31
0.0
  0
LINE
  5
369
100
AcDbEntity
  8
水栓
  6
CONTINUOUS
 62
     6
100
AcDbLine
 10
1030.790624
 20
419.523798
 30
0.0
 11
1109.285059
 21
419.523798
 31
0.0
  0
TEXT
  5
36A
100
AcDbEntity
  8
水栓
  6
CONTINUOUS
 62
     2
100
AcDbText
 10
1030.790624
 20
423.023798
 30
0.0
 40
40.0
  1
２５
 41
0.861
  7
EXCADSTD
 72
     5
 11
1105.951824
 21
423.023798
 31
0.0
100
AcDbText
  0
LINE
  5
36B
100
AcDbEntity
  8
水栓
  6
EXLTYPE4
 62
     6
100
AcDbLine
 10
1147.700256
 20
512.00058
 30
0.0
 11
1147.700256
 21
963.499908
 31
0.0
  0
LINE
  5
36C
100
AcDbEntity
  8
水栓
  6
EXLTYPE3
 62
     6
100
AcDbLine
 10
1173.100256
 20
512.00058
 30
0.0
 11
1173.100256
 21
980.000043
 31
0.0
  0
ARC
  5
36D
100
AcDbEntity
  8
水栓
  6
EXLTYPE2
 62
     6
100
AcDbCircle
 10
1160.400256
 20
980.000043
 30
0.0
 40
12.7
100
AcDbArc
 50
0.0
 51
180.0
  0
LINE
  5
36E
100
AcDbEntity
  8
水栓
  6
EXLTYPE2
 62
     6
100
AcDbLine
 10
1147.741993
 20
473.000802
 30
0.0
 11
1173.141993
 21
473.000785
 31
0.0
  0
ARC
  5
36F
100
AcDbEntity
  8
水栓
  6
EXLTYPE2
 62
     6
100
AcDbCircle
 10
1178.441947
 20
500.00061
 30
0.0
 40
11.999998
100
AcDbArc
 50
0.0
 51
90.0
  0
ARC
  5
370
100
AcDbEntity
  8
水栓
  6
EXLTYPE2
 62
     6
100
AcDbCircle
 10
1142.442038
 20
500.00061
 30
0.0
 40
11.999998
100
AcDbArc
 50
90.0
 51
180.0
  0
LINE
  5
371
100
AcDbEntity
  8
水栓
  6
EXLTYPE2
 62
     6
100
AcDbLine
 10
1190.442069
 20
500.00061
 30
0.0
 11
1190.442069
 21
498.000641
 31
0.0
  0
LINE
  5
372
100
AcDbEntity
  8
水栓
  6
EXLTYPE2
 62
     6
100
AcDbLine
 10
1130.442069
 20
500.00061
 30
0.0
 11
1130.442069
 21
498.000641
 31
0.0
  0
LINE
  5
373
100
AcDbEntity
  8
水栓
  6
EXLTYPE2
 62
     6
100
AcDbLine
 10
1142.442038
 20
512.00058
 30
0.0
 11
1178.441947
 21
512.00058
 31
0.0
  0
LINE
  5
374
100
AcDbEntity
  8
水栓
  6
EXLTYPE2
 62
     6
100
AcDbLine
 10
1173.141993
 20
473.000785
 30
0.0
 11
1173.141993
 21
498.000785
 31
0.0
  0
LINE
  5
375
100
AcDbEntity
  8
水栓
  6
EXLTYPE2
 62
     6
100
AcDbLine
 10
1147.741993
 20
473.000802
 30
0.0
 11
1147.741993
 21
498.000802
 31
0.0
  0
LINE
  5
376
100
AcDbEntity
  8
トラップ
  6
CONTINUOUS
 62
     6
100
AcDbLine
 10
1109.750275
 20
1135.0
 30
0.0
 11
1109.750275
 21
1140.0
 31
0.0
  0
LINE
  5
377
100
AcDbEntity
  8
トラップ
  6
CONTINUOUS
 62
     6
100
AcDbLine
 10
1158.250336
 20
1135.0
 30
0.0
 11
1109.750275
 21
1135.0
 31
0.0
  0
LINE
  5
378
100
AcDbEntity
  8
トラップ
  6
CONTINUOUS
 62
     6
100
AcDbLine
 10
1158.250336
 20
1135.0
 30
0.0
 11
1158.250336
 21
1140.0
 31
0.0
  0
LINE
  5
379
100
AcDbEntity
  8
トラップ
  6
CONTINUOUS
 62
     6
100
AcDbLine
 10
1156.500305
 20
1114.00003
 30
0.0
 11
1156.500305
 21
1135.0
 31
0.0
  0
LINE
  5
37A
100
AcDbEntity
  8
トラップ
  6
CONTINUOUS
 62
     6
100
AcDbLine
 10
1155.760364
 20
1112.327358
 30
0.0
 11
1148.440197
 21
1105.672672
 31
0.0
  0
LINE
  5
37B
100
AcDbEntity
  8
トラップ
  6
CONTINUOUS
 62
     6
100
AcDbLine
 10
1111.500305
 20
1114.00003
 30
0.0
 11
1111.500305
 21
1135.0
 31
0.0
  0
LINE
  5
37C
100
AcDbEntity
  8
トラップ
  6
CONTINUOUS
 62
     6
100
AcDbLine
 10
1112.240246
 20
1112.327358
 30
0.0
 11
1120.300354
 21
1105.0
 31
0.0
  0
LINE
  5
37D
100
AcDbEntity
  8
トラップ
  6
CONTINUOUS
 62
     6
100
AcDbLine
 10
1111.500305
 20
1113.000031
 30
0.0
 11
1119.560413
 21
1105.672672
 31
0.0
  0
LINE
  5
37E
100
AcDbEntity
  8
トラップ
  6
CONTINUOUS
 62
     6
100
AcDbLine
 10
1146.700195
 20
1105.0
 30
0.0
 11
1121.300415
 21
1105.0
 31
0.0
  0
LINE
  5
37F
100
AcDbEntity
  8
トラップ
  6
CONTINUOUS
 62
     6
100
AcDbLine
 10
1120.300354
 20
1100.0
 30
0.0
 11
1120.300354
 21
1104.0
 31
0.0
  0
LINE
  5
380
100
AcDbEntity
  8
トラップ
  6
CONTINUOUS
 62
     6
100
AcDbLine
 10
1147.700256
 20
1100.0
 30
0.0
 11
1120.300354
 21
1100.0
 31
0.0
  0
LINE
  5
381
100
AcDbEntity
  8
トラップ
  6
CONTINUOUS
 62
     6
100
AcDbLine
 10
1146.700195
 20
1105.0
 30
0.0
 11
1121.300415
 21
1105.0
 31
0.0
  0
LINE
  5
382
100
AcDbEntity
  8
トラップ
  6
CONTINUOUS
 62
     6
100
AcDbLine
 10
1147.700256
 20
1100.0
 30
0.0
 11
1147.700256
 21
1104.0
 31
0.0
  0
LINE
  5
383
100
AcDbEntity
  8
トラップ
  6
CONTINUOUS
 62
     6
100
AcDbLine
 10
1146.700348
 20
1018.499908
 30
0.0
 11
1146.700348
 21
1100.0
 31
0.0
  0
LINE
  5
384
100
AcDbEntity
  8
トラップ
  6
CONTINUOUS
 62
     6
100
AcDbLine
 10
1121.300262
 20
1018.499908
 30
0.0
 11
1121.300262
 21
1100.0
 31
0.0
  0
LINE
  5
385
100
AcDbEntity
  8
トラップ
  6
CONTINUOUS
 62
     6
100
AcDbLine
 10
1121.300415
 20
963.500061
 30
0.0
 11
1146.700195
 21
963.500061
 31
0.0
  0
LINE
  5
386
100
AcDbEntity
  8
トラップ
  6
CONTINUOUS
 62
     6
100
AcDbLine
 10
1120.300354
 20
968.063355
 30
0.0
 11
1120.300354
 21
1004.199982
 31
0.0
  0
LINE
  5
387
100
AcDbEntity
  8
トラップ
  6
CONTINUOUS
 62
     6
100
AcDbLine
 10
1120.300354
 20
964.03595
 30
0.0
 11
1120.300354
 21
1004.199982
 31
0.0
  0
LINE
  5
388
100
AcDbEntity
  8
トラップ
  6
CONTINUOUS
 62
     6
100
AcDbLine
 10
1147.700256
 20
964.03595
 30
0.0
 11
1147.700256
 21
1004.199982
 31
0.0
  0
ARC
  5
389
100
AcDbEntity
  8
トラップ
  6
CONTINUOUS
 62
     6
100
AcDbCircle
 10
1119.000305
 20
1004.199982
 30
0.0
 40
1.3
100
AcDbArc
 50
0.0
 51
90.0
  0
ARC
  5
38A
100
AcDbEntity
  8
トラップ
  6
CONTINUOUS
 62
     6
100
AcDbCircle
 10
1149.000305
 20
1004.199982
 30
0.0
 40
1.3
100
AcDbArc
 50
90.0
 51
180.0
  0
LINE
  5
38B
100
AcDbEntity
  8
トラップ
  6
CONTINUOUS
 62
     6
100
AcDbLine
 10
1149.000305
 20
1005.500031
 30
0.0
 11
1149.000305
 21
1006.499939
 31
0.0
  0
LINE
  5
38C
100
AcDbEntity
  8
トラップ
  6
CONTINUOUS
 62
     6
100
AcDbLine
 10
1119.000305
 20
1005.500031
 30
0.0
 11
1119.000305
 21
1006.499939
 31
0.0
  0
LINE
  5
38D
100
AcDbEntity
  8
トラップ
  6
CONTINUOUS
 62
     6
100
AcDbLine
 10
1119.000305
 20
1005.500031
 30
0.0
 11
1149.000305
 21
1005.500031
 31
0.0
  0
LINE
  5
38E
100
AcDbEntity
  8
トラップ
  6
CONTINUOUS
 62
     6
100
AcDbLine
 10
1149.000305
 20
1005.500031
 30
0.0
 11
1150.000366
 21
1006.500092
 31
0.0
  0
LINE
  5
38F
100
AcDbEntity
  8
トラップ
  6
CONTINUOUS
 62
     6
100
AcDbLine
 10
1118.000244
 20
1006.500092
 30
0.0
 11
1119.000305
 21
1005.500031
 31
0.0
  0
ARC
  5
390
100
AcDbEntity
  8
トラップ
  6
CONTINUOUS
 62
     6
100
AcDbCircle
 10
1145.700287
 20
964.03595
 30
0.0
 40
2.0
100
AcDbArc
 50
330.001953
 51
0.0
  0
LINE
  5
391
100
AcDbEntity
  8
トラップ
  6
CONTINUOUS
 62
     6
100
AcDbLine
 10
1146.968292
 20
962.232208
 30
0.0
 11
1147.700256
 21
963.499908
 31
0.0
  0
ARC
  5
392
100
AcDbEntity
  8
トラップ
  6
CONTINUOUS
 62
     6
100
AcDbCircle
 10
1148.700317
 20
961.2323
 30
0.0
 40
2.0
100
AcDbArc
 50
150.001907
 51
180.0
  0
LINE
  5
393
100
AcDbEntity
  8
トラップ
  6
CONTINUOUS
 62
     6
100
AcDbLine
 10
1146.968292
 20
962.232208
 30
0.0
 11
1147.700256
 21
963.499908
 31
0.0
  0
LINE
  5
394
100
AcDbEntity
  8
トラップ
  6
CONTINUOUS
 62
     6
100
AcDbLine
 10
1146.968292
 20
962.232208
 30
0.0
 11
1147.700256
 21
963.499908
 31
0.0
  0
LINE
  5
395
100
AcDbEntity
  8
トラップ
  6
CONTINUOUS
 62
     6
100
AcDbLine
 10
1146.968292
 20
962.232208
 30
0.0
 11
1147.700256
 21
963.499908
 31
0.0
  0
LINE
  5
396
100
AcDbEntity
  8
トラップ
  6
CONTINUOUS
 62
     6
100
AcDbLine
 10
1146.968292
 20
962.232208
 30
0.0
 11
1147.700256
 21
963.499908
 31
0.0
  0
ARC
  5
397
100
AcDbEntity
  8
トラップ
  6
CONTINUOUS
 62
     6
100
AcDbCircle
 10
1119.300293
 20
961.2323
 30
0.0
 40
2.0
100
AcDbArc
 50
0.0
 51
29.998093
  0
LINE
  5
398
100
AcDbEntity
  8
トラップ
  6
CONTINUOUS
 62
     6
100
AcDbLine
 10
1121.032318
 20
962.232208
 30
0.0
 11
1120.300354
 21
963.499908
 31
0.0
  0
LINE
  5
399
100
AcDbEntity
  8
トラップ
  6
CONTINUOUS
 62
     6
100
AcDbLine
 10
1121.032318
 20
962.232208
 30
0.0
 11
1120.300354
 21
963.499908
 31
0.0
  0
LINE
  5
39A
100
AcDbEntity
  8
トラップ
  6
CONTINUOUS
 62
     6
100
AcDbLine
 10
1121.032318
 20
962.232208
 30
0.0
 11
1120.300354
 21
963.499908
 31
0.0
  0
LINE
  5
39B
100
AcDbEntity
  8
トラップ
  6
CONTINUOUS
 62
     6
100
AcDbLine
 10
1121.032318
 20
962.232208
 30
0.0
 11
1120.300354
 21
963.499908
 31
0.0
  0
ARC
  5
39C
100
AcDbEntity
  8
トラップ
  6
CONTINUOUS
 62
     6
100
AcDbCircle
 10
1122.300323
 20
964.03595
 30
0.0
 40
2.0
100
AcDbArc
 50
180.0
 51
209.998047
  0
ARC
  5
39D
100
AcDbEntity
  8
トラップ
  6
CONTINUOUS
 62
     6
100
AcDbCircle
 10
1134.000305
 20
894.49997
 30
0.0
 40
12.700043
100
AcDbArc
 50
180.0
 51
0.0
  0
LINE
  5
39E
100
AcDbEntity
  8
トラップ
  6
CONTINUOUS
 62
     6
100
AcDbLine
 10
1146.700348
 20
894.49997
 30
0.0
 11
1146.700348
 21
961.2323
 31
0.0
  0
LINE
  5
39F
100
AcDbEntity
  8
トラップ
  6
CONTINUOUS
 62
     6
100
AcDbLine
 10
1121.300262
 20
894.49997
 30
0.0
 11
1121.300262
 21
961.2323
 31
0.0
  0
ARC
  5
3A0
100
AcDbEntity
  8
トラップ
  6
CONTINUOUS
 62
     6
100
AcDbCircle
 10
1134.000305
 20
980.0
 30
0.0
 40
30.0
100
AcDbArc
 50
120.671036
 51
244.954742
  0
ARC
  5
3A1
100
AcDbEntity
  8
トラップ
  6
CONTINUOUS
 62
     6
100
AcDbCircle
 10
1134.000305
 20
980.0
 30
0.0
 40
30.0
100
AcDbArc
 50
295.045166
 51
59.328964
  0
LINE
  5
3A2
100
AcDbEntity
  8
トラップ
  6
CONTINUOUS
 62
     6
100
AcDbLine
 10
1116.500305
 20
932.500244
 30
0.0
 11
1116.500305
 21
942.500214
 31
0.0
  0
LINE
  5
3A3
100
AcDbEntity
  8
トラップ
  6
CONTINUOUS
 62
     6
100
AcDbLine
 10
1151.500305
 20
932.500244
 30
0.0
 11
1151.500305
 21
942.500214
 31
0.0
  0
LINE
  5
3A4
100
AcDbEntity
  8
トラップ
  6
CONTINUOUS
 62
     6
100
AcDbLine
 10
1150.500305
 20
943.500214
 30
0.0
 11
1146.700348
 21
943.500214
 31
0.0
  0
LINE
  5
3A5
100
AcDbEntity
  8
トラップ
  6
CONTINUOUS
 62
     6
100
AcDbLine
 10
1121.300262
 20
943.500214
 30
0.0
 11
1117.500305
 21
943.500214
 31
0.0
  0
LINE
  5
3A6
100
AcDbEntity
  8
トラップ
  6
CONTINUOUS
 62
     6
100
AcDbLine
 10
1150.500305
 20
931.500244
 30
0.0
 11
1146.700348
 21
931.500244
 31
0.0
  0
LINE
  5
3A7
100
AcDbEntity
  8
トラップ
  6
CONTINUOUS
 62
     6
100
AcDbLine
 10
1121.300262
 20
931.500244
 30
0.0
 11
1117.500305
 21
931.500244
 31
0.0
  0
POLYLINE
  5
3A8
100
AcDbEntity
  8
トラップ
  6
CONTINUOUS
 62
     6
100
AcDb2dPolyline
 66
     1
 10
0.0
 20
0.0
 30
0.0
 70
   128
  0
VERTEX
  5
3A9
100
AcDbEntity
  8
トラップ
  6
CONTINUOUS
 62
     6
100
AcDbVertex
100
AcDb2dVertex
 10
1149.695343
 20
937.500153
 30
0.0
  0
VERTEX
  5
3AA
100
AcDbEntity
  8
トラップ
  6
CONTINUOUS
 62
     6
100
AcDbVertex
100
AcDb2dVertex
 10
1149.690531
 20
937.691368
 30
0.0
  0
VERTEX
  5
3AB
100
AcDbEntity
  8
トラップ
  6
CONTINUOUS
 62
     6
100
AcDbVertex
100
AcDb2dVertex
 10
1149.676127
 20
937.882321
 30
0.0
  0
VERTEX
  5
3AC
100
AcDbEntity
  8
トラップ
  6
CONTINUOUS
 62
     6
100
AcDbVertex
100
AcDb2dVertex
 10
1149.652176
 20
938.07275
 30
0.0
  0
VERTEX
  5
3AD
100
AcDbEntity
  8
トラップ
  6
CONTINUOUS
 62
     6
100
AcDbVertex
100
AcDb2dVertex
 10
1149.618728
 20
938.262394
 30
0.0
  0
VERTEX
  5
3AE
100
AcDbEntity
  8
トラップ
  6
CONTINUOUS
 62
     6
100
AcDbVertex
100
AcDb2dVertex
 10
1149.575828
 20
938.450989
 30
0.0
  0
VERTEX
  5
3AF
100
AcDbEntity
  8
トラップ
  6
CONTINUOUS
 62
     6
100
AcDbVertex
100
AcDb2dVertex
 10
1149.523524
 20
938.638275
 30
0.0
  0
VERTEX
  5
3B0
100
AcDbEntity
  8
トラップ
  6
CONTINUOUS
 62
     6
100
AcDbVertex
100
AcDb2dVertex
 10
1149.461863
 20
938.823989
 30
0.0
  0
VERTEX
  5
3B1
100
AcDbEntity
  8
トラップ
  6
CONTINUOUS
 62
     6
100
AcDbVertex
100
AcDb2dVertex
 10
1149.390904
 20
939.007872
 30
0.0
  0
VERTEX
  5
3B2
100
AcDbEntity
  8
トラップ
  6
CONTINUOUS
 62
     6
100
AcDbVertex
100
AcDb2dVertex
 10
1149.310768
 20
939.189675
 30
0.0
  0
VERTEX
  5
3B3
100
AcDbEntity
  8
トラップ
  6
CONTINUOUS
 62
     6
100
AcDbVertex
100
AcDb2dVertex
 10
1149.22159
 20
939.369152
 30
0.0
  0
VERTEX
  5
3B4
100
AcDbEntity
  8
トラップ
  6
CONTINUOUS
 62
     6
100
AcDbVertex
100
AcDb2dVertex
 10
1149.123506
 20
939.546059
 30
0.0
  0
VERTEX
  5
3B5
100
AcDbEntity
  8
トラップ
  6
CONTINUOUS
 62
     6
100
AcDbVertex
100
AcDb2dVertex
 10
1149.016654
 20
939.72015
 30
0.0
  0
VERTEX
  5
3B6
100
AcDbEntity
  8
トラップ
  6
CONTINUOUS
 62
     6
100
AcDbVertex
100
AcDb2dVertex
 10
1148.90117
 20
939.89118
 30
0.0
  0
VERTEX
  5
3B7
100
AcDbEntity
  8
トラップ
  6
CONTINUOUS
 62
     6
100
AcDbVertex
100
AcDb2dVertex
 10
1148.77719
 20
940.058903
 30
0.0
  0
VERTEX
  5
3B8
100
AcDbEntity
  8
トラップ
  6
CONTINUOUS
 62
     6
100
AcDbVertex
100
AcDb2dVertex
 10
1148.644861
 20
940.223078
 30
0.0
  0
VERTEX
  5
3B9
100
AcDbEntity
  8
トラップ
  6
CONTINUOUS
 62
     6
100
AcDbVertex
100
AcDb2dVertex
 10
1148.504381
 20
940.383488
 30
0.0
  0
VERTEX
  5
3BA
100
AcDbEntity
  8
トラップ
  6
CONTINUOUS
 62
     6
100
AcDbVertex
100
AcDb2dVertex
 10
1148.355968
 20
940.539924
 30
0.0
  0
VERTEX
  5
3BB
100
AcDbEntity
  8
トラップ
  6
CONTINUOUS
 62
     6
100
AcDbVertex
100
AcDb2dVertex
 10
1148.19984
 20
940.692176
 30
0.0
  0
VERTEX
  5
3BC
100
AcDbEntity
  8
トラップ
  6
CONTINUOUS
 62
     6
100
AcDbVertex
100
AcDb2dVertex
 10
1148.036212
 20
940.840036
 30
0.0
  0
VERTEX
  5
3BD
100
AcDbEntity
  8
トラップ
  6
CONTINUOUS
 62
     6
100
AcDbVertex
100
AcDb2dVertex
 10
1147.865303
 20
940.983295
 30
0.0
  0
VERTEX
  5
3BE
100
AcDbEntity
  8
トラップ
  6
CONTINUOUS
 62
     6
100
AcDbVertex
100
AcDb2dVertex
 10
1147.687329
 20
941.121742
 30
0.0
  0
VERTEX
  5
3BF
100
AcDbEntity
  8
トラップ
  6
CONTINUOUS
 62
     6
100
AcDbVertex
100
AcDb2dVertex
 10
1147.502514
 20
941.255174
 30
0.0
  0
VERTEX
  5
3C0
100
AcDbEntity
  8
トラップ
  6
CONTINUOUS
 62
     6
100
AcDbVertex
100
AcDb2dVertex
 10
1147.311126
 20
941.383417
 30
0.0
  0
VERTEX
  5
3C1
100
AcDbEntity
  8
トラップ
  6
CONTINUOUS
 62
     6
100
AcDbVertex
100
AcDb2dVertex
 10
1147.113446
 20
941.506311
 30
0.0
  0
VERTEX
  5
3C2
100
AcDbEntity
  8
トラップ
  6
CONTINUOUS
 62
     6
100
AcDbVertex
100
AcDb2dVertex
 10
1146.909759
 20
941.623691
 30
0.0
  0
VERTEX
  5
3C3
100
AcDbEntity
  8
トラップ
  6
CONTINUOUS
 62
     6
100
AcDbVertex
100
AcDb2dVertex
 10
1146.700349
 20
941.735398
 30
0.0
  0
SEQEND
  5
3C4
100
AcDbEntity
  8
トラップ
  6
CONTINUOUS
 62
     6
  0
POLYLINE
  5
3C5
100
AcDbEntity
  8
トラップ
  6
CONTINUOUS
 62
     6
100
AcDb2dPolyline
 66
     1
 10
0.0
 20
0.0
 30
0.0
 70
   128
  0
VERTEX
  5
3C6
100
AcDbEntity
  8
トラップ
  6
CONTINUOUS
 62
     6
100
AcDbVertex
100
AcDb2dVertex
 10
1146.700352
 20
933.264908
 30
0.0
  0
VERTEX
  5
3C7
100
AcDbEntity
  8
トラップ
  6
CONTINUOUS
 62
     6
100
AcDbVertex
100
AcDb2dVertex
 10
1146.909762
 20
933.376615
 30
0.0
  0
VERTEX
  5
3C8
100
AcDbEntity
  8
トラップ
  6
CONTINUOUS
 62
     6
100
AcDbVertex
100
AcDb2dVertex
 10
1147.113449
 20
933.493996
 30
0.0
  0
VERTEX
  5
3C9
100
AcDbEntity
  8
トラップ
  6
CONTINUOUS
 62
     6
100
AcDbVertex
100
AcDb2dVertex
 10
1147.311128
 20
933.616889
 30
0.0
  0
VERTEX
  5
3CA
100
AcDbEntity
  8
トラップ
  6
CONTINUOUS
 62
     6
100
AcDbVertex
100
AcDb2dVertex
 10
1147.502516
 20
933.745133
 30
0.0
  0
VERTEX
  5
3CB
100
AcDbEntity
  8
トラップ
  6
CONTINUOUS
 62
     6
100
AcDbVertex
100
AcDb2dVertex
 10
1147.687331
 20
933.878565
 30
0.0
  0
VERTEX
  5
3CC
100
AcDbEntity
  8
トラップ
  6
CONTINUOUS
 62
     6
100
AcDbVertex
100
AcDb2dVertex
 10
1147.865305
 20
934.017012
 30
0.0
  0
VERTEX
  5
3CD
100
AcDbEntity
  8
トラップ
  6
CONTINUOUS
 62
     6
100
AcDbVertex
100
AcDb2dVertex
 10
1148.036214
 20
934.16027
 30
0.0
  0
VERTEX
  5
3CE
100
AcDbEntity
  8
トラップ
  6
CONTINUOUS
 62
     6
100
AcDbVertex
100
AcDb2dVertex
 10
1148.199841
 20
934.30813
 30
0.0
  0
VERTEX
  5
3CF
100
AcDbEntity
  8
トラップ
  6
CONTINUOUS
 62
     6
100
AcDbVertex
100
AcDb2dVertex
 10
1148.35597
 20
934.460383
 30
0.0
  0
VERTEX
  5
3D0
100
AcDbEntity
  8
トラップ
  6
CONTINUOUS
 62
     6
100
AcDbVertex
100
AcDb2dVertex
 10
1148.504382
 20
934.616819
 30
0.0
  0
VERTEX
  5
3D1
100
AcDbEntity
  8
トラップ
  6
CONTINUOUS
 62
     6
100
AcDbVertex
100
AcDb2dVertex
 10
1148.644862
 20
934.777229
 30
0.0
  0
VERTEX
  5
3D2
100
AcDbEntity
  8
トラップ
  6
CONTINUOUS
 62
     6
100
AcDbVertex
100
AcDb2dVertex
 10
1148.777191
 20
934.941404
 30
0.0
  0
VERTEX
  5
3D3
100
AcDbEntity
  8
トラップ
  6
CONTINUOUS
 62
     6
100
AcDbVertex
100
AcDb2dVertex
 10
1148.901171
 20
935.109126
 30
0.0
  0
VERTEX
  5
3D4
100
AcDbEntity
  8
トラップ
  6
CONTINUOUS
 62
     6
100
AcDbVertex
100
AcDb2dVertex
 10
1149.016655
 20
935.280156
 30
0.0
  0
VERTEX
  5
3D5
100
AcDbEntity
  8
トラップ
  6
CONTINUOUS
 62
     6
100
AcDbVertex
100
AcDb2dVertex
 10
1149.123507
 20
935.454247
 30
0.0
  0
VERTEX
  5
3D6
100
AcDbEntity
  8
トラップ
  6
CONTINUOUS
 62
     6
100
AcDbVertex
100
AcDb2dVertex
 10
1149.22159
 20
935.631154
 30
0.0
  0
VERTEX
  5
3D7
100
AcDbEntity
  8
トラップ
  6
CONTINUOUS
 62
     6
100
AcDbVertex
100
AcDb2dVertex
 10
1149.310768
 20
935.810631
 30
0.0
  0
VERTEX
  5
3D8
100
AcDbEntity
  8
トラップ
  6
CONTINUOUS
 62
     6
100
AcDbVertex
100
AcDb2dVertex
 10
1149.390905
 20
935.992434
 30
0.0
  0
VERTEX
  5
3D9
100
AcDbEntity
  8
トラップ
  6
CONTINUOUS
 62
     6
100
AcDbVertex
100
AcDb2dVertex
 10
1149.461863
 20
936.176317
 30
0.0
  0
VERTEX
  5
3DA
100
AcDbEntity
  8
トラップ
  6
CONTINUOUS
 62
     6
100
AcDbVertex
100
AcDb2dVertex
 10
1149.523524
 20
936.362031
 30
0.0
  0
VERTEX
  5
3DB
100
AcDbEntity
  8
トラップ
  6
CONTINUOUS
 62
     6
100
AcDbVertex
100
AcDb2dVertex
 10
1149.575828
 20
936.549316
 30
0.0
  0
VERTEX
  5
3DC
100
AcDbEntity
  8
トラップ
  6
CONTINUOUS
 62
     6
100
AcDbVertex
100
AcDb2dVertex
 10
1149.618728
 20
936.737912
 30
0.0
  0
VERTEX
  5
3DD
100
AcDbEntity
  8
トラップ
  6
CONTINUOUS
 62
     6
100
AcDbVertex
100
AcDb2dVertex
 10
1149.652177
 20
936.927555
 30
0.0
  0
VERTEX
  5
3DE
100
AcDbEntity
  8
トラップ
  6
CONTINUOUS
 62
     6
100
AcDbVertex
100
AcDb2dVertex
 10
1149.676127
 20
937.117985
 30
0.0
  0
VERTEX
  5
3DF
100
AcDbEntity
  8
トラップ
  6
CONTINUOUS
 62
     6
100
AcDbVertex
100
AcDb2dVertex
 10
1149.690531
 20
937.308938
 30
0.0
  0
VERTEX
  5
3E0
100
AcDbEntity
  8
トラップ
  6
CONTINUOUS
 62
     6
100
AcDbVertex
100
AcDb2dVertex
 10
1149.695343
 20
937.500153
 30
0.0
  0
SEQEND
  5
3E1
100
AcDbEntity
  8
トラップ
  6
CONTINUOUS
 62
     6
  0
POLYLINE
  5
3E2
100
AcDbEntity
  8
トラップ
  6
CONTINUOUS
 62
     6
100
AcDb2dPolyline
 66
     1
 10
0.0
 20
0.0
 30
0.0
 70
   128
  0
VERTEX
  5
3E3
100
AcDbEntity
  8
トラップ
  6
CONTINUOUS
 62
     6
100
AcDbVertex
100
AcDb2dVertex
 10
1121.300256
 20
941.735396
 30
0.0
  0
VERTEX
  5
3E4
100
AcDbEntity
  8
トラップ
  6
CONTINUOUS
 62
     6
100
AcDbVertex
100
AcDb2dVertex
 10
1120.887159
 20
941.506308
 30
0.0
  0
VERTEX
  5
3E5
100
AcDbEntity
  8
トラップ
  6
CONTINUOUS
 62
     6
100
AcDbVertex
100
AcDb2dVertex
 10
1120.498092
 20
941.255171
 30
0.0
  0
VERTEX
  5
3E6
100
AcDbEntity
  8
トラップ
  6
CONTINUOUS
 62
     6
100
AcDbVertex
100
AcDb2dVertex
 10
1120.135303
 20
940.983291
 30
0.0
  0
VERTEX
  5
3E7
100
AcDbEntity
  8
トラップ
  6
CONTINUOUS
 62
     6
100
AcDbVertex
100
AcDb2dVertex
 10
1119.800767
 20
940.692173
 30
0.0
  0
VERTEX
  5
3E8
100
AcDbEntity
  8
トラップ
  6
CONTINUOUS
 62
     6
100
AcDbVertex
100
AcDb2dVertex
 10
1119.496226
 20
940.383485
 30
0.0
  0
VERTEX
  5
3E9
100
AcDbEntity
  8
トラップ
  6
CONTINUOUS
 62
     6
100
AcDbVertex
100
AcDb2dVertex
 10
1119.223418
 20
940.0589
 30
0.0
  0
VERTEX
  5
3EA
100
AcDbEntity
  8
トラップ
  6
CONTINUOUS
 62
     6
100
AcDbVertex
100
AcDb2dVertex
 10
1118.983954
 20
939.720148
 30
0.0
  0
VERTEX
  5
3EB
100
AcDbEntity
  8
トラップ
  6
CONTINUOUS
 62
     6
100
AcDbVertex
100
AcDb2dVertex
 10
1118.779019
 20
939.36915
 30
0.0
  0
VERTEX
  5
3EC
100
AcDbEntity
  8
トラップ
  6
CONTINUOUS
 62
     6
100
AcDbVertex
100
AcDb2dVertex
 10
1118.609705
 20
939.00787
 30
0.0
  0
VERTEX
  5
3ED
100
AcDbEntity
  8
トラップ
  6
CONTINUOUS
 62
     6
100
AcDbVertex
100
AcDb2dVertex
 10
1118.477086
 20
938.638273
 30
0.0
  0
VERTEX
  5
3EE
100
AcDbEntity
  8
トラップ
  6
CONTINUOUS
 62
     6
100
AcDbVertex
100
AcDb2dVertex
 10
1118.381882
 20
938.262392
 30
0.0
  0
VERTEX
  5
3EF
100
AcDbEntity
  8
トラップ
  6
CONTINUOUS
 62
     6
100
AcDbVertex
100
AcDb2dVertex
 10
1118.324484
 20
937.882319
 30
0.0
  0
VERTEX
  5
3F0
100
AcDbEntity
  8
トラップ
  6
CONTINUOUS
 62
     6
100
AcDbVertex
100
AcDb2dVertex
 10
1118.305267
 20
937.500151
 30
0.0
  0
VERTEX
  5
3F1
100
AcDbEntity
  8
トラップ
  6
CONTINUOUS
 62
     6
100
AcDbVertex
100
AcDb2dVertex
 10
1118.324484
 20
937.117983
 30
0.0
  0
VERTEX
  5
3F2
100
AcDbEntity
  8
トラップ
  6
CONTINUOUS
 62
     6
100
AcDbVertex
100
AcDb2dVertex
 10
1118.381883
 20
936.737911
 30
0.0
  0
VERTEX
  5
3F3
100
AcDbEntity
  8
トラップ
  6
CONTINUOUS
 62
     6
100
AcDbVertex
100
AcDb2dVertex
 10
1118.477086
 20
936.36203
 30
0.0
  0
VERTEX
  5
3F4
100
AcDbEntity
  8
トラップ
  6
CONTINUOUS
 62
     6
100
AcDbVertex
100
AcDb2dVertex
 10
1118.609706
 20
935.992433
 30
0.0
  0
VERTEX
  5
3F5
100
AcDbEntity
  8
トラップ
  6
CONTINUOUS
 62
     6
100
AcDbVertex
100
AcDb2dVertex
 10
1118.779021
 20
935.631153
 30
0.0
  0
VERTEX
  5
3F6
100
AcDbEntity
  8
トラップ
  6
CONTINUOUS
 62
     6
100
AcDbVertex
100
AcDb2dVertex
 10
1118.983956
 20
935.280155
 30
0.0
  0
VERTEX
  5
3F7
100
AcDbEntity
  8
トラップ
  6
CONTINUOUS
 62
     6
100
AcDbVertex
100
AcDb2dVertex
 10
1119.22342
 20
934.941403
 30
0.0
  0
VERTEX
  5
3F8
100
AcDbEntity
  8
トラップ
  6
CONTINUOUS
 62
     6
100
AcDbVertex
100
AcDb2dVertex
 10
1119.496228
 20
934.616818
 30
0.0
  0
VERTEX
  5
3F9
100
AcDbEntity
  8
トラップ
  6
CONTINUOUS
 62
     6
100
AcDbVertex
100
AcDb2dVertex
 10
1119.800769
 20
934.30813
 30
0.0
  0
VERTEX
  5
3FA
100
AcDbEntity
  8
トラップ
  6
CONTINUOUS
 62
     6
100
AcDbVertex
100
AcDb2dVertex
 10
1120.135306
 20
934.017012
 30
0.0
  0
VERTEX
  5
3FB
100
AcDbEntity
  8
トラップ
  6
CONTINUOUS
 62
     6
100
AcDbVertex
100
AcDb2dVertex
 10
1120.498094
 20
933.745133
 30
0.0
  0
VERTEX
  5
3FC
100
AcDbEntity
  8
トラップ
  6
CONTINUOUS
 62
     6
100
AcDbVertex
100
AcDb2dVertex
 10
1120.887162
 20
933.493996
 30
0.0
  0
VERTEX
  5
3FD
100
AcDbEntity
  8
トラップ
  6
CONTINUOUS
 62
     6
100
AcDbVertex
100
AcDb2dVertex
 10
1121.300258
 20
933.264908
 30
0.0
  0
SEQEND
  5
3FE
100
AcDbEntity
  8
トラップ
  6
CONTINUOUS
 62
     6
  0
LINE
  5
3FF
100
AcDbEntity
  8
トラップ
  6
CONTINUOUS
 62
     6
100
AcDbLine
 10
1150.750488
 20
1018.499908
 30
0.0
 11
1117.250122
 21
1018.499908
 31
0.0
  0
ARC
  5
400
100
AcDbEntity
  8
トラップ
  6
CONTINUOUS
 62
     6
100
AcDbCircle
 10
1123.200287
 20
1012.5
 30
0.0
 40
8.45
100
AcDbArc
 50
134.761505
 51
225.240753
  0
POLYLINE
  5
401
100
AcDbEntity
  8
トラップ
  6
CONTINUOUS
 62
     6
100
AcDb2dPolyline
 66
     1
 10
0.0
 20
0.0
 30
0.0
 70
   128
  0
VERTEX
  5
402
100
AcDbEntity
  8
トラップ
  6
CONTINUOUS
 62
     6
100
AcDbVertex
100
AcDb2dVertex
 10
1122.854675
 20
1012.5
 30
0.0
  0
VERTEX
  5
403
100
AcDbEntity
  8
トラップ
  6
CONTINUOUS
 62
     6
100
AcDbVertex
100
AcDb2dVertex
 10
1122.738141
 20
1013.732231
 30
0.0
  0
VERTEX
  5
404
100
AcDbEntity
  8
トラップ
  6
CONTINUOUS
 62
     6
100
AcDbVertex
100
AcDb2dVertex
 10
1122.395382
 20
1014.892844
 30
0.0
  0
VERTEX
  5
405
100
AcDbEntity
  8
トラップ
  6
CONTINUOUS
 62
     6
100
AcDbVertex
100
AcDb2dVertex
 10
1121.84628
 20
1015.914397
 30
0.0
  0
VERTEX
  5
406
100
AcDbEntity
  8
トラップ
  6
CONTINUOUS
 62
     6
100
AcDbVertex
100
AcDb2dVertex
 10
1121.12273
 20
1016.737572
 30
0.0
  0
VERTEX
  5
407
100
AcDbEntity
  8
トラップ
  6
CONTINUOUS
 62
     6
100
AcDbVertex
100
AcDb2dVertex
 10
1120.266785
 20
1017.314465
 30
0.0
  0
VERTEX
  5
408
100
AcDbEntity
  8
トラップ
  6
CONTINUOUS
 62
     6
100
AcDbVertex
100
AcDb2dVertex
 10
1119.328251
 20
1017.611525
 30
0.0
  0
VERTEX
  5
409
100
AcDbEntity
  8
トラップ
  6
CONTINUOUS
 62
     6
100
AcDbVertex
100
AcDb2dVertex
 10
1118.361614
 20
1017.611525
 30
0.0
  0
VERTEX
  5
40A
100
AcDbEntity
  8
トラップ
  6
CONTINUOUS
 62
     6
100
AcDbVertex
100
AcDb2dVertex
 10
1117.42301
 20
1017.314465
 30
0.0
  0
VERTEX
  5
40B
100
AcDbEntity
  8
トラップ
  6
CONTINUOUS
 62
     6
100
AcDbVertex
100
AcDb2dVertex
 10
1116.567059
 20
1016.737572
 30
0.0
  0
VERTEX
  5
40C
100
AcDbEntity
  8
トラップ
  6
CONTINUOUS
 62
     6
100
AcDbVertex
100
AcDb2dVertex
 10
1115.843509
 20
1015.914397
 30
0.0
  0
VERTEX
  5
40D
100
AcDbEntity
  8
トラップ
  6
CONTINUOUS
 62
     6
100
AcDbVertex
100
AcDb2dVertex
 10
1115.294407
 20
1014.892844
 30
0.0
  0
VERTEX
  5
40E
100
AcDbEntity
  8
トラップ
  6
CONTINUOUS
 62
     6
100
AcDbVertex
100
AcDb2dVertex
 10
1114.951648
 20
1013.732231
 30
0.0
  0
VERTEX
  5
40F
100
AcDbEntity
  8
トラップ
  6
CONTINUOUS
 62
     6
100
AcDbVertex
100
AcDb2dVertex
 10
1114.835113
 20
1012.5
 30
0.0
  0
VERTEX
  5
410
100
AcDbEntity
  8
トラップ
  6
CONTINUOUS
 62
     6
100
AcDbVertex
100
AcDb2dVertex
 10
1114.951648
 20
1011.267769
 30
0.0
  0
VERTEX
  5
411
100
AcDbEntity
  8
トラップ
  6
CONTINUOUS
 62
     6
100
AcDbVertex
100
AcDb2dVertex
 10
1115.294407
 20
1010.107156
 30
0.0
  0
VERTEX
  5
412
100
AcDbEntity
  8
トラップ
  6
CONTINUOUS
 62
     6
100
AcDbVertex
100
AcDb2dVertex
 10
1115.843509
 20
1009.085603
 30
0.0
  0
VERTEX
  5
413
100
AcDbEntity
  8
トラップ
  6
CONTINUOUS
 62
     6
100
AcDbVertex
100
AcDb2dVertex
 10
1116.567059
 20
1008.262428
 30
0.0
  0
VERTEX
  5
414
100
AcDbEntity
  8
トラップ
  6
CONTINUOUS
 62
     6
100
AcDbVertex
100
AcDb2dVertex
 10
1117.42301
 20
1007.685535
 30
0.0
  0
VERTEX
  5
415
100
AcDbEntity
  8
トラップ
  6
CONTINUOUS
 62
     6
100
AcDbVertex
100
AcDb2dVertex
 10
1118.361614
 20
1007.388475
 30
0.0
  0
VERTEX
  5
416
100
AcDbEntity
  8
トラップ
  6
CONTINUOUS
 62
     6
100
AcDbVertex
100
AcDb2dVertex
 10
1119.328251
 20
1007.388475
 30
0.0
  0
VERTEX
  5
417
100
AcDbEntity
  8
トラップ
  6
CONTINUOUS
 62
     6
100
AcDbVertex
100
AcDb2dVertex
 10
1120.266785
 20
1007.685535
 30
0.0
  0
VERTEX
  5
418
100
AcDbEntity
  8
トラップ
  6
CONTINUOUS
 62
     6
100
AcDbVertex
100
AcDb2dVertex
 10
1121.12273
 20
1008.262428
 30
0.0
  0
VERTEX
  5
419
100
AcDbEntity
  8
トラップ
  6
CONTINUOUS
 62
     6
100
AcDbVertex
100
AcDb2dVertex
 10
1121.84628
 20
1009.085603
 30
0.0
  0
VERTEX
  5
41A
100
AcDbEntity
  8
トラップ
  6
CONTINUOUS
 62
     6
100
AcDbVertex
100
AcDb2dVertex
 10
1122.395382
 20
1010.107156
 30
0.0
  0
VERTEX
  5
41B
100
AcDbEntity
  8
トラップ
  6
CONTINUOUS
 62
     6
100
AcDbVertex
100
AcDb2dVertex
 10
1122.738141
 20
1011.267769
 30
0.0
  0
VERTEX
  5
41C
100
AcDbEntity
  8
トラップ
  6
CONTINUOUS
 62
     6
100
AcDbVertex
100
AcDb2dVertex
 10
1122.854675
 20
1012.5
 30
0.0
  0
SEQEND
  5
41D
100
AcDbEntity
  8
トラップ
  6
CONTINUOUS
 62
     6
  0
POLYLINE
  5
41E
100
AcDbEntity
  8
トラップ
  6
CONTINUOUS
 62
     6
100
AcDb2dPolyline
 66
     1
 10
0.0
 20
0.0
 30
0.0
 70
   128
  0
VERTEX
  5
41F
100
AcDbEntity
  8
トラップ
  6
CONTINUOUS
 62
     6
100
AcDbVertex
100
AcDb2dVertex
 10
1142.019867
 20
1012.5
 30
0.0
  0
VERTEX
  5
420
100
AcDbEntity
  8
トラップ
  6
CONTINUOUS
 62
     6
100
AcDbVertex
100
AcDb2dVertex
 10
1141.786799
 20
1013.732231
 30
0.0
  0
VERTEX
  5
421
100
AcDbEntity
  8
トラップ
  6
CONTINUOUS
 62
     6
100
AcDbVertex
100
AcDb2dVertex
 10
1141.101265
 20
1014.892844
 30
0.0
  0
VERTEX
  5
422
100
AcDbEntity
  8
トラップ
  6
CONTINUOUS
 62
     6
100
AcDbVertex
100
AcDb2dVertex
 10
1140.002969
 20
1015.914397
 30
0.0
  0
VERTEX
  5
423
100
AcDbEntity
  8
トラップ
  6
CONTINUOUS
 62
     6
100
AcDbVertex
100
AcDb2dVertex
 10
1138.555833
 20
1016.737572
 30
0.0
  0
VERTEX
  5
424
100
AcDbEntity
  8
トラップ
  6
CONTINUOUS
 62
     6
100
AcDbVertex
100
AcDb2dVertex
 10
1136.844017
 20
1017.314465
 30
0.0
  0
VERTEX
  5
425
100
AcDbEntity
  8
トラップ
  6
CONTINUOUS
 62
     6
100
AcDbVertex
100
AcDb2dVertex
 10
1134.96694
 20
1017.611525
 30
0.0
  0
VERTEX
  5
426
100
AcDbEntity
  8
トラップ
  6
CONTINUOUS
 62
     6
100
AcDbVertex
100
AcDb2dVertex
 10
1133.03367
 20
1017.611525
 30
0.0
  0
VERTEX
  5
427
100
AcDbEntity
  8
トラップ
  6
CONTINUOUS
 62
     6
100
AcDbVertex
100
AcDb2dVertex
 10
1131.156594
 20
1017.314465
 30
0.0
  0
VERTEX
  5
428
100
AcDbEntity
  8
トラップ
  6
CONTINUOUS
 62
     6
100
AcDbVertex
100
AcDb2dVertex
 10
1129.444778
 20
1016.737572
 30
0.0
  0
VERTEX
  5
429
100
AcDbEntity
  8
トラップ
  6
CONTINUOUS
 62
     6
100
AcDbVertex
100
AcDb2dVertex
 10
1127.997641
 20
1015.914397
 30
0.0
  0
VERTEX
  5
42A
100
AcDbEntity
  8
トラップ
  6
CONTINUOUS
 62
     6
100
AcDbVertex
100
AcDb2dVertex
 10
1126.899345
 20
1014.892844
 30
0.0
  0
VERTEX
  5
42B
100
AcDbEntity
  8
トラップ
  6
CONTINUOUS
 62
     6
100
AcDbVertex
100
AcDb2dVertex
 10
1126.213811
 20
1013.732231
 30
0.0
  0
VERTEX
  5
42C
100
AcDbEntity
  8
トラップ
  6
CONTINUOUS
 62
     6
100
AcDbVertex
100
AcDb2dVertex
 10
1125.980743
 20
1012.5
 30
0.0
  0
VERTEX
  5
42D
100
AcDbEntity
  8
トラップ
  6
CONTINUOUS
 62
     6
100
AcDbVertex
100
AcDb2dVertex
 10
1126.213811
 20
1011.267769
 30
0.0
  0
VERTEX
  5
42E
100
AcDbEntity
  8
トラップ
  6
CONTINUOUS
 62
     6
100
AcDbVertex
100
AcDb2dVertex
 10
1126.899345
 20
1010.107156
 30
0.0
  0
VERTEX
  5
42F
100
AcDbEntity
  8
トラップ
  6
CONTINUOUS
 62
     6
100
AcDbVertex
100
AcDb2dVertex
 10
1127.997641
 20
1009.085603
 30
0.0
  0
VERTEX
  5
430
100
AcDbEntity
  8
トラップ
  6
CONTINUOUS
 62
     6
100
AcDbVertex
100
AcDb2dVertex
 10
1129.444778
 20
1008.262428
 30
0.0
  0
VERTEX
  5
431
100
AcDbEntity
  8
トラップ
  6
CONTINUOUS
 62
     6
100
AcDbVertex
100
AcDb2dVertex
 10
1131.156594
 20
1007.685535
 30
0.0
  0
VERTEX
  5
432
100
AcDbEntity
  8
トラップ
  6
CONTINUOUS
 62
     6
100
AcDbVertex
100
AcDb2dVertex
 10
1133.03367
 20
1007.388475
 30
0.0
  0
VERTEX
  5
433
100
AcDbEntity
  8
トラップ
  6
CONTINUOUS
 62
     6
100
AcDbVertex
100
AcDb2dVertex
 10
1134.96694
 20
1007.388475
 30
0.0
  0
VERTEX
  5
434
100
AcDbEntity
  8
トラップ
  6
CONTINUOUS
 62
     6
100
AcDbVertex
100
AcDb2dVertex
 10
1136.844017
 20
1007.685535
 30
0.0
  0
VERTEX
  5
435
100
AcDbEntity
  8
トラップ
  6
CONTINUOUS
 62
     6
100
AcDbVertex
100
AcDb2dVertex
 10
1138.555833
 20
1008.262428
 30
0.0
  0
VERTEX
  5
436
100
AcDbEntity
  8
トラップ
  6
CONTINUOUS
 62
     6
100
AcDbVertex
100
AcDb2dVertex
 10
1140.002969
 20
1009.085603
 30
0.0
  0
VERTEX
  5
437
100
AcDbEntity
  8
トラップ
  6
CONTINUOUS
 62
     6
100
AcDbVertex
100
AcDb2dVertex
 10
1141.101265
 20
1010.107156
 30
0.0
  0
VERTEX
  5
438
100
AcDbEntity
  8
トラップ
  6
CONTINUOUS
 62
     6
100
AcDbVertex
100
AcDb2dVertex
 10
1141.786799
 20
1011.267769
 30
0.0
  0
VERTEX
  5
439
100
AcDbEntity
  8
トラップ
  6
CONTINUOUS
 62
     6
100
AcDbVertex
100
AcDb2dVertex
 10
1142.019867
 20
1012.5
 30
0.0
  0
SEQEND
  5
43A
100
AcDbEntity
  8
トラップ
  6
CONTINUOUS
 62
     6
  0
ARC
  5
43B
100
AcDbEntity
  8
トラップ
  6
CONTINUOUS
 62
     6
100
AcDbCircle
 10
1144.800323
 20
1012.5
 30
0.0
 40
8.45
100
AcDbArc
 50
314.759277
 51
45.238495
  0
POLYLINE
  5
43C
100
AcDbEntity
  8
トラップ
  6
CONTINUOUS
 62
     6
100
AcDb2dPolyline
 66
     1
 10
0.0
 20
0.0
 30
0.0
 70
   128
  0
VERTEX
  5
43D
100
AcDbEntity
  8
トラップ
  6
CONTINUOUS
 62
     6
100
AcDbVertex
100
AcDb2dVertex
 10
1153.250336
 20
1012.5
 30
0.0
  0
VERTEX
  5
43E
100
AcDbEntity
  8
トラップ
  6
CONTINUOUS
 62
     6
100
AcDbVertex
100
AcDb2dVertex
 10
1153.132591
 20
1013.732231
 30
0.0
  0
VERTEX
  5
43F
100
AcDbEntity
  8
トラップ
  6
CONTINUOUS
 62
     6
100
AcDbVertex
100
AcDb2dVertex
 10
1152.78615
 20
1014.892844
 30
0.0
  0
VERTEX
  5
440
100
AcDbEntity
  8
トラップ
  6
CONTINUOUS
 62
     6
100
AcDbVertex
100
AcDb2dVertex
 10
1152.231256
 20
1015.914397
 30
0.0
  0
VERTEX
  5
441
100
AcDbEntity
  8
トラップ
  6
CONTINUOUS
 62
     6
100
AcDbVertex
100
AcDb2dVertex
 10
1151.500024
 20
1016.737572
 30
0.0
  0
VERTEX
  5
442
100
AcDbEntity
  8
トラップ
  6
CONTINUOUS
 62
     6
100
AcDbVertex
100
AcDb2dVertex
 10
1150.635044
 20
1017.314465
 30
0.0
  0
VERTEX
  5
443
100
AcDbEntity
  8
トラップ
  6
CONTINUOUS
 62
     6
100
AcDbVertex
100
AcDb2dVertex
 10
1149.686542
 20
1017.611525
 30
0.0
  0
VERTEX
  5
444
100
AcDbEntity
  8
トラップ
  6
CONTINUOUS
 62
     6
100
AcDbVertex
100
AcDb2dVertex
 10
1148.709652
 20
1017.611525
 30
0.0
  0
VERTEX
  5
445
100
AcDbEntity
  8
トラップ
  6
CONTINUOUS
 62
     6
100
AcDbVertex
100
AcDb2dVertex
 10
1147.761221
 20
1017.314465
 30
0.0
  0
VERTEX
  5
446
100
AcDbEntity
  8
トラップ
  6
CONTINUOUS
 62
     6
100
AcDbVertex
100
AcDb2dVertex
 10
1146.896246
 20
1016.737572
 30
0.0
  0
VERTEX
  5
447
100
AcDbEntity
  8
トラップ
  6
CONTINUOUS
 62
     6
100
AcDbVertex
100
AcDb2dVertex
 10
1146.165014
 20
1015.914397
 30
0.0
  0
VERTEX
  5
448
100
AcDbEntity
  8
トラップ
  6
CONTINUOUS
 62
     6
100
AcDbVertex
100
AcDb2dVertex
 10
1145.610121
 20
1014.892844
 30
0.0
  0
VERTEX
  5
449
100
AcDbEntity
  8
トラップ
  6
CONTINUOUS
 62
     6
100
AcDbVertex
100
AcDb2dVertex
 10
1145.263679
 20
1013.732231
 30
0.0
  0
VERTEX
  5
44A
100
AcDbEntity
  8
トラップ
  6
CONTINUOUS
 62
     6
100
AcDbVertex
100
AcDb2dVertex
 10
1145.145935
 20
1012.5
 30
0.0
  0
VERTEX
  5
44B
100
AcDbEntity
  8
トラップ
  6
CONTINUOUS
 62
     6
100
AcDbVertex
100
AcDb2dVertex
 10
1145.263679
 20
1011.267769
 30
0.0
  0
VERTEX
  5
44C
100
AcDbEntity
  8
トラップ
  6
CONTINUOUS
 62
     6
100
AcDbVertex
100
AcDb2dVertex
 10
1145.610121
 20
1010.107156
 30
0.0
  0
VERTEX
  5
44D
100
AcDbEntity
  8
トラップ
  6
CONTINUOUS
 62
     6
100
AcDbVertex
100
AcDb2dVertex
 10
1146.165014
 20
1009.085603
 30
0.0
  0
VERTEX
  5
44E
100
AcDbEntity
  8
トラップ
  6
CONTINUOUS
 62
     6
100
AcDbVertex
100
AcDb2dVertex
 10
1146.896246
 20
1008.262428
 30
0.0
  0
VERTEX
  5
44F
100
AcDbEntity
  8
トラップ
  6
CONTINUOUS
 62
     6
100
AcDbVertex
100
AcDb2dVertex
 10
1147.761221
 20
1007.685535
 30
0.0
  0
VERTEX
  5
450
100
AcDbEntity
  8
トラップ
  6
CONTINUOUS
 62
     6
100
AcDbVertex
100
AcDb2dVertex
 10
1148.709652
 20
1007.388475
 30
0.0
  0
VERTEX
  5
451
100
AcDbEntity
  8
トラップ
  6
CONTINUOUS
 62
     6
100
AcDbVertex
100
AcDb2dVertex
 10
1149.686542
 20
1007.388475
 30
0.0
  0
VERTEX
  5
452
100
AcDbEntity
  8
トラップ
  6
CONTINUOUS
 62
     6
100
AcDbVertex
100
AcDb2dVertex
 10
1150.635044
 20
1007.685535
 30
0.0
  0
VERTEX
  5
453
100
AcDbEntity
  8
トラップ
  6
CONTINUOUS
 62
     6
100
AcDbVertex
100
AcDb2dVertex
 10
1151.500024
 20
1008.262428
 30
0.0
  0
VERTEX
  5
454
100
AcDbEntity
  8
トラップ
  6
CONTINUOUS
 62
     6
100
AcDbVertex
100
AcDb2dVertex
 10
1152.231256
 20
1009.085603
 30
0.0
  0
VERTEX
  5
455
100
AcDbEntity
  8
トラップ
  6
CONTINUOUS
 62
     6
100
AcDbVertex
100
AcDb2dVertex
 10
1152.78615
 20
1010.107156
 30
0.0
  0
VERTEX
  5
456
100
AcDbEntity
  8
トラップ
  6
CONTINUOUS
 62
     6
100
AcDbVertex
100
AcDb2dVertex
 10
1153.132591
 20
1011.267769
 30
0.0
  0
VERTEX
  5
457
100
AcDbEntity
  8
トラップ
  6
CONTINUOUS
 62
     6
100
AcDbVertex
100
AcDb2dVertex
 10
1153.250336
 20
1012.5
 30
0.0
  0
SEQEND
  5
458
100
AcDbEntity
  8
トラップ
  6
CONTINUOUS
 62
     6
  0
POLYLINE
  5
459
100
AcDbEntity
  8
トラップ
  6
CONTINUOUS
 62
     6
100
AcDb2dPolyline
 66
     1
 10
0.0
 20
0.0
 30
0.0
 70
   128
  0
VERTEX
  5
45A
100
AcDbEntity
  8
トラップ
  6
CONTINUOUS
 62
     6
100
AcDbVertex
100
AcDb2dVertex
 10
1153.250336
 20
1012.5
 30
0.0
  0
VERTEX
  5
45B
100
AcDbEntity
  8
トラップ
  6
CONTINUOUS
 62
     6
100
AcDbVertex
100
AcDb2dVertex
 10
1153.132591
 20
1013.732231
 30
0.0
  0
VERTEX
  5
45C
100
AcDbEntity
  8
トラップ
  6
CONTINUOUS
 62
     6
100
AcDbVertex
100
AcDb2dVertex
 10
1152.78615
 20
1014.892844
 30
0.0
  0
VERTEX
  5
45D
100
AcDbEntity
  8
トラップ
  6
CONTINUOUS
 62
     6
100
AcDbVertex
100
AcDb2dVertex
 10
1152.231256
 20
1015.914397
 30
0.0
  0
VERTEX
  5
45E
100
AcDbEntity
  8
トラップ
  6
CONTINUOUS
 62
     6
100
AcDbVertex
100
AcDb2dVertex
 10
1151.500024
 20
1016.737572
 30
0.0
  0
VERTEX
  5
45F
100
AcDbEntity
  8
トラップ
  6
CONTINUOUS
 62
     6
100
AcDbVertex
100
AcDb2dVertex
 10
1150.635044
 20
1017.314465
 30
0.0
  0
VERTEX
  5
460
100
AcDbEntity
  8
トラップ
  6
CONTINUOUS
 62
     6
100
AcDbVertex
100
AcDb2dVertex
 10
1149.686542
 20
1017.611525
 30
0.0
  0
VERTEX
  5
461
100
AcDbEntity
  8
トラップ
  6
CONTINUOUS
 62
     6
100
AcDbVertex
100
AcDb2dVertex
 10
1148.709652
 20
1017.611525
 30
0.0
  0
VERTEX
  5
462
100
AcDbEntity
  8
トラップ
  6
CONTINUOUS
 62
     6
100
AcDbVertex
100
AcDb2dVertex
 10
1147.761221
 20
1017.314465
 30
0.0
  0
VERTEX
  5
463
100
AcDbEntity
  8
トラップ
  6
CONTINUOUS
 62
     6
100
AcDbVertex
100
AcDb2dVertex
 10
1146.896246
 20
1016.737572
 30
0.0
  0
VERTEX
  5
464
100
AcDbEntity
  8
トラップ
  6
CONTINUOUS
 62
     6
100
AcDbVertex
100
AcDb2dVertex
 10
1146.165014
 20
1015.914397
 30
0.0
  0
VERTEX
  5
465
100
AcDbEntity
  8
トラップ
  6
CONTINUOUS
 62
     6
100
AcDbVertex
100
AcDb2dVertex
 10
1145.610121
 20
1014.892844
 30
0.0
  0
VERTEX
  5
466
100
AcDbEntity
  8
トラップ
  6
CONTINUOUS
 62
     6
100
AcDbVertex
100
AcDb2dVertex
 10
1145.263679
 20
1013.732231
 30
0.0
  0
VERTEX
  5
467
100
AcDbEntity
  8
トラップ
  6
CONTINUOUS
 62
     6
100
AcDbVertex
100
AcDb2dVertex
 10
1145.145935
 20
1012.5
 30
0.0
  0
VERTEX
  5
468
100
AcDbEntity
  8
トラップ
  6
CONTINUOUS
 62
     6
100
AcDbVertex
100
AcDb2dVertex
 10
1145.263679
 20
1011.267769
 30
0.0
  0
VERTEX
  5
469
100
AcDbEntity
  8
トラップ
  6
CONTINUOUS
 62
     6
100
AcDbVertex
100
AcDb2dVertex
 10
1145.610121
 20
1010.107156
 30
0.0
  0
VERTEX
  5
46A
100
AcDbEntity
  8
トラップ
  6
CONTINUOUS
 62
     6
100
AcDbVertex
100
AcDb2dVertex
 10
1146.165014
 20
1009.085603
 30
0.0
  0
VERTEX
  5
46B
100
AcDbEntity
  8
トラップ
  6
CONTINUOUS
 62
     6
100
AcDbVertex
100
AcDb2dVertex
 10
1146.896246
 20
1008.262428
 30
0.0
  0
VERTEX
  5
46C
100
AcDbEntity
  8
トラップ
  6
CONTINUOUS
 62
     6
100
AcDbVertex
100
AcDb2dVertex
 10
1147.761221
 20
1007.685535
 30
0.0
  0
VERTEX
  5
46D
100
AcDbEntity
  8
トラップ
  6
CONTINUOUS
 62
     6
100
AcDbVertex
100
AcDb2dVertex
 10
1148.709652
 20
1007.388475
 30
0.0
  0
VERTEX
  5
46E
100
AcDbEntity
  8
トラップ
  6
CONTINUOUS
 62
     6
100
AcDbVertex
100
AcDb2dVertex
 10
1149.686542
 20
1007.388475
 30
0.0
  0
VERTEX
  5
46F
100
AcDbEntity
  8
トラップ
  6
CONTINUOUS
 62
     6
100
AcDbVertex
100
AcDb2dVertex
 10
1150.635044
 20
1007.685535
 30
0.0
  0
VERTEX
  5
470
100
AcDbEntity
  8
トラップ
  6
CONTINUOUS
 62
     6
100
AcDbVertex
100
AcDb2dVertex
 10
1151.500024
 20
1008.262428
 30
0.0
  0
VERTEX
  5
471
100
AcDbEntity
  8
トラップ
  6
CONTINUOUS
 62
     6
100
AcDbVertex
100
AcDb2dVertex
 10
1152.231256
 20
1009.085603
 30
0.0
  0
VERTEX
  5
472
100
AcDbEntity
  8
トラップ
  6
CONTINUOUS
 62
     6
100
AcDbVertex
100
AcDb2dVertex
 10
1152.78615
 20
1010.107156
 30
0.0
  0
VERTEX
  5
473
100
AcDbEntity
  8
トラップ
  6
CONTINUOUS
 62
     6
100
AcDbVertex
100
AcDb2dVertex
 10
1153.132591
 20
1011.267769
 30
0.0
  0
VERTEX
  5
474
100
AcDbEntity
  8
トラップ
  6
CONTINUOUS
 62
     6
100
AcDbVertex
100
AcDb2dVertex
 10
1153.250336
 20
1012.5
 30
0.0
  0
SEQEND
  5
475
100
AcDbEntity
  8
トラップ
  6
CONTINUOUS
 62
     6
  0
LINE
  5
476
100
AcDbEntity
  8
トラップ
  6
CONTINUOUS
 62
     6
100
AcDbLine
 10
1150.750183
 20
1006.499939
 30
0.0
 11
1117.250427
 21
1006.499939
 31
0.0
  0
LINE
  5
477
100
AcDbEntity
  8
トラップ
  6
CONTINUOUS
 62
     6
100
AcDbLine
 10
1114.500305
 20
1113.000031
 30
0.0
 11
1153.500305
 21
1113.000031
 31
0.0
  0
LINE
  5
478
100
AcDbEntity
  8
トラップ
  6
CONTINUOUS
 62
     6
100
AcDbLine
 10
1279.536404
 20
1469.211181
 30
0.0
 11
1410.42846
 21
1469.211181
 31
0.0
  0
TEXT
  5
479
100
AcDbEntity
  8
トラップ
  6
CONTINUOUS
 62
     2
100
AcDbText
 10
1279.536404
 20
1472.711243
 30
0.0
 40
40.0
  1
ＰＪ
 41
0.861
  7
EXCADSTD
 72
     5
 11
1354.697604
 21
1472.711243
 31
0.0
100
AcDbText
  0
TEXT
  5
47A
100
AcDbEntity
  8
トラップ
  6
CONTINUOUS
 62
     2
100
AcDbText
 10
1347.472866
 20
1486.822418
 30
0.0
 40
25.0
  1
１
 41
0.9912
  7
EXCADSTD
 72
     5
 11
1371.072867
 21
1486.822418
 31
0.0
100
AcDbText
  0
TEXT
  5
47B
100
AcDbEntity
  8
トラップ
  6
CONTINUOUS
 62
     6
100
AcDbText
 10
1356.973904
 20
1472.711243
 30
0.0
 40
40.0
  1
／ 
 41
0.9912
  7
EXCADSTD
 72
     5
 11
1394.733902
 21
1472.711243
 31
0.0
100
AcDbText
  0
TEXT
  5
47C
100
AcDbEntity
  8
トラップ
  6
CONTINUOUS
 62
     2
100
AcDbText
 10
1383.171261
 20
1474.923004
 30
0.0
 40
25.0
  1
２
 41
0.9912
  7
EXCADSTD
 72
     5
 11
1406.771262
 21
1474.923004
 31
0.0
100
AcDbText
  0
LINE
  5
47D
100
AcDbEntity
  8
トラップ
  6
CONTINUOUS
 62
     6
100
AcDbLine
 10
1091.788663
 20
871.21693
 30
0.0
 11
897.68122
 21
871.21693
 31
0.0
  0
TEXT
  5
47E
100
AcDbEntity
  8
トラップ
  6
CONTINUOUS
 62
     2
100
AcDbText
 10
898.788664
 20
874.71693
 30
0.0
 40
40.0
  1
ＮＬ３ＤＰ
 41
0.8106
  7
EXCADSTD
 72
     5
 11
1091.788663
 21
874.71693
 31
0.0
100
AcDbText
  0
LINE
  5
47F
100
AcDbEntity
  8
トラップ
  6
CONTINUOUS
 62
     6
100
AcDbLine
 10
1146.700348
 20
2144.0
 30
0.0
 11
1121.300262
 21
2144.0
 31
0.0
  0
LINE
  5
480
100
AcDbEntity
  8
トラップ
  6
CONTINUOUS
 62
     6
100
AcDbLine
 10
1121.300262
 20
2114.0
 30
0.0
 11
1121.300262
 21
2144.0
 31
0.0
  0
LINE
  5
481
100
AcDbEntity
  8
トラップ
  6
CONTINUOUS
 62
     6
100
AcDbLine
 10
1146.700348
 20
2114.0
 30
0.0
 11
1146.700348
 21
2144.0
 31
0.0
  0
TEXT
  5
482
100
AcDbEntity
  8
トラップ
  6
CONTINUOUS
 62
     2
100
AcDbText
 10
1182.506176
 20
2199.702766
 30
0.0
 40
40.0
  1
２５
 41
0.861
  7
EXCADSTD
 72
     5
 11
1257.667375
 21
2199.702766
 31
0.0
100
AcDbText
  0
LINE
  5
483
100
AcDbEntity
  8
トラップ
  6
CONTINUOUS
 62
     6
100
AcDbLine
 10
1182.506176
 20
2196.202766
 30
0.0
 11
1261.00061
 21
2196.202766
 31
0.0
  0
LINE
  5
484
100
AcDbEntity
  8
トラップ
  6
CONTINUOUS
 62
     6
100
AcDbLine
 10
1118.188657
 20
627.884411
 30
0.0
 11
924.081214
 21
627.884411
 31
0.0
  0
TEXT
  5
485
100
AcDbEntity
  8
トラップ
  6
CONTINUOUS
 62
     2
100
AcDbText
 10
925.188658
 20
631.384411
 30
0.0
 40
40.0
  1
ＮＬ３ＤＳ
 41
0.8106
  7
EXCADSTD
 72
     5
 11
1118.188657
 21
631.384411
 31
0.0
100
AcDbText
  0
TEXT
  5
486
100
AcDbEntity
  8
器具明細表
  6
CONTINUOUS
 62
     2
100
AcDbText
 10
759.0
 20
2820.0
 30
0.0
 40
60.0
  1
器具明細
 41
1.54
  7
EXCADSTD
 72
     5
 11
1199.0
 21
2820.0
 31
0.0
100
AcDbText
  0
TEXT
  5
487
100
AcDbEntity
  8
器具明細表
  6
CONTINUOUS
 62
     2
100
AcDbText
 10
804.0
 20
2750.0
 30
0.0
 40
55.0
  1
品番
 41
1.527273
  7
EXCADSTD
 72
     5
 11
987.32
 21
2750.0
 31
0.0
100
AcDbText
  0
TEXT
  5
488
100
AcDbEntity
  8
器具明細表
  6
CONTINUOUS
 62
     2
100
AcDbText
 10
1119.0
 20
2750.0
 30
0.0
 40
55.0
  1
品名
 41
1.374545
  7
EXCADSTD
 72
     5
 11
1283.988
 21
2750.0
 31
0.0
100
AcDbText
  0
TEXT
  5
489
100
AcDbEntity
  8
器具明細表
  6
CONTINUOUS
 62
     2
100
AcDbText
 10
1350.5
 20
2750.0
 30
0.0
 40
55.0
  1
個数
 41
0.664364
  7
EXCADSTD
 72
     5
 11
1430.2442
 21
2750.0
 31
0.0
100
AcDbText
  0
TEXT
  5
48A
100
AcDbEntity
  8
器具明細表
  6
CONTINUOUS
 62
     2
100
AcDbText
 10
743.0
 20
2687.5
 30
0.0
 40
50.0
  1
Ｌ９１
 41
0.6664
  7
EXCADSTD
 72
     5
 11
862.0
 21
2687.5
 31
0.0
100
AcDbText
  0
TEXT
  5
48B
100
AcDbEntity
  8
器具明細表
  6
CONTINUOUS
 62
     2
100
AcDbText
 10
743.0
 20
2557.5
 30
0.0
 40
50.0
  1
ＮＬ３ＤＰ
 41
0.64848
  7
EXCADSTD
 72
     5
 11
936.0
 21
2557.5
 31
0.0
100
AcDbText
  0
TEXT
  5
48C
100
AcDbEntity
  8
器具明細表
  6
CONTINUOUS
 62
     2
100
AcDbText
 10
743.0
 20
2492.5
 30
0.0
 40
50.0
  1
ＮＴ７Ａ
 41
0.6552
  7
EXCADSTD
 72
     5
 11
899.0
 21
2492.5
 31
0.0
100
AcDbText
  0
TEXT
  5
48D
100
AcDbEntity
  8
器具明細表
  6
CONTINUOUS
 62
     2
100
AcDbText
 10
1073.0
 20
2687.5
 30
0.0
 40
50.0
  1
手洗器
 41
0.6664
  7
EXCADSTD
 72
     5
 11
1192.0
 21
2687.5
 31
0.0
100
AcDbText
  0
TEXT
  5
48E
100
AcDbEntity
  8
器具明細表
  6
CONTINUOUS
 62
     2
100
AcDbText
 10
1073.0
 20
2622.5
 30
0.0
 40
50.0
  1
衛生水栓
 41
0.6552
  7
EXCADSTD
 72
     5
 11
1229.0
 21
2622.5
 31
0.0
100
AcDbText
  0
TEXT
  5
48F
100
AcDbEntity
  8
器具明細表
  6
CONTINUOUS
 62
     2
100
AcDbText
 10
1073.0
 20
2557.5
 30
0.0
 40
50.0
  1
Ｐトラップ
 41
0.64848
  7
EXCADSTD
 72
     5
 11
1266.0
 21
2557.5
 31
0.0
100
AcDbText
  0
TEXT
  5
490
100
AcDbEntity
  8
器具明細表
  6
CONTINUOUS
 62
     2
100
AcDbText
 10
1073.0
 20
2492.5
 30
0.0
 40
50.0
  1
化粧頭付木ねじ
 41
0.6408
  7
EXCADSTD
 72
     5
 11
1339.999999
 21
2492.5
 31
0.0
100
AcDbText
  0
TEXT
  5
491
100
AcDbEntity
  8
器具明細表
  6
CONTINUOUS
 62
     2
100
AcDbText
 10
1371.5
 20
2690.0
 30
0.0
 40
45.0
  1
１
 41
0.84
  7
EXCADSTD
 72
     5
 11
1407.5
 21
2690.0
 31
0.0
100
AcDbText
  0
TEXT
  5
492
100
AcDbEntity
  8
器具明細表
  6
CONTINUOUS
 62
     2
100
AcDbText
 10
1371.5
 20
2495.0
 30
0.0
 40
45.0
  1
２
 41
0.84
  7
EXCADSTD
 72
     5
 11
1407.5
 21
2495.0
 31
0.0
100
AcDbText
  0
TEXT
  5
493
100
AcDbEntity
  8
器具明細表
  6
CONTINUOUS
 62
     2
100
AcDbText
 10
1371.5
 20
2625.0
 30
0.0
 40
45.0
  1
１
 41
0.84
  7
EXCADSTD
 72
     5
 11
1407.5
 21
2625.0
 31
0.0
100
AcDbText
  0
TEXT
  5
494
100
AcDbEntity
  8
器具明細表
  6
CONTINUOUS
 62
     2
100
AcDbText
 10
1371.5
 20
2560.0
 30
0.0
 40
45.0
  1
１
 41
0.84
  7
EXCADSTD
 72
     5
 11
1407.5
 21
2560.0
 31
0.0
100
AcDbText
  0
LINE
  5
495
100
AcDbEntity
  8
器具明細表
  6
CONTINUOUS
 62
     6
100
AcDbLine
 10
739.0
 20
2810.0
 30
0.0
 11
1439.0
 21
2810.0
 31
0.0
  0
LINE
  5
496
100
AcDbEntity
  8
器具明細表
  6
CONTINUOUS
 62
     6
100
AcDbLine
 10
1439.0
 20
2745.0
 30
0.0
 11
739.0
 21
2745.0
 31
0.0
  0
LINE
  5
497
100
AcDbEntity
  8
器具明細表
  6
CONTINUOUS
 62
     6
100
AcDbLine
 10
739.0
 20
2680.0
 30
0.0
 11
1439.0
 21
2680.0
 31
0.0
  0
LINE
  5
498
100
AcDbEntity
  8
器具明細表
  6
CONTINUOUS
 62
     6
100
AcDbLine
 10
1439.0
 20
2615.0
 30
0.0
 11
739.0
 21
2615.0
 31
0.0
  0
LINE
  5
499
100
AcDbEntity
  8
器具明細表
  6
CONTINUOUS
 62
     6
100
AcDbLine
 10
739.0
 20
2550.0
 30
0.0
 11
1439.0
 21
2550.0
 31
0.0
  0
LINE
  5
49A
100
AcDbEntity
  8
器具明細表
  6
CONTINUOUS
 62
     6
100
AcDbLine
 10
1439.0
 20
2485.0
 30
0.0
 11
739.0
 21
2485.0
 31
0.0
  0
LINE
  5
49B
100
AcDbEntity
  8
器具明細表
  6
CONTINUOUS
 62
     6
100
AcDbLine
 10
739.0
 20
2485.0
 30
0.0
 11
739.0
 21
2810.0
 31
0.0
  0
LINE
  5
49C
100
AcDbEntity
  8
器具明細表
  6
CONTINUOUS
 62
     6
100
AcDbLine
 10
1069.0
 20
2810.0
 30
0.0
 11
1069.0
 21
2485.0
 31
0.0
  0
LINE
  5
49D
100
AcDbEntity
  8
器具明細表
  6
CONTINUOUS
 62
     6
100
AcDbLine
 10
1349.0
 20
2485.0
 30
0.0
 11
1349.0
 21
2810.0
 31
0.0
  0
LINE
  5
49E
100
AcDbEntity
  8
器具明細表
  6
CONTINUOUS
 62
     6
100
AcDbLine
 10
1439.0
 20
2810.0
 30
0.0
 11
1439.0
 21
2485.0
 31
0.0
  0
TEXT
  5
49F
100
AcDbEntity
  8
器具明細表
  6
CONTINUOUS
 62
     2
100
AcDbText
 10
743.0
 20
2622.5
 30
0.0
 40
50.0
  1
ＮＬ１５－ＭＹ
 41
0.6408
  7
EXCADSTD
 72
     5
 11
1009.999999
 21
2622.5
 31
0.0
100
AcDbText
  0
LINE
  5
4A0
100
AcDbEntity
  8
器具明細表
  6
CONTINUOUS
 62
     6
100
AcDbLine
 10
739.0
 20
2355.000305
 30
0.0
 11
1439.0
 21
2355.000305
 31
0.0
  0
LINE
  5
4A1
100
AcDbEntity
  8
器具明細表
  6
CONTINUOUS
 62
     6
100
AcDbLine
 10
739.0
 20
2420.0
 30
0.0
 11
1439.0
 21
2420.0
 31
0.0
  0
TEXT
  5
4A2
100
AcDbEntity
  8
器具明細表
  6
CONTINUOUS
 62
     2
100
AcDbText
 10
1374.0
 20
2362.466125
 30
0.0
 40
47.5
  1
１
 41
0.834695
  7
EXCADSTD
 72
     5
 11
1411.759998
 21
2362.466125
 31
0.0
100
AcDbText
  0
LINE
  5
4A3
100
AcDbEntity
  8
器具明細表
  6
CONTINUOUS
 62
     6
100
AcDbLine
 10
739.0
 20
2420.0
 30
0.0
 11
739.0
 21
2355.000305
 31
0.0
  0
LINE
  5
4A4
100
AcDbEntity
  8
器具明細表
  6
CONTINUOUS
 62
     6
100
AcDbLine
 10
1069.0
 20
2420.0
 30
0.0
 11
1069.0
 21
2355.000305
 31
0.0
  0
LINE
  5
4A5
100
AcDbEntity
  8
器具明細表
  6
CONTINUOUS
 62
     6
100
AcDbLine
 10
1349.0
 20
2420.0
 30
0.0
 11
1349.0
 21
2355.000305
 31
0.0
  0
LINE
  5
4A6
100
AcDbEntity
  8
器具明細表
  6
CONTINUOUS
 62
     6
100
AcDbLine
 10
1439.0
 20
2420.0
 30
0.0
 11
1439.0
 21
2355.000305
 31
0.0
  0
TEXT
  5
4A7
100
AcDbEntity
  8
器具明細表
  6
CONTINUOUS
 62
     2
100
AcDbText
 10
1072.918457
 20
2360.778809
 30
0.0
 40
50.0
  1
Ｓトラップ
 41
0.64848
  7
EXCADSTD
 72
     5
 11
1265.918457
 21
2360.778809
 31
0.0
100
AcDbText
  0
TEXT
  5
4A8
100
AcDbEntity
  8
器具明細表
  6
CONTINUOUS
 62
     2
100
AcDbText
 10
741.983856
 20
2427.480164
 30
0.0
 40
50.0
  1
Ｓトラップの場合
 41
0.693
  7
EXCADSTD
 72
     5
 11
1071.983856
 21
2427.480164
 31
0.0
100
AcDbText
  0
TEXT
  5
4A9
100
AcDbEntity
  8
器具明細表
  6
CONTINUOUS
 62
     2
100
AcDbText
 10
741.983856
 20
2362.479553
 30
0.0
 40
50.0
  1
ＮＬ３ＤＳ
 41
0.7056
  7
EXCADSTD
 72
     5
 11
951.983856
 21
2362.479553
 31
0.0
100
AcDbText
  0
ENDSEC
  0
SECTION
  2
OBJECTS
  0
DICTIONARY
  5
19
100
AcDbDictionary
  3
ACAD_GROUP
350
1A
  3
ACAD_MLINESTYLE
350
1B
  0
DICTIONARY
  5
1A
102
{ACAD_REACTORS
330
19
102
}
100
AcDbDictionary
  0
DICTIONARY
  5
1B
102
{ACAD_REACTORS
330
19
102
}
100
AcDbDictionary
  3
STANDARD
350
1C
  0
MLINESTYLE
  5
1C
102
{ACAD_REACTORS
330
1B
102
}
100
AcDbMlineStyle
  2
Standard
 70
     0
  3

 62
     0
 51
90.0
 52
90.0
 71
     2
 49
0.5
 62
   256
  6
ByLayer
 49
-0.5
 62
   256
  6
ByLayer
  0
ENDSEC
  0
EOF
