  0
SECTION
  2
HEADER
  9
$ACADVER
  1
AC1014
  9
$ACADMAINTVER
 70
     0
  9
$DWGCODEPAGE
  3
ANSI_932
  9
$INSBASE
 10
0.0
 20
0.0
 30
0.0
  9
$EXTMIN
 10
-2.1
 20
11.5
 30
0.0
  9
$EXTMAX
 10
199.9
 20
291.5
 30
0.0
  9
$LIMMIN
 10
0.0
 20
0.0
  9
$LIMMAX
 10
210.0
 20
297.0
  9
$ORTHOMODE
 70
     0
  9
$REGENMODE
 70
     1
  9
$FILLMODE
 70
     1
  9
$QTEXTMODE
 70
     0
  9
$MIRRTEXT
 70
     1
  9
$DRAGMODE
 70
     2
  9
$LTSCALE
 40
1.0
  9
$OSMODE
 70
     0
  9
$ATTMODE
 70
     1
  9
$TEXTSIZE
 40
0.2
  9
$TRACEWID
 40
0.05
  9
$TEXTSTYLE
  7
STANDARD
  9
$CLAYER
  8
トラップ
  9
$CELTYPE
  6
CONTINUOUS
  9
$CECOLOR
 62
   256
  9
$CELTSCALE
 40
1.0
  9
$DELOBJ
 70
     1
  9
$DISPSILH
 70
     0
  9
$DIMSCALE
 40
1.0
  9
$DIMASZ
 40
0.18
  9
$DIMEXO
 40
0.0625
  9
$DIMDLI
 40
0.38
  9
$DIMRND
 40
0.0
  9
$DIMDLE
 40
0.0
  9
$DIMEXE
 40
0.18
  9
$DIMTP
 40
0.0
  9
$DIMTM
 40
0.0
  9
$DIMTXT
 40
0.18
  9
$DIMCEN
 40
0.09
  9
$DIMTSZ
 40
0.0
  9
$DIMTOL
 70
     0
  9
$DIMLIM
 70
     0
  9
$DIMTIH
 70
     1
  9
$DIMTOH
 70
     1
  9
$DIMSE1
 70
     0
  9
$DIMSE2
 70
     0
  9
$DIMTAD
 70
     0
  9
$DIMZIN
 70
     0
  9
$DIMBLK
  1

  9
$DIMASO
 70
     1
  9
$DIMSHO
 70
     1
  9
$DIMPOST
  1

  9
$DIMAPOST
  1

  9
$DIMALT
 70
     0
  9
$DIMALTD
 70
     2
  9
$DIMALTF
 40
25.4
  9
$DIMLFAC
 40
1.0
  9
$DIMTOFL
 70
     0
  9
$DIMTVP
 40
0.0
  9
$DIMTIX
 70
     0
  9
$DIMSOXD
 70
     0
  9
$DIMSAH
 70
     0
  9
$DIMBLK1
  1

  9
$DIMBLK2
  1

  9
$DIMSTYLE
  2
STANDARD
  9
$DIMCLRD
 70
     0
  9
$DIMCLRE
 70
     0
  9
$DIMCLRT
 70
     0
  9
$DIMTFAC
 40
1.0
  9
$DIMGAP
 40
0.09
  9
$DIMJUST
 70
     0
  9
$DIMSD1
 70
     0
  9
$DIMSD2
 70
     0
  9
$DIMTOLJ
 70
     1
  9
$DIMTZIN
 70
     0
  9
$DIMALTZ
 70
     0
  9
$DIMALTTZ
 70
     0
  9
$DIMFIT
 70
     3
  9
$DIMUPT
 70
     0
  9
$DIMUNIT
 70
     2
  9
$DIMDEC
 70
     4
  9
$DIMTDEC
 70
     4
  9
$DIMALTU
 70
     2
  9
$DIMALTTD
 70
     2
  9
$DIMTXSTY
  7
STANDARD
  9
$DIMAUNIT
 70
     0
  9
$LUNITS
 70
     2
  9
$LUPREC
 70
     4
  9
$SKETCHINC
 40
0.1
  9
$FILLETRAD
 40
0.0
  9
$AUNITS
 70
     0
  9
$AUPREC
 70
     0
  9
$MENU
  1
acad
  9
$ELEVATION
 40
0.0
  9
$PELEVATION
 40
0.0
  9
$THICKNESS
 40
0.0
  9
$LIMCHECK
 70
     0
  9
$BLIPMODE
 70
     1
  9
$CHAMFERA
 40
0.0
  9
$CHAMFERB
 40
0.0
  9
$CHAMFERC
 40
0.0
  9
$CHAMFERD
 40
0.0
  9
$SKPOLY
 70
     0
  9
$TDCREATE
 40
2454719.931806644
  9
$TDUPDATE
 40
2454719.931806644
  9
$TDINDWG
 40
0.0000000000
  9
$TDUSRTIMER
 40
0.0000000000
  9
$USRTIMER
 70
     1
  9
$ANGBASE
 50
0.0
  9
$ANGDIR
 70
     0
  9
$PDMODE
 70
     0
  9
$PDSIZE
 40
0.0
  9
$PLINEWID
 40
0.0
  9
$COORDS
 70
     1
  9
$SPLFRAME
 70
     0
  9
$SPLINETYPE
 70
     6
  9
$SPLINESEGS
 70
     8
  9
$ATTDIA
 70
     0
  9
$ATTREQ
 70
     1
  9
$HANDLING
 70
     1
  9
$HANDSEED
  5
7C8
  9
$SURFTAB1
 70
     6
  9
$SURFTAB2
 70
     6
  9
$SURFTYPE
 70
     6
  9
$SURFU
 70
     6
  9
$SURFV
 70
     6
  9
$UCSNAME
  2

  9
$UCSORG
 10
0.0
 20
0.0
 30
0.0
  9
$UCSXDIR
 10
1.0
 20
0.0
 30
0.0
  9
$UCSYDIR
 10
0.0
 20
1.0
 30
0.0
  9
$PUCSNAME
  2

  9
$PUCSORG
 10
0.0
 20
0.0
 30
0.0
  9
$PUCSXDIR
 10
1.0
 20
0.0
 30
0.0
  9
$PUCSYDIR
 10
0.0
 20
1.0
 30
0.0
  9
$USERI1
 70
     0
  9
$USERI2
 70
     0
  9
$USERI3
 70
     0
  9
$USERI4
 70
     0
  9
$USERI5
 70
     0
  9
$USERR1
 40
0.0
  9
$USERR2
 40
0.0
  9
$USERR3
 40
0.0
  9
$USERR4
 40
0.0
  9
$USERR5
 40
0.0
  9
$WORLDVIEW
 70
     1
  9
$SHADEDGE
 70
     3
  9
$SHADEDIF
 70
    70
  9
$TILEMODE
 70
     1
  9
$MAXACTVP
 70
    16
  9
$PINSBASE
 10
0.0
 20
0.0
 30
0.0
  9
$PLIMCHECK
 70
     0
  9
$PEXTMIN
 10
1.000000E+20
 20
1.000000E+20
 30
1.000000E+20
  9
$PEXTMAX
 10
-1.000000E+20
 20
-1.000000E+20
 30
-1.000000E+20
  9
$PLIMMIN
 10
0.0
 20
0.0
  9
$PLIMMAX
 10
12.0
 20
9.0
  9
$UNITMODE
 70
     0
  9
$VISRETAIN
 70
     0
  9
$PLINEGEN
 70
     1
  9
$PSLTSCALE
 70
     0
  9
$TREEDEPTH
 70
  3020
  9
$PICKSTYLE
 70
     1
  9
$CMLSTYLE
  2
Standard
  9
$CMLJUST
 70
     0
  9
$CMLSCALE
 40
1.0
  9
$PROXYGRAPHICS
 70
     0
  9
$MEASUREMENT
 70
     0
  0
ENDSEC
  0
SECTION
  2
CLASSES
  0
CLASS
  1
LWPOLYLINE
  2
AcDbPolyline
  3
"AutoCAD"
 90
        0
280
     0
281
     1
  0
CLASS
  1
IMAGE
  2
AcDbRasterImage
  3
ISM
 90
      127
280
     0
281
     1
  0
CLASS
  1
OLE2FRAME
  2
AcDbOle2Frame
  3
""
 90
        0
280
     0
281
     1
  0
CLASS
  1
HATCH
  2
AcDbHatch
  3
"ACAD_SEDONA"
 90
        0
280
     0
281
     1
  0
CLASS
  1
DICTIONARYVAR
  2
AcDbDictionaryVar
  3
"AutoCAD"
 90
        0
280
     0
281
     0
  0
CLASS
  1
RASTERVARIABLES
  2
AcDbRasterVariables
  3
ISM
 90
        0
280
     0
281
     0
  0
CLASS
  1
IMAGEDEF
  2
AcDbRasterImageDef
  3
ISM
 90
        0
280
     0
281
     0
  0
CLASS
  1
IMAGEDEF_REACTOR
  2
AcDbRasterImageDefReactor
  3
ISM
 90
        1
280
     0
281
     0
  0
CLASS
  1
IDBUFFER
  2
AcDbIdBuffer
  3
"Acad"
 90
        0
280
     0
281
     0
  0
CLASS
  1
SPATIAL_FILTER
  2
AcDbSpatialFilter
  3
"Acad"
 90
        0
280
     0
281
     0
  0
CLASS
  1
XRECORD
  2
AcDbXrecord
  3
"<Built In>"
 90
        0
280
     0
281
     0
  0
CLASS
  1
SORTENTSTABLE
  2
AcDbSortentsTable
  3
"AutoCAD"
 90
        0
280
     0
281
     0
  0
CLASS
  1
LAYER_INDEX
  2
AcDbLayerIndex
  3
"Acad"
 90
        0
280
     0
281
     0
  0
CLASS
  1
SPATIAL_INDEX
  2
AcDbSpatialIndex
  3
"Acad"
 90
        0
280
     0
281
     0
  0
CLASS
  1
OBJECT_PTR
  2
CAseDLPNTableRecord
  3
"ASE-LPNTableRecord"
 90
        1
280
     0
281
     0
  0
CLASS
  1
LAYOUT
  2
AcDbLayout
  3
"AutoCAD 2000"
 90
        1
280
     0
281
     0
  0
CLASS
  1
PLOTSETTINGS
  2
AcDbPlotSettings
  3
"AutoCAD 2000"
 90
        1
280
     0
281
     0
  0
CLASS
  1
ACDBDICTIONARYWDFLT
  2
AcDbDictionaryWithDefault
  3
"AutoCAD 2000"
 90
        1
280
     0
281
     0
  0
CLASS
  1
ACDBPLACEHOLDER
  2
AcDbPlaceHolder
  3
"AutoCAD 2000"
 90
        1
280
     0
281
     0
  0
CLASS
  1
VBA_PROJECT
  2
AcDbVbaProject
  3
"acadvba"
 90
        1
280
     0
281
     0
  0
CLASS
  1
WIPEOUT
  2
AcDbWipeout
  3
WipeOut|AutoCAD Express Tool|expresstools@autodesk.com
 90
      127
280
     0
281
     1
  0
CLASS
  1
WIPEOUTVARIABLES
  2
AcDbWipeoutVariables
  3
WipeOut|AutoCAD Express Tool|expresstools@autodesk.com
 90
        0
280
     0
281
     0
  0
CLASS
  1
RTEXT
  2
RText
  3
RText|AutoCAD Express Tool|expresstools@autodesk.com
 90
        0
280
     0
281
     1
  0
CLASS
  1
ARCALIGNEDTEXT
  2
AcDbArcAlignedText
  3
ATEXT|AutoCAD Express Tool|expresstools@autodesk.com
 90
        0
280
     0
281
     1
  0
ENDSEC
  0
SECTION
  2
TABLES
  0
TABLE
  2
VPORT
  5
7
100
AcDbSymbolTable
 70
     1
  0
VPORT
  5
15
100
AcDbSymbolTableRecord
100
AcDbViewportTableRecord
  2
*ACTIVE
 70
     0
 10
0.0
 20
0.0
 11
1.0
 21
1.0
 12
98.9
 22
151.5
 13
0.0
 23
0.0
 14
1.0
 24
1.0
 15
0.0
 25
0.0
 16
0.0
 26
0.0
 36
1.0
 17
0.0
 27
0.0
 37
0.0
 40
280.0
 41
1.722533
 42
50.0
 43
0.0
 44
0.0
 50
0.0
 51
0.0
 71
     0
 72
   100
 73
     1
 74
     1
 75
     0
 76
     0
 77
     0
 78
     0
  0
ENDTAB
  0
TABLE
  2
LTYPE
  5
4
100
AcDbSymbolTable
 70
     9
  0
LTYPE
  5
11
100
AcDbSymbolTableRecord
100
AcDbLinetypeTableRecord
  2
BYBLOCK
 70
    64
  3

 72
    65
 73
     0
 40
0.0
  0
LTYPE
  5
12
100
AcDbSymbolTableRecord
100
AcDbLinetypeTableRecord
  2
BYLAYER
 70
    64
  3

 72
    65
 73
     0
 40
0.0
  0
LTYPE
  5
13
100
AcDbSymbolTableRecord
100
AcDbLinetypeTableRecord
  2
CONTINUOUS
 70
    64
  3
実線
 72
    65
 73
     0
 40
0.0
  0
LTYPE
  5
1D
100
AcDbSymbolTableRecord
100
AcDbLinetypeTableRecord
  2
EXLTYPE1
 70
    64
  3
破線
 72
    65
 73
     2
 40
3.0
 49
2.0
 74
     0
 49
-1.0
 74
     0
  0
LTYPE
  5
1E
100
AcDbSymbolTableRecord
100
AcDbLinetypeTableRecord
  2
EXLTYPE2
 70
    64
  3
点線
 72
    65
 73
     2
 40
2.0
 49
1.0
 74
     0
 49
-1.0
 74
     0
  0
LTYPE
  5
1F
100
AcDbSymbolTableRecord
100
AcDbLinetypeTableRecord
  2
EXLTYPE3
 70
    64
  3
一点鎖線
 72
    65
 73
     4
 40
10.0
 49
7.0
 74
     0
 49
-1.0
 74
     0
 49
1.0
 74
     0
 49
-1.0
 74
     0
  0
LTYPE
  5
20
100
AcDbSymbolTableRecord
100
AcDbLinetypeTableRecord
  2
EXLTYPE4
 70
    64
  3
二点鎖線
 72
    65
 73
     6
 40
12.0
 49
7.0
 74
     0
 49
-1.0
 74
     0
 49
1.0
 74
     0
 49
-1.0
 74
     0
 49
1.0
 74
     0
 49
-1.0
 74
     0
  0
LTYPE
  5
21
100
AcDbSymbolTableRecord
100
AcDbLinetypeTableRecord
  2
EXLTYPE5
 70
    64
  3
三点鎖線
 72
    65
 73
     8
 40
37.0
 49
30.0
 74
     0
 49
-1.0
 74
     0
 49
1.0
 74
     0
 49
-1.0
 74
     0
 49
1.0
 74
     0
 49
-1.0
 74
     0
 49
1.0
 74
     0
 49
-1.0
 74
     0
  0
LTYPE
  5
22
100
AcDbSymbolTableRecord
100
AcDbLinetypeTableRecord
  2
EXLTYPE6
 70
    64
  3
四点鎖線
 72
    65
 73
    10
 40
39.0
 49
30.0
 74
     0
 49
-1.0
 74
     0
 49
1.0
 74
     0
 49
-1.0
 74
     0
 49
1.0
 74
     0
 49
-1.0
 74
     0
 49
1.0
 74
     0
 49
-1.0
 74
     0
 49
1.0
 74
     0
 49
-1.0
 74
     0
  0
ENDTAB
  0
TABLE
  2
LAYER
  5
2
100
AcDbSymbolTable
 70
     8
  0
LAYER
  5
14
100
AcDbSymbolTableRecord
100
AcDbLayerTableRecord
  2
0
 70
     0
 62
     7
  6
CONTINUOUS
  0
LAYER
  5
25
100
AcDbSymbolTableRecord
100
AcDbLayerTableRecord
  2
枠_
 70
    64
 62
     7
  6
CONTINUOUS
  0
LAYER
  5
26
100
AcDbSymbolTableRecord
100
AcDbLayerTableRecord
  2
洗面器
 70
    64
 62
     7
  6
CONTINUOUS
  0
LAYER
  5
27
100
AcDbSymbolTableRecord
100
AcDbLayerTableRecord
  2
水栓
 70
    64
 62
     7
  6
CONTINUOUS
  0
LAYER
  5
28
100
AcDbSymbolTableRecord
100
AcDbLayerTableRecord
  2
止水栓
 70
    64
 62
     7
  6
CONTINUOUS
  0
LAYER
  5
29
100
AcDbSymbolTableRecord
100
AcDbLayerTableRecord
  2
トラップ
 70
    64
 62
     7
  6
CONTINUOUS
  0
LAYER
  5
2A
100
AcDbSymbolTableRecord
100
AcDbLayerTableRecord
  2
寸法
 70
    64
 62
     7
  6
CONTINUOUS
  0
LAYER
  5
2B
100
AcDbSymbolTableRecord
100
AcDbLayerTableRecord
  2
器具明細表
 70
    64
 62
     7
  6
CONTINUOUS
  0
ENDTAB
  0
TABLE
  2
STYLE
  5
3
100
AcDbSymbolTable
 70
     3
  0
STYLE
  5
17
100
AcDbSymbolTableRecord
100
AcDbTextStyleTableRecord
  2
STANDARD
 70
     0
 40
0.0
 41
1.0
 50
0.0
 71
     0
 42
0.0
  3
monotxt
  4
extfont
  0
STYLE
  5
23
100
AcDbSymbolTableRecord
100
AcDbTextStyleTableRecord
  2
EXCADSTD
 70
    64
 40
0.0
 41
1.0
 50
0.0
 71
     0
 42
0.2
  3
monotxt
  4
extfont
  0
STYLE
  5
24
100
AcDbSymbolTableRecord
100
AcDbTextStyleTableRecord
  2
EXCADVERT
 70
    68
 40
0.0
 41
1.0
 50
0.0
 71
     0
 42
0.286885
  3
monotxt
  4
extfont
  0
ENDTAB
  0
TABLE
  2
VIEW
  5
5
100
AcDbSymbolTable
 70
     0
  0
ENDTAB
  0
TABLE
  2
UCS
  5
6
100
AcDbSymbolTable
 70
     0
  0
ENDTAB
  0
TABLE
  2
APPID
  5
8
100
AcDbSymbolTable
 70
     1
  0
APPID
  5
16
100
AcDbSymbolTableRecord
100
AcDbRegAppTableRecord
  2
ACAD
 70
     0
  0
ENDTAB
  0
TABLE
  2
DIMSTYLE
  5
9
100
AcDbSymbolTable
 70
     1
  0
DIMSTYLE
105
18
100
AcDbSymbolTableRecord
100
AcDbDimStyleTableRecord
  2
STANDARD
 70
     0
  3

  4

  5

  6

  7

 40
1.0
 41
0.18
 42
0.0625
 43
0.38
 44
0.18
 45
0.0
 46
0.0
 47
0.0
 48
0.0
 71
     0
 72
     0
 73
     1
 74
     1
 75
     0
 76
     0
 77
     0
 78
     0
140
0.18
141
0.09
142
0.0
143
25.4
144
1.0
145
0.0
146
1.0
147
0.09
170
     0
171
     2
172
     1
173
     0
174
     0
175
     0
176
     0
177
     0
178
     0
270
     2
271
     4
272
     4
273
     2
274
     2
275
     0
280
     0
281
     0
282
     0
283
     1
284
     0
285
     0
286
     0
287
     0
288
     0
340
17
  0
ENDTAB
  0
TABLE
  2
BLOCK_RECORD
  5
1
100
AcDbSymbolTable
 70
    15
  0
BLOCK_RECORD
  5
A
100
AcDbSymbolTableRecord
100
AcDbBlockTableRecord
  2
*MODEL_SPACE
  0
BLOCK_RECORD
  5
B
100
AcDbSymbolTableRecord
100
AcDbBlockTableRecord
  2
*PAPER_SPACE
  0
BLOCK_RECORD
  5
2C
100
AcDbSymbolTableRecord
100
AcDbBlockTableRecord
  2
_EX_NORM
  0
BLOCK_RECORD
  5
2D
100
AcDbSymbolTableRecord
100
AcDbBlockTableRecord
  2
_EX_BNORM
  0
BLOCK_RECORD
  5
2E
100
AcDbSymbolTableRecord
100
AcDbBlockTableRecord
  2
_EX_BCIR
  0
BLOCK_RECORD
  5
2F
100
AcDbSymbolTableRecord
100
AcDbBlockTableRecord
  2
_EX_RCIVIL
  0
BLOCK_RECORD
  5
30
100
AcDbSymbolTableRecord
100
AcDbBlockTableRecord
  2
_EX_SLANT
  0
BLOCK_RECORD
  5
31
100
AcDbSymbolTableRecord
100
AcDbBlockTableRecord
  2
_EX_NONE
  0
BLOCK_RECORD
  5
32
100
AcDbSymbolTableRecord
100
AcDbBlockTableRecord
  2
_EX_CIVIL
  0
BLOCK_RECORD
  5
33
100
AcDbSymbolTableRecord
100
AcDbBlockTableRecord
  2
_EX_WCIR
  0
BLOCK_RECORD
  5
34
100
AcDbSymbolTableRecord
100
AcDbBlockTableRecord
  2
_EX_WCIR2
  0
BLOCK_RECORD
  5
35
100
AcDbSymbolTableRecord
100
AcDbBlockTableRecord
  2
_EX_WNORM
  0
BLOCK_RECORD
  5
36
100
AcDbSymbolTableRecord
100
AcDbBlockTableRecord
  2
_EX_NNORM
  0
BLOCK_RECORD
  5
37
100
AcDbSymbolTableRecord
100
AcDbBlockTableRecord
  2
_EX_BBOX
  0
BLOCK_RECORD
  5
38
100
AcDbSymbolTableRecord
100
AcDbBlockTableRecord
  2
_EX_WBOX
  0
BLOCK_RECORD
  5
39
100
AcDbSymbolTableRecord
100
AcDbBlockTableRecord
  2
_EX_INTEGRAL
  0
BLOCK_RECORD
  5
3A
100
AcDbSymbolTableRecord
100
AcDbBlockTableRecord
  2
NC510LSK
  0
ENDTAB
  0
ENDSEC
  0
SECTION
  2
BLOCKS
  0
BLOCK
  5
D
100
AcDbEntity
  8
0
100
AcDbBlockBegin
  2
*MODEL_SPACE
 70
     0
 10
0.0
 20
0.0
 30
0.0
  3
*MODEL_SPACE
  1

  0
ENDBLK
  5
E
100
AcDbEntity
  8
0
100
AcDbBlockEnd
  0
BLOCK
  5
F
100
AcDbEntity
 67
     1
  8
0
100
AcDbBlockBegin
  2
*PAPER_SPACE
 70
     0
 10
0.0
 20
0.0
 30
0.0
  3
*PAPER_SPACE
  1

  0
ENDBLK
  5
10
100
AcDbEntity
 67
     1
  8
0
100
AcDbBlockEnd
  0
BLOCK
  5
3B
100
AcDbEntity
  8
0
100
AcDbBlockBegin
  2
_EX_NORM
 70
     0
 10
0.0
 20
0.0
 30
0.0
  3
_EX_NORM
  1

  0
LINE
  5
3C
100
AcDbEntity
  8
0
  6
CONTINUOUS
 62
     0
100
AcDbLine
 10
0.0
 20
0.0
 30
0.0
 11
-1.0
 21
0.0
 31
0.0
  0
LINE
  5
3D
100
AcDbEntity
  8
0
  6
CONTINUOUS
 62
     0
100
AcDbLine
 10
0.0
 20
0.0
 30
0.0
 11
-1.0
 21
0.166667
 31
0.0
  0
LINE
  5
3E
100
AcDbEntity
  8
0
  6
CONTINUOUS
 62
     0
100
AcDbLine
 10
0.0
 20
0.0
 30
0.0
 11
-1.0
 21
-0.166667
 31
0.0
  0
ENDBLK
  5
3F
100
AcDbEntity
  8
0
100
AcDbBlockEnd
  0
BLOCK
  5
40
100
AcDbEntity
  8
0
100
AcDbBlockBegin
  2
_EX_BNORM
 70
     0
 10
0.0
 20
0.0
 30
0.0
  3
_EX_BNORM
  1

  0
LINE
  5
41
100
AcDbEntity
  8
0
  6
CONTINUOUS
 62
     0
100
AcDbLine
 10
0.0
 20
0.0
 30
0.0
 11
-1.0
 21
0.0
 31
0.0
  0
LINE
  5
42
100
AcDbEntity
  8
0
  6
CONTINUOUS
 62
     0
100
AcDbLine
 10
0.0
 20
0.0
 30
0.0
 11
-1.0
 21
0.166667
 31
0.0
  0
LINE
  5
43
100
AcDbEntity
  8
0
  6
CONTINUOUS
 62
     0
100
AcDbLine
 10
0.0
 20
0.0
 30
0.0
 11
-1.0
 21
-0.166667
 31
0.0
  0
LINE
  5
44
100
AcDbEntity
  8
0
  6
CONTINUOUS
 62
     0
100
AcDbLine
 10
0.0
 20
0.0
 30
0.0
 11
-1.0
 21
0.083333
 31
0.0
  0
LINE
  5
45
100
AcDbEntity
  8
0
  6
CONTINUOUS
 62
     0
100
AcDbLine
 10
0.0
 20
0.0
 30
0.0
 11
-1.0
 21
-0.083333
 31
0.0
  0
LINE
  5
46
100
AcDbEntity
  8
0
  6
CONTINUOUS
 62
     0
100
AcDbLine
 10
-1.0
 20
0.166667
 30
0.0
 11
-1.0
 21
-0.166667
 31
0.0
  0
ENDBLK
  5
47
100
AcDbEntity
  8
0
100
AcDbBlockEnd
  0
BLOCK
  5
48
100
AcDbEntity
  8
0
100
AcDbBlockBegin
  2
_EX_BCIR
 70
     0
 10
0.0
 20
0.0
 30
0.0
  3
_EX_BCIR
  1

  0
LINE
  5
49
100
AcDbEntity
  8
0
  6
CONTINUOUS
 62
     0
100
AcDbLine
 10
0.0
 20
0.0
 30
0.0
 11
-1.0
 21
0.0
 31
0.0
  0
CIRCLE
  5
4A
100
AcDbEntity
  8
0
  6
CONTINUOUS
 62
     0
100
AcDbCircle
 10
0.0
 20
0.0
 30
0.0
 40
0.5
  0
CIRCLE
  5
4B
100
AcDbEntity
  8
0
  6
CONTINUOUS
 62
     0
100
AcDbCircle
 10
0.0
 20
0.0
 30
0.0
 40
0.25
  0
ENDBLK
  5
4C
100
AcDbEntity
  8
0
100
AcDbBlockEnd
  0
BLOCK
  5
4D
100
AcDbEntity
  8
0
100
AcDbBlockBegin
  2
_EX_RCIVIL
 70
     0
 10
0.0
 20
0.0
 30
0.0
  3
_EX_RCIVIL
  1

  0
LINE
  5
4E
100
AcDbEntity
  8
0
  6
CONTINUOUS
 62
     0
100
AcDbLine
 10
0.0
 20
0.0
 30
0.0
 11
-1.0
 21
0.0
 31
0.0
  0
LINE
  5
4F
100
AcDbEntity
  8
0
  6
CONTINUOUS
 62
     0
100
AcDbLine
 10
-1.0
 20
-0.25
 30
0.0
 11
0.0
 21
-0.25
 31
0.0
  0
LINE
  5
50
100
AcDbEntity
  8
0
  6
CONTINUOUS
 62
     0
100
AcDbLine
 10
-1.0
 20
-0.125
 30
0.0
 11
0.0
 21
-0.125
 31
0.0
  0
ENDBLK
  5
51
100
AcDbEntity
  8
0
100
AcDbBlockEnd
  0
BLOCK
  5
52
100
AcDbEntity
  8
0
100
AcDbBlockBegin
  2
_EX_SLANT
 70
     0
 10
0.0
 20
0.0
 30
0.0
  3
_EX_SLANT
  1

  0
LINE
  5
53
100
AcDbEntity
  8
0
  6
CONTINUOUS
 62
     0
100
AcDbLine
 10
0.0
 20
0.0
 30
0.0
 11
-1.0
 21
0.0
 31
0.0
  0
LINE
  5
54
100
AcDbEntity
  8
0
  6
CONTINUOUS
 62
     0
100
AcDbLine
 10
0.707107
 20
0.707107
 30
0.0
 11
-0.707107
 21
-0.707107
 31
0.0
  0
ENDBLK
  5
55
100
AcDbEntity
  8
0
100
AcDbBlockEnd
  0
BLOCK
  5
56
100
AcDbEntity
  8
0
100
AcDbBlockBegin
  2
_EX_NONE
 70
     0
 10
0.0
 20
0.0
 30
0.0
  3
_EX_NONE
  1

  0
LINE
  5
57
100
AcDbEntity
  8
0
  6
CONTINUOUS
 62
     0
100
AcDbLine
 10
0.0
 20
0.0
 30
0.0
 11
-1.0
 21
0.0
 31
0.0
  0
ENDBLK
  5
58
100
AcDbEntity
  8
0
100
AcDbBlockEnd
  0
BLOCK
  5
59
100
AcDbEntity
  8
0
100
AcDbBlockBegin
  2
_EX_CIVIL
 70
     0
 10
0.0
 20
0.0
 30
0.0
  3
_EX_CIVIL
  1

  0
LINE
  5
5A
100
AcDbEntity
  8
0
  6
CONTINUOUS
 62
     0
100
AcDbLine
 10
0.0
 20
0.0
 30
0.0
 11
-1.0
 21
0.0
 31
0.0
  0
LINE
  5
5B
100
AcDbEntity
  8
0
  6
CONTINUOUS
 62
     0
100
AcDbLine
 10
-1.0
 20
0.25
 30
0.0
 11
0.0
 21
0.25
 31
0.0
  0
LINE
  5
5C
100
AcDbEntity
  8
0
  6
CONTINUOUS
 62
     0
100
AcDbLine
 10
-1.0
 20
0.125
 30
0.0
 11
0.0
 21
0.125
 31
0.0
  0
ENDBLK
  5
5D
100
AcDbEntity
  8
0
100
AcDbBlockEnd
  0
BLOCK
  5
5E
100
AcDbEntity
  8
0
100
AcDbBlockBegin
  2
_EX_WCIR
 70
     0
 10
0.0
 20
0.0
 30
0.0
  3
_EX_WCIR
  1

  0
LINE
  5
5F
100
AcDbEntity
  8
0
  6
CONTINUOUS
 62
     0
100
AcDbLine
 10
0.0
 20
0.0
 30
0.0
 11
-1.0
 21
0.0
 31
0.0
  0
CIRCLE
  5
60
100
AcDbEntity
  8
0
  6
CONTINUOUS
 62
     0
100
AcDbCircle
 10
0.0
 20
0.0
 30
0.0
 40
0.5
  0
ENDBLK
  5
61
100
AcDbEntity
  8
0
100
AcDbBlockEnd
  0
BLOCK
  5
62
100
AcDbEntity
  8
0
100
AcDbBlockBegin
  2
_EX_WCIR2
 70
     0
 10
0.0
 20
0.0
 30
0.0
  3
_EX_WCIR2
  1

  0
LINE
  5
63
100
AcDbEntity
  8
0
  6
CONTINUOUS
 62
     0
100
AcDbLine
 10
-0.5
 20
0.0
 30
0.0
 11
-1.0
 21
0.0
 31
0.0
  0
CIRCLE
  5
64
100
AcDbEntity
  8
0
  6
CONTINUOUS
 62
     0
100
AcDbCircle
 10
0.0
 20
0.0
 30
0.0
 40
0.5
  0
ENDBLK
  5
65
100
AcDbEntity
  8
0
100
AcDbBlockEnd
  0
BLOCK
  5
66
100
AcDbEntity
  8
0
100
AcDbBlockBegin
  2
_EX_WNORM
 70
     0
 10
0.0
 20
0.0
 30
0.0
  3
_EX_WNORM
  1

  0
LINE
  5
67
100
AcDbEntity
  8
0
  6
CONTINUOUS
 62
     0
100
AcDbLine
 10
-1.0
 20
0.0
 30
0.0
 11
-1.0
 21
0.0
 31
0.0
  0
LINE
  5
68
100
AcDbEntity
  8
0
  6
CONTINUOUS
 62
     0
100
AcDbLine
 10
0.0
 20
0.0
 30
0.0
 11
-1.0
 21
0.166667
 31
0.0
  0
LINE
  5
69
100
AcDbEntity
  8
0
  6
CONTINUOUS
 62
     0
100
AcDbLine
 10
0.0
 20
0.0
 30
0.0
 11
-1.0
 21
-0.166667
 31
0.0
  0
LINE
  5
6A
100
AcDbEntity
  8
0
  6
CONTINUOUS
 62
     0
100
AcDbLine
 10
-1.0
 20
0.166667
 30
0.0
 11
-1.0
 21
-0.166667
 31
0.0
  0
ENDBLK
  5
6B
100
AcDbEntity
  8
0
100
AcDbBlockEnd
  0
BLOCK
  5
6C
100
AcDbEntity
  8
0
100
AcDbBlockBegin
  2
_EX_NNORM
 70
     0
 10
0.0
 20
0.0
 30
0.0
  3
_EX_NNORM
  1

  0
LINE
  5
6D
100
AcDbEntity
  8
0
  6
CONTINUOUS
 62
     0
100
AcDbLine
 10
0.0
 20
0.0
 30
0.0
 11
-1.0
 21
0.0
 31
0.0
  0
LINE
  5
6E
100
AcDbEntity
  8
0
  6
CONTINUOUS
 62
     0
100
AcDbLine
 10
0.0
 20
0.0
 30
0.0
 11
-1.0
 21
0.166667
 31
0.0
  0
LINE
  5
6F
100
AcDbEntity
  8
0
  6
CONTINUOUS
 62
     0
100
AcDbLine
 10
0.0
 20
0.0
 30
0.0
 11
-1.0
 21
-0.166667
 31
0.0
  0
LINE
  5
70
100
AcDbEntity
  8
0
  6
CONTINUOUS
 62
     0
100
AcDbLine
 10
-1.0
 20
0.166667
 30
0.0
 11
-1.0
 21
-0.166667
 31
0.0
  0
ENDBLK
  5
71
100
AcDbEntity
  8
0
100
AcDbBlockEnd
  0
BLOCK
  5
72
100
AcDbEntity
  8
0
100
AcDbBlockBegin
  2
_EX_BBOX
 70
     0
 10
0.0
 20
0.0
 30
0.0
  3
_EX_BBOX
  1

  0
LINE
  5
73
100
AcDbEntity
  8
0
  6
CONTINUOUS
 62
     0
100
AcDbLine
 10
0.0
 20
0.0
 30
0.0
 11
-1.0
 21
0.0
 31
0.0
  0
LINE
  5
74
100
AcDbEntity
  8
0
  6
CONTINUOUS
 62
     0
100
AcDbLine
 10
-0.5
 20
0.5
 30
0.0
 11
0.5
 21
0.5
 31
0.0
  0
LINE
  5
75
100
AcDbEntity
  8
0
  6
CONTINUOUS
 62
     0
100
AcDbLine
 10
0.5
 20
0.5
 30
0.0
 11
0.5
 21
-0.5
 31
0.0
  0
LINE
  5
76
100
AcDbEntity
  8
0
  6
CONTINUOUS
 62
     0
100
AcDbLine
 10
0.5
 20
-0.5
 30
0.0
 11
-0.5
 21
-0.5
 31
0.0
  0
LINE
  5
77
100
AcDbEntity
  8
0
  6
CONTINUOUS
 62
     0
100
AcDbLine
 10
-0.5
 20
-0.5
 30
0.0
 11
-0.5
 21
0.5
 31
0.0
  0
LINE
  5
78
100
AcDbEntity
  8
0
  6
CONTINUOUS
 62
     0
100
AcDbLine
 10
-0.25
 20
0.25
 30
0.0
 11
0.25
 21
0.25
 31
0.0
  0
LINE
  5
79
100
AcDbEntity
  8
0
  6
CONTINUOUS
 62
     0
100
AcDbLine
 10
0.25
 20
0.25
 30
0.0
 11
0.25
 21
-0.25
 31
0.0
  0
LINE
  5
7A
100
AcDbEntity
  8
0
  6
CONTINUOUS
 62
     0
100
AcDbLine
 10
0.25
 20
-0.25
 30
0.0
 11
-0.25
 21
-0.25
 31
0.0
  0
LINE
  5
7B
100
AcDbEntity
  8
0
  6
CONTINUOUS
 62
     0
100
AcDbLine
 10
-0.25
 20
-0.25
 30
0.0
 11
-0.25
 21
0.25
 31
0.0
  0
ENDBLK
  5
7C
100
AcDbEntity
  8
0
100
AcDbBlockEnd
  0
BLOCK
  5
7D
100
AcDbEntity
  8
0
100
AcDbBlockBegin
  2
_EX_WBOX
 70
     0
 10
0.0
 20
0.0
 30
0.0
  3
_EX_WBOX
  1

  0
LINE
  5
7E
100
AcDbEntity
  8
0
  6
CONTINUOUS
 62
     0
100
AcDbLine
 10
-0.5
 20
0.0
 30
0.0
 11
-1.0
 21
0.0
 31
0.0
  0
LINE
  5
7F
100
AcDbEntity
  8
0
  6
CONTINUOUS
 62
     0
100
AcDbLine
 10
-0.5
 20
0.5
 30
0.0
 11
0.5
 21
0.5
 31
0.0
  0
LINE
  5
80
100
AcDbEntity
  8
0
  6
CONTINUOUS
 62
     0
100
AcDbLine
 10
0.5
 20
0.5
 30
0.0
 11
0.5
 21
-0.5
 31
0.0
  0
LINE
  5
81
100
AcDbEntity
  8
0
  6
CONTINUOUS
 62
     0
100
AcDbLine
 10
0.5
 20
-0.5
 30
0.0
 11
-0.5
 21
-0.5
 31
0.0
  0
LINE
  5
82
100
AcDbEntity
  8
0
  6
CONTINUOUS
 62
     0
100
AcDbLine
 10
-0.5
 20
-0.5
 30
0.0
 11
-0.5
 21
0.5
 31
0.0
  0
ENDBLK
  5
83
100
AcDbEntity
  8
0
100
AcDbBlockEnd
  0
BLOCK
  5
84
100
AcDbEntity
  8
0
100
AcDbBlockBegin
  2
_EX_INTEGRAL
 70
     0
 10
0.0
 20
0.0
 30
0.0
  3
_EX_INTEGRAL
  1

  0
LINE
  5
85
100
AcDbEntity
  8
0
  6
CONTINUOUS
 62
     0
100
AcDbLine
 10
0.0
 20
0.0
 30
0.0
 11
-1.0
 21
0.0
 31
0.0
  0
ARC
  5
86
100
AcDbEntity
  8
0
  6
CONTINUOUS
 62
     0
100
AcDbCircle
 10
0.542115
 20
0.164992
 30
0.0
 40
0.56667
100
AcDbArc
 50
73.07249
 51
196.927513
  0
ARC
  5
87
100
AcDbEntity
  8
0
  6
CONTINUOUS
 62
     0
100
AcDbCircle
 10
-0.542115
 20
-0.164992
 30
0.0
 40
0.56667
100
AcDbArc
 50
253.072487
 51
16.927513
  0
ENDBLK
  5
88
100
AcDbEntity
  8
0
100
AcDbBlockEnd
  0
BLOCK
  5
89
100
AcDbEntity
  8
0
100
AcDbBlockBegin
  2
NC510LSK
 70
     0
 10
0.0
 20
0.0
 30
0.0
  3
NC510LSK
  1

  0
POINT
  5
8A
100
AcDbEntity
  8
0
  6
CONTINUOUS
 62
     7
100
AcDbPoint
 10
0.0
 20
0.0
 30
0.0
  0
ENDBLK
  5
8B
100
AcDbEntity
  8
0
100
AcDbBlockEnd
  0
ENDSEC
  0
SECTION
  2
ENTITIES
  0
TEXT
  5
8C
100
AcDbEntity
  8
枠_
  6
CONTINUOUS
 62
     2
100
AcDbText
 10
85.775
 20
24.375
 30
0.0
 40
6.25
  1
隅付大形手洗器
 41
0.9072
  7
EXCADSTD
 72
     5
 11
133.025
 21
24.375
 31
0.0
100
AcDbText
  0
TEXT
  5
8D
100
AcDbEntity
  8
枠_
  6
CONTINUOUS
 62
     2
100
AcDbText
 10
145.8
 20
24.375
 30
0.0
 40
6.25
  1
Ｌ８１０
 41
0.82656
  7
EXCADSTD
 72
     5
 11
170.4
 21
24.375
 31
0.0
100
AcDbText
  0
LINE
  5
8E
100
AcDbEntity
  8
枠_
  6
CONTINUOUS
 62
     7
100
AcDbLine
 10
17.9
 20
11.5
 30
0.0
 11
199.9
 21
11.5
 31
0.0
  0
LINE
  5
8F
100
AcDbEntity
  8
枠_
  6
CONTINUOUS
 62
     7
100
AcDbLine
 10
199.9
 20
11.5
 30
0.0
 11
199.9
 21
291.5
 31
0.0
  0
LINE
  5
90
100
AcDbEntity
  8
枠_
  6
CONTINUOUS
 62
     7
100
AcDbLine
 10
17.9
 20
11.5
 30
0.0
 11
17.9
 21
291.5
 31
0.0
  0
LINE
  5
91
100
AcDbEntity
  8
枠_
  6
CONTINUOUS
 62
     7
100
AcDbLine
 10
17.9
 20
291.5
 30
0.0
 11
199.9
 21
291.5
 31
0.0
  0
LINE
  5
92
100
AcDbEntity
  8
枠_
  6
CONTINUOUS
 62
     7
100
AcDbLine
 10
17.9
 20
33.5
 30
0.0
 11
199.9
 21
33.5
 31
0.0
  0
LINE
  5
93
100
AcDbEntity
  8
枠_
  6
CONTINUOUS
 62
     6
100
AcDbLine
 10
199.9
 20
21.5
 30
0.0
 11
74.9
 21
21.5
 31
0.0
  0
LINE
  5
94
100
AcDbEntity
  8
枠_
  6
CONTINUOUS
 62
     6
100
AcDbLine
 10
185.9
 20
33.5
 30
0.0
 11
185.9
 21
21.5
 31
0.0
  0
LINE
  5
95
100
AcDbEntity
  8
枠_
  6
CONTINUOUS
 62
     6
100
AcDbLine
 10
180.9
 20
33.5
 30
0.0
 11
180.9
 21
21.5
 31
0.0
  0
LINE
  5
96
100
AcDbEntity
  8
枠_
  6
CONTINUOUS
 62
     6
100
AcDbLine
 10
143.9
 20
33.5
 30
0.0
 11
143.9
 21
11.5
 31
0.0
  0
LINE
  5
97
100
AcDbEntity
  8
枠_
  6
CONTINUOUS
 62
     6
100
AcDbLine
 10
138.9
 20
33.5
 30
0.0
 11
138.9
 21
11.5
 31
0.0
  0
LINE
  5
98
100
AcDbEntity
  8
枠_
  6
CONTINUOUS
 62
     6
100
AcDbLine
 10
79.9
 20
33.5
 30
0.0
 11
79.9
 21
21.5
 31
0.0
  0
LINE
  5
99
100
AcDbEntity
  8
枠_
  6
CONTINUOUS
 62
     6
100
AcDbLine
 10
74.9
 20
33.5
 30
0.0
 11
74.9
 21
11.5
 31
0.0
  0
LINE
  5
9A
100
AcDbEntity
  8
枠_
  6
CONTINUOUS
 62
     6
100
AcDbLine
 10
61.9
 20
33.5
 30
0.0
 11
61.9
 21
11.5
 31
0.0
  0
LINE
  5
9B
100
AcDbEntity
  8
枠_
  6
CONTINUOUS
 62
     6
100
AcDbLine
 10
48.9
 20
33.5
 30
0.0
 11
48.9
 21
11.5
 31
0.0
  0
LINE
  5
9C
100
AcDbEntity
  8
枠_
  6
CONTINUOUS
 62
     6
100
AcDbLine
 10
33.4
 20
33.5
 30
0.0
 11
33.4
 21
11.5
 31
0.0
  0
LINE
  5
9D
100
AcDbEntity
  8
枠_
  6
CONTINUOUS
 62
     6
100
AcDbLine
 10
17.9
 20
28.5
 30
0.0
 11
74.9
 21
28.5
 31
0.0
  0
LINE
  5
9E
100
AcDbEntity
  8
枠_
  6
CONTINUOUS
 62
     6
100
AcDbLine
 10
189.165381
 20
23.800293
 30
0.0
 11
196.89939
 21
31.669983
 31
0.0
  0
LINE
  5
9F
100
AcDbEntity
  8
枠_
  6
EXLTYPE2
 62
     6
100
AcDbLine
 10
17.9
 20
16.5
 30
0.0
 11
48.9
 21
16.5
 31
0.0
  0
CIRCLE
  5
A0
100
AcDbEntity
  8
枠_
  6
CONTINUOUS
 62
     6
100
AcDbCircle
 10
22.9
 20
14.0
 30
0.0
 40
0.1
  0
CIRCLE
  5
A1
100
AcDbEntity
  8
枠_
  6
CONTINUOUS
 62
     6
100
AcDbCircle
 10
27.9
 20
14.0
 30
0.0
 40
0.1
  0
CIRCLE
  5
A2
100
AcDbEntity
  8
枠_
  6
CONTINUOUS
 62
     6
100
AcDbCircle
 10
38.4
 20
14.0
 30
0.0
 40
0.1
  0
CIRCLE
  5
A3
100
AcDbEntity
  8
枠_
  6
CONTINUOUS
 62
     6
100
AcDbCircle
 10
43.4
 20
14.0
 30
0.0
 40
0.1
  0
LINE
  5
A4
100
AcDbEntity
  8
枠_
  6
EXLTYPE2
 62
     6
100
AcDbLine
 10
17.9
 20
151.5
 30
0.0
 11
-2.1
 21
151.5
 31
0.0
  0
TEXT
  5
A5
100
AcDbEntity
  8
枠_
  6
CONTINUOUS
 62
     2
100
AcDbText
 10
188.953711
 20
28.272278
 30
0.0
 40
3.0
  1
１
 41
0.826
  7
EXCADSTD
 72
     5
 11
191.313711
 21
28.272278
 31
0.0
100
AcDbText
  0
TEXT
  5
A6
100
AcDbEntity
  8
枠_
  6
CONTINUOUS
 62
     2
100
AcDbText
 10
193.02793
 20
23.834885
 30
0.0
 40
3.0
  1
１０
 41
0.791
  7
EXCADSTD
 72
     5
 11
198.20672
 21
23.834885
 31
0.0
100
AcDbText
  0
TEXT
  5
A7
100
AcDbEntity
  8
枠_
  6
CONTINUOUS
 62
     2
100
AcDbText
 10
20.15
 20
28.875
 30
0.0
 40
4.25
  1
製図
 41
1.087059
  7
EXCADSTD
 72
     5
 11
30.2326
 21
28.875
 31
0.0
100
AcDbText
  0
TEXT
  5
A8
100
AcDbEntity
  8
枠_
  6
CONTINUOUS
 62
     2
100
AcDbText
 10
35.65
 20
28.875
 30
0.0
 40
4.25
  1
写図
 41
1.087059
  7
EXCADSTD
 72
     5
 11
45.7326
 21
28.875
 31
0.0
100
AcDbText
  0
TEXT
  5
A9
100
AcDbEntity
  8
枠_
  6
CONTINUOUS
 62
     2
100
AcDbText
 10
50.65
 20
28.875
 30
0.0
 40
4.25
  1
検図
 41
0.938824
  7
EXCADSTD
 72
     5
 11
59.3577
 21
28.875
 31
0.0
100
AcDbText
  0
TEXT
  5
AA
100
AcDbEntity
  8
枠_
  6
CONTINUOUS
 62
     2
100
AcDbText
 10
63.65
 20
28.875
 30
0.0
 40
4.25
  1
承認
 41
0.938824
  7
EXCADSTD
 72
     5
 11
72.3577
 21
28.875
 31
0.0
100
AcDbText
  0
TEXT
  5
AB
100
AcDbEntity
  8
枠_
  6
CONTINUOUS
 62
     2
100
AcDbText
 10
75.275
 20
27.875
 30
0.0
 40
4.25
  1
品
 41
0.84
  7
EXCADSTD
 72
     5
 11
78.675
 21
27.875
 31
0.0
100
AcDbText
  0
TEXT
  5
AC
100
AcDbEntity
  8
枠_
  6
CONTINUOUS
 62
     2
100
AcDbText
 10
75.275
 20
22.875
 30
0.0
 40
4.25
  1
名
 41
0.84
  7
EXCADSTD
 72
     5
 11
78.675
 21
22.875
 31
0.0
100
AcDbText
  0
TEXT
  5
AD
100
AcDbEntity
  8
枠_
  6
CONTINUOUS
 62
     2
100
AcDbText
 10
139.275
 20
27.875
 30
0.0
 40
4.25
  1
品
 41
0.84
  7
EXCADSTD
 72
     5
 11
142.675
 21
27.875
 31
0.0
100
AcDbText
  0
TEXT
  5
AE
100
AcDbEntity
  8
枠_
  6
CONTINUOUS
 62
     2
100
AcDbText
 10
139.275
 20
22.875
 30
0.0
 40
4.25
  1
番
 41
0.84
  7
EXCADSTD
 72
     5
 11
142.675
 21
22.875
 31
0.0
100
AcDbText
  0
TEXT
  5
AF
100
AcDbEntity
  8
枠_
  6
CONTINUOUS
 62
     2
100
AcDbText
 10
181.275
 20
27.875
 30
0.0
 40
4.25
  1
尺
 41
0.84
  7
EXCADSTD
 72
     5
 11
184.675
 21
27.875
 31
0.0
100
AcDbText
  0
TEXT
  5
B0
100
AcDbEntity
  8
枠_
  6
CONTINUOUS
 62
     2
100
AcDbText
 10
181.275
 20
22.875
 30
0.0
 40
4.25
  1
度
 41
0.84
  7
EXCADSTD
 72
     5
 11
184.675
 21
22.875
 31
0.0
100
AcDbText
  0
TEXT
  5
B1
100
AcDbEntity
  8
枠_
  6
CONTINUOUS
 62
     2
100
AcDbText
 10
139.275
 20
16.575
 30
0.0
 40
4.25
  1
図
 41
0.84
  7
EXCADSTD
 72
     5
 11
142.675
 21
16.575
 31
0.0
100
AcDbText
  0
TEXT
  5
B2
100
AcDbEntity
  8
枠_
  6
CONTINUOUS
 62
     2
100
AcDbText
 10
139.275
 20
12.275
 30
0.0
 40
4.25
  1
番
 41
0.84
  7
EXCADSTD
 72
     5
 11
142.675
 21
12.275
 31
0.0
100
AcDbText
  0
LINE
  5
B3
100
AcDbEntity
  8
枠_
  6
CONTINUOUS
 62
     3
100
AcDbLine
 10
82.644775
 20
18.028799
 30
0.0
 11
81.838409
 21
18.028799
 31
0.0
  0
LINE
  5
B4
100
AcDbEntity
  8
枠_
  6
CONTINUOUS
 62
     3
100
AcDbLine
 10
82.644775
 20
18.835196
 30
0.0
 11
82.644775
 21
18.028799
 31
0.0
  0
LINE
  5
B5
100
AcDbEntity
  8
枠_
  6
CONTINUOUS
 62
     3
100
AcDbLine
 10
81.838409
 20
18.835196
 30
0.0
 11
82.644775
 21
18.835196
 31
0.0
  0
LINE
  5
B6
100
AcDbEntity
  8
枠_
  6
CONTINUOUS
 62
     3
100
AcDbLine
 10
81.838409
 20
18.835196
 30
0.0
 11
81.838409
 21
18.028799
 31
0.0
  0
LINE
  5
B7
100
AcDbEntity
  8
枠_
  6
CONTINUOUS
 62
     3
100
AcDbLine
 10
81.535919
 20
18.028799
 30
0.0
 11
80.729553
 21
18.028799
 31
0.0
  0
LINE
  5
B8
100
AcDbEntity
  8
枠_
  6
CONTINUOUS
 62
     3
100
AcDbLine
 10
81.535919
 20
18.835196
 30
0.0
 11
81.535919
 21
18.028799
 31
0.0
  0
LINE
  5
B9
100
AcDbEntity
  8
枠_
  6
CONTINUOUS
 62
     3
100
AcDbLine
 10
80.729553
 20
18.835196
 30
0.0
 11
81.535919
 21
18.835196
 31
0.0
  0
LINE
  5
BA
100
AcDbEntity
  8
枠_
  6
CONTINUOUS
 62
     3
100
AcDbLine
 10
80.729553
 20
18.835196
 30
0.0
 11
80.729553
 21
18.028799
 31
0.0
  0
LINE
  5
BB
100
AcDbEntity
  8
枠_
  6
CONTINUOUS
 62
     3
100
AcDbLine
 10
79.888733
 20
14.4
 30
0.0
 11
77.0
 21
14.4
 31
0.0
  0
ARC
  5
BC
100
AcDbEntity
  8
枠_
  6
CONTINUOUS
 62
     3
100
AcDbCircle
 10
79.888733
 20
16.214407
 30
0.0
 40
1.8144
100
AcDbArc
 50
270.000031
 51
334.000137
  0
LINE
  5
BD
100
AcDbEntity
  8
枠_
  6
CONTINUOUS
 62
     3
100
AcDbLine
 10
82.644775
 20
17.726401
 30
0.0
 11
81.519302
 21
15.419012
 31
0.0
  0
LINE
  5
BE
100
AcDbEntity
  8
枠_
  6
CONTINUOUS
 62
     3
100
AcDbLine
 10
81.411224
 20
17.726401
 30
0.0
 11
82.644775
 21
17.726401
 31
0.0
  0
LINE
  5
BF
100
AcDbEntity
  8
枠_
  6
CONTINUOUS
 62
     3
100
AcDbLine
 10
80.501297
 20
15.860907
 30
0.0
 11
81.411224
 21
17.726401
 31
0.0
  0
ARC
  5
C0
100
AcDbEntity
  8
枠_
  6
CONTINUOUS
 62
     3
100
AcDbCircle
 10
79.77655
 20
16.214407
 30
0.0
 40
0.8064
100
AcDbArc
 50
270.000031
 51
333.99855
  0
LINE
  5
C1
100
AcDbEntity
  8
枠_
  6
CONTINUOUS
 62
     3
100
AcDbLine
 10
77.0
 20
15.407996
 30
0.0
 11
79.77655
 21
15.407996
 31
0.0
  0
LINE
  5
C2
100
AcDbEntity
  8
枠_
  6
CONTINUOUS
 62
     3
100
AcDbLine
 10
77.0
 20
15.407996
 30
0.0
 11
77.0
 21
14.4
 31
0.0
  0
LINE
  5
C3
100
AcDbEntity
  8
枠_
  6
CONTINUOUS
 62
     3
100
AcDbLine
 10
79.822495
 20
16.71839
 30
0.0
 11
77.0
 21
16.71839
 31
0.0
  0
LINE
  5
C4
100
AcDbEntity
  8
枠_
  6
CONTINUOUS
 62
     3
100
AcDbLine
 10
79.822495
 20
17.625601
 30
0.0
 11
79.822495
 21
16.71839
 31
0.0
  0
LINE
  5
C5
100
AcDbEntity
  8
枠_
  6
CONTINUOUS
 62
     3
100
AcDbLine
 10
77.0
 20
17.625601
 30
0.0
 11
79.822495
 21
17.625601
 31
0.0
  0
LINE
  5
C6
100
AcDbEntity
  8
枠_
  6
CONTINUOUS
 62
     3
100
AcDbLine
 10
77.0
 20
17.625601
 30
0.0
 11
77.0
 21
16.71839
 31
0.0
  0
LINE
  5
C7
100
AcDbEntity
  8
枠_
  6
CONTINUOUS
 62
     3
100
AcDbLine
 10
79.822495
 20
17.928
 30
0.0
 11
77.0
 21
17.928
 31
0.0
  0
LINE
  5
C8
100
AcDbEntity
  8
枠_
  6
CONTINUOUS
 62
     3
100
AcDbLine
 10
79.822495
 20
18.835196
 30
0.0
 11
79.822495
 21
17.928
 31
0.0
  0
LINE
  5
C9
100
AcDbEntity
  8
枠_
  6
CONTINUOUS
 62
     3
100
AcDbLine
 10
77.0
 20
18.835196
 30
0.0
 11
79.822495
 21
18.835196
 31
0.0
  0
LINE
  5
CA
100
AcDbEntity
  8
枠_
  6
CONTINUOUS
 62
     3
100
AcDbLine
 10
77.0
 20
18.835196
 30
0.0
 11
77.0
 21
17.928
 31
0.0
  0
LINE
  5
CB
100
AcDbEntity
  8
枠_
  6
CONTINUOUS
 62
     3
100
AcDbLine
 10
82.947266
 20
17.726401
 30
0.0
 11
82.947266
 21
17.020789
 31
0.0
  0
LINE
  5
CC
100
AcDbEntity
  8
枠_
  6
CONTINUOUS
 62
     3
100
AcDbLine
 10
82.947266
 20
17.726401
 30
0.0
 11
83.865402
 21
17.726401
 31
0.0
  0
LINE
  5
CD
100
AcDbEntity
  8
枠_
  6
CONTINUOUS
 62
     3
100
AcDbLine
 10
83.753632
 20
18.431998
 30
0.0
 11
83.865402
 21
17.726401
 31
0.0
  0
LINE
  5
CE
100
AcDbEntity
  8
枠_
  6
CONTINUOUS
 62
     3
100
AcDbLine
 10
83.753632
 20
18.431998
 30
0.0
 11
84.876236
 21
18.431998
 31
0.0
  0
LINE
  5
CF
100
AcDbEntity
  8
枠_
  6
CONTINUOUS
 62
     3
100
AcDbLine
 10
84.876236
 20
18.431998
 30
0.0
 11
84.987991
 21
17.726401
 31
0.0
  0
LINE
  5
D0
100
AcDbEntity
  8
枠_
  6
CONTINUOUS
 62
     3
100
AcDbLine
 10
84.987991
 20
17.726401
 30
0.0
 11
87.785675
 21
17.726401
 31
0.0
  0
LINE
  5
D1
100
AcDbEntity
  8
枠_
  6
CONTINUOUS
 62
     3
100
AcDbLine
 10
87.785675
 20
17.726401
 30
0.0
 11
87.197311
 21
16.405051
 31
0.0
  0
ARC
  5
D2
100
AcDbEntity
  8
枠_
  6
CONTINUOUS
 62
     3
100
AcDbCircle
 10
85.816101
 20
17.020041
 30
0.0
 40
1.512011
100
AcDbArc
 50
263.465775
 51
335.998779
  0
LINE
  5
D3
100
AcDbEntity
  8
枠_
  6
CONTINUOUS
 62
     3
100
AcDbLine
 10
85.643845
 20
15.517859
 30
0.0
 11
85.533707
 21
16.214407
 31
0.0
  0
ARC
  5
D4
100
AcDbEntity
  8
枠_
  6
CONTINUOUS
 62
     3
100
AcDbCircle
 10
85.505814
 20
16.819205
 30
0.0
 40
0.604801
100
AcDbArc
 50
272.623749
 51
336.006531
  0
LINE
  5
D5
100
AcDbEntity
  8
枠_
  6
CONTINUOUS
 62
     3
100
AcDbLine
 10
86.058502
 20
16.573203
 30
0.0
 11
86.257629
 21
17.020789
 31
0.0
  0
LINE
  5
D6
100
AcDbEntity
  8
枠_
  6
CONTINUOUS
 62
     3
100
AcDbLine
 10
86.257629
 20
17.020789
 30
0.0
 11
85.099762
 21
17.020789
 31
0.0
  0
LINE
  5
D7
100
AcDbEntity
  8
枠_
  6
CONTINUOUS
 62
     3
100
AcDbLine
 10
85.099762
 20
17.020789
 30
0.0
 11
85.514847
 21
14.4
 31
0.0
  0
LINE
  5
D8
100
AcDbEntity
  8
枠_
  6
CONTINUOUS
 62
     3
100
AcDbLine
 10
85.514847
 20
14.4
 30
0.0
 11
84.392242
 21
14.4
 31
0.0
  0
LINE
  5
D9
100
AcDbEntity
  8
枠_
  6
CONTINUOUS
 62
     2
100
AcDbLine
 10
84.392242
 20
14.4
 30
0.0
 11
83.977173
 21
17.020789
 31
0.0
  0
LINE
  5
DA
100
AcDbEntity
  8
枠_
  6
CONTINUOUS
 62
     2
100
AcDbLine
 10
83.977173
 20
17.020789
 30
0.0
 11
82.947266
 21
17.020789
 31
0.0
  0
LINE
  5
DB
100
AcDbEntity
  8
枠_
  6
CONTINUOUS
 62
     3
100
AcDbLine
 10
87.684769
 20
14.4
 30
0.0
 11
87.684769
 21
15.407996
 31
0.0
  0
LINE
  5
DC
100
AcDbEntity
  8
枠_
  6
CONTINUOUS
 62
     3
100
AcDbLine
 10
87.684769
 20
15.407996
 30
0.0
 11
93.329544
 21
15.407996
 31
0.0
  0
LINE
  5
DD
100
AcDbEntity
  8
枠_
  6
CONTINUOUS
 62
     3
100
AcDbLine
 10
93.329544
 20
15.407996
 30
0.0
 11
93.329544
 21
14.4
 31
0.0
  0
LINE
  5
DE
100
AcDbEntity
  8
枠_
  6
CONTINUOUS
 62
     3
100
AcDbLine
 10
93.329544
 20
14.4
 30
0.0
 11
87.684769
 21
14.4
 31
0.0
  0
LINE
  5
DF
100
AcDbEntity
  8
枠_
  6
CONTINUOUS
 62
     3
100
AcDbLine
 10
88.087952
 20
18.835196
 30
0.0
 11
88.087952
 21
17.8272
 31
0.0
  0
LINE
  5
E0
100
AcDbEntity
  8
枠_
  6
CONTINUOUS
 62
     3
100
AcDbLine
 10
88.087952
 20
18.835196
 30
0.0
 11
92.926361
 21
18.835196
 31
0.0
  0
LINE
  5
E1
100
AcDbEntity
  8
枠_
  6
CONTINUOUS
 62
     3
100
AcDbLine
 10
92.926361
 20
18.835196
 30
0.0
 11
92.926361
 21
17.8272
 31
0.0
  0
LINE
  5
E2
100
AcDbEntity
  8
枠_
  6
CONTINUOUS
 62
     3
100
AcDbLine
 10
92.926361
 20
17.8272
 30
0.0
 11
88.087952
 21
17.8272
 31
0.0
  0
LINE
  5
E3
100
AcDbEntity
  8
枠_
  6
CONTINUOUS
 62
     3
100
AcDbLine
 10
94.035217
 20
18.835196
 30
0.0
 11
94.035217
 21
17.8272
 31
0.0
  0
LINE
  5
E4
100
AcDbEntity
  8
枠_
  6
CONTINUOUS
 62
     3
100
AcDbLine
 10
94.035217
 20
18.835196
 30
0.0
 11
99.27681
 21
18.835196
 31
0.0
  0
LINE
  5
E5
100
AcDbEntity
  8
枠_
  6
CONTINUOUS
 62
     3
100
AcDbLine
 10
99.27681
 20
18.835196
 30
0.0
 11
97.705093
 21
16.671896
 31
0.0
  0
LINE
  5
E6
100
AcDbEntity
  8
枠_
  6
CONTINUOUS
 62
     3
100
AcDbLine
 10
97.705093
 20
16.671896
 30
0.0
 11
99.679993
 21
14.4
 31
0.0
  0
LINE
  5
E7
100
AcDbEntity
  8
枠_
  6
CONTINUOUS
 62
     3
100
AcDbLine
 10
99.679993
 20
14.4
 30
0.0
 11
98.210815
 21
14.4
 31
0.0
  0
LINE
  5
E8
100
AcDbEntity
  8
枠_
  6
CONTINUOUS
 62
     3
100
AcDbLine
 10
98.210815
 20
14.4
 30
0.0
 11
97.036133
 21
15.751273
 31
0.0
  0
LINE
  5
E9
100
AcDbEntity
  8
枠_
  6
CONTINUOUS
 62
     3
100
AcDbLine
 10
97.036133
 20
15.751273
 30
0.0
 11
96.597885
 21
15.147925
 31
0.0
  0
ARC
  5
EA
100
AcDbEntity
  8
枠_
  6
CONTINUOUS
 62
     3
100
AcDbCircle
 10
95.129929
 20
16.214407
 30
0.0
 40
1.8144
100
AcDbArc
 50
270.000031
 51
324.00116
  0
LINE
  5
EB
100
AcDbEntity
  8
枠_
  6
CONTINUOUS
 62
     3
100
AcDbLine
 10
95.129929
 20
14.4
 30
0.0
 11
93.632034
 21
14.4
 31
0.0
  0
LINE
  5
EC
100
AcDbEntity
  8
枠_
  6
CONTINUOUS
 62
     3
100
AcDbLine
 10
93.632034
 20
14.4
 30
0.0
 11
93.632034
 21
15.407996
 31
0.0
  0
LINE
  5
ED
100
AcDbEntity
  8
枠_
  6
CONTINUOUS
 62
     3
100
AcDbLine
 10
93.632034
 20
15.407996
 30
0.0
 11
94.90271
 21
15.407996
 31
0.0
  0
ARC
  5
EE
100
AcDbEntity
  8
枠_
  6
CONTINUOUS
 62
     3
100
AcDbCircle
 10
94.90271
 20
16.415991
 30
0.0
 40
1.007999
100
AcDbArc
 50
270.000031
 51
323.996597
  0
LINE
  5
EF
100
AcDbEntity
  8
枠_
  6
CONTINUOUS
 62
     3
100
AcDbLine
 10
95.718094
 20
15.823508
 30
0.0
 11
97.17395
 21
17.8272
 31
0.0
  0
LINE
  5
F0
100
AcDbEntity
  8
枠_
  6
CONTINUOUS
 62
     3
100
AcDbLine
 10
97.17395
 20
17.8272
 30
0.0
 11
94.035217
 21
17.8272
 31
0.0
  0
LINE
  5
F1
100
AcDbEntity
  8
枠_
  6
CONTINUOUS
 62
     3
100
AcDbLine
 10
100.889557
 20
18.835196
 30
0.0
 11
100.889557
 21
18.129599
 31
0.0
  0
LINE
  5
F2
100
AcDbEntity
  8
枠_
  6
CONTINUOUS
 62
     3
100
AcDbLine
 10
100.889557
 20
18.835196
 30
0.0
 11
106.131134
 21
18.835196
 31
0.0
  0
LINE
  5
F3
100
AcDbEntity
  8
枠_
  6
CONTINUOUS
 62
     3
100
AcDbLine
 10
106.131134
 20
18.835196
 30
0.0
 11
106.131134
 21
18.129599
 31
0.0
  0
LINE
  5
F4
100
AcDbEntity
  8
枠_
  6
CONTINUOUS
 62
     3
100
AcDbLine
 10
106.131134
 20
18.129599
 30
0.0
 11
104.064774
 21
18.129599
 31
0.0
  0
LINE
  5
F5
100
AcDbEntity
  8
枠_
  6
CONTINUOUS
 62
     3
100
AcDbLine
 10
104.064774
 20
18.129599
 30
0.0
 11
104.064774
 21
15.206412
 31
0.0
  0
LINE
  5
F6
100
AcDbEntity
  8
枠_
  6
CONTINUOUS
 62
     3
100
AcDbLine
 10
104.064774
 20
15.206412
 30
0.0
 11
106.332733
 21
15.206412
 31
0.0
  0
LINE
  5
F7
100
AcDbEntity
  8
枠_
  6
CONTINUOUS
 62
     3
100
AcDbLine
 10
106.332733
 20
15.206412
 30
0.0
 11
106.332733
 21
14.4
 31
0.0
  0
LINE
  5
F8
100
AcDbEntity
  8
枠_
  6
CONTINUOUS
 62
     3
100
AcDbLine
 10
106.332733
 20
14.4
 30
0.0
 11
100.687958
 21
14.4
 31
0.0
  0
LINE
  5
F9
100
AcDbEntity
  8
枠_
  6
CONTINUOUS
 62
     3
100
AcDbLine
 10
100.687958
 20
14.4
 30
0.0
 11
100.687958
 21
15.206412
 31
0.0
  0
LINE
  5
FA
100
AcDbEntity
  8
枠_
  6
CONTINUOUS
 62
     3
100
AcDbLine
 10
100.687958
 20
15.206412
 30
0.0
 11
102.955917
 21
15.206412
 31
0.0
  0
LINE
  5
FB
100
AcDbEntity
  8
枠_
  6
CONTINUOUS
 62
     3
100
AcDbLine
 10
102.955917
 20
15.206412
 30
0.0
 11
102.955917
 21
18.129599
 31
0.0
  0
LINE
  5
FC
100
AcDbEntity
  8
枠_
  6
CONTINUOUS
 62
     3
100
AcDbLine
 10
102.955917
 20
18.129599
 30
0.0
 11
100.889557
 21
18.129599
 31
0.0
  0
LINE
  5
FD
100
AcDbEntity
  8
枠_
  6
CONTINUOUS
 62
     3
100
AcDbLine
 10
106.433624
 20
18.230399
 30
0.0
 11
106.433624
 21
17.766714
 31
0.0
  0
LINE
  5
FE
100
AcDbEntity
  8
枠_
  6
CONTINUOUS
 62
     3
100
AcDbLine
 10
106.433624
 20
18.230399
 30
0.0
 11
107.309311
 21
18.230399
 31
0.0
  0
LINE
  5
FF
100
AcDbEntity
  8
枠_
  6
CONTINUOUS
 62
     3
100
AcDbLine
 10
107.309311
 20
18.230399
 30
0.0
 11
106.836823
 21
18.835196
 31
0.0
  0
LINE
  5
100
100
AcDbEntity
  8
枠_
  6
CONTINUOUS
 62
     3
100
AcDbLine
 10
106.836823
 20
18.835196
 30
0.0
 11
107.732193
 21
18.835196
 31
0.0
  0
LINE
  5
101
100
AcDbEntity
  8
枠_
  6
CONTINUOUS
 62
     3
100
AcDbLine
 10
107.732193
 20
18.835196
 30
0.0
 11
108.204681
 21
18.230399
 31
0.0
  0
LINE
  5
102
100
AcDbEntity
  8
枠_
  6
CONTINUOUS
 62
     3
100
AcDbLine
 10
108.204681
 20
18.230399
 30
0.0
 11
108.399307
 21
18.230399
 31
0.0
  0
LINE
  5
103
100
AcDbEntity
  8
枠_
  6
CONTINUOUS
 62
     3
100
AcDbLine
 10
108.399307
 20
18.230399
 30
0.0
 11
108.399307
 21
18.835196
 31
0.0
  0
LINE
  5
104
100
AcDbEntity
  8
枠_
  6
CONTINUOUS
 62
     3
100
AcDbLine
 10
108.399307
 20
18.835196
 30
0.0
 11
109.104767
 21
18.835196
 31
0.0
  0
LINE
  5
105
100
AcDbEntity
  8
枠_
  6
CONTINUOUS
 62
     3
100
AcDbLine
 10
109.104767
 20
18.835196
 30
0.0
 11
109.104767
 21
18.230399
 31
0.0
  0
LINE
  5
106
100
AcDbEntity
  8
枠_
  6
CONTINUOUS
 62
     3
100
AcDbLine
 10
109.104767
 20
18.230399
 30
0.0
 11
109.407257
 21
18.230399
 31
0.0
  0
LINE
  5
107
100
AcDbEntity
  8
枠_
  6
CONTINUOUS
 62
     3
100
AcDbLine
 10
109.407257
 20
18.230399
 30
0.0
 11
109.407257
 21
18.835196
 31
0.0
  0
LINE
  5
108
100
AcDbEntity
  8
枠_
  6
CONTINUOUS
 62
     3
100
AcDbLine
 10
109.407257
 20
18.835196
 30
0.0
 11
110.112732
 21
18.835196
 31
0.0
  0
LINE
  5
109
100
AcDbEntity
  8
枠_
  6
CONTINUOUS
 62
     3
100
AcDbLine
 10
110.112732
 20
18.835196
 30
0.0
 11
110.112732
 21
18.230399
 31
0.0
  0
LINE
  5
10A
100
AcDbEntity
  8
枠_
  6
CONTINUOUS
 62
     3
100
AcDbLine
 10
110.112732
 20
18.230399
 30
0.0
 11
110.307358
 21
18.230399
 31
0.0
  0
LINE
  5
10B
100
AcDbEntity
  8
枠_
  6
CONTINUOUS
 62
     3
100
AcDbLine
 10
110.307358
 20
18.230399
 30
0.0
 11
110.779846
 21
18.835196
 31
0.0
  0
LINE
  5
10C
100
AcDbEntity
  8
枠_
  6
CONTINUOUS
 62
     3
100
AcDbLine
 10
110.779846
 20
18.835196
 30
0.0
 11
111.675217
 21
18.835196
 31
0.0
  0
LINE
  5
10D
100
AcDbEntity
  8
枠_
  6
CONTINUOUS
 62
     3
100
AcDbLine
 10
111.675217
 20
18.835196
 30
0.0
 11
111.202728
 21
18.230399
 31
0.0
  0
LINE
  5
10E
100
AcDbEntity
  8
枠_
  6
CONTINUOUS
 62
     3
100
AcDbLine
 10
111.202728
 20
18.230399
 30
0.0
 11
112.0784
 21
18.230399
 31
0.0
  0
LINE
  5
10F
100
AcDbEntity
  8
枠_
  6
CONTINUOUS
 62
     3
100
AcDbLine
 10
112.0784
 20
18.230399
 30
0.0
 11
112.0784
 21
17.766714
 31
0.0
  0
LINE
  5
110
100
AcDbEntity
  8
枠_
  6
CONTINUOUS
 62
     3
100
AcDbLine
 10
112.0784
 20
17.766714
 30
0.0
 11
111.016098
 21
17.766714
 31
0.0
  0
LINE
  5
111
100
AcDbEntity
  8
枠_
  6
CONTINUOUS
 62
     3
100
AcDbLine
 10
111.016098
 20
17.766714
 30
0.0
 11
110.832764
 21
17.262732
 31
0.0
  0
LINE
  5
112
100
AcDbEntity
  8
枠_
  6
CONTINUOUS
 62
     3
100
AcDbLine
 10
110.832764
 20
17.262732
 30
0.0
 11
112.0784
 21
17.262732
 31
0.0
  0
LINE
  5
113
100
AcDbEntity
  8
枠_
  6
CONTINUOUS
 62
     3
100
AcDbLine
 10
112.0784
 20
17.262732
 30
0.0
 11
112.0784
 21
16.799048
 31
0.0
  0
LINE
  5
114
100
AcDbEntity
  8
枠_
  6
CONTINUOUS
 62
     3
100
AcDbLine
 10
112.0784
 20
16.799048
 30
0.0
 11
109.759995
 21
16.799048
 31
0.0
  0
LINE
  5
115
100
AcDbEntity
  8
枠_
  6
CONTINUOUS
 62
     3
100
AcDbLine
 10
109.759995
 20
16.799048
 30
0.0
 11
109.759995
 21
16.567206
 31
0.0
  0
LINE
  5
116
100
AcDbEntity
  8
枠_
  6
CONTINUOUS
 62
     3
100
AcDbLine
 10
109.759995
 20
16.567206
 30
0.0
 11
112.0784
 21
16.567206
 31
0.0
  0
LINE
  5
117
100
AcDbEntity
  8
枠_
  6
CONTINUOUS
 62
     3
100
AcDbLine
 10
112.0784
 20
16.567206
 30
0.0
 11
112.0784
 21
16.103522
 31
0.0
  0
LINE
  5
118
100
AcDbEntity
  8
枠_
  6
CONTINUOUS
 62
     3
100
AcDbLine
 10
112.0784
 20
16.103522
 30
0.0
 11
109.759995
 21
16.103522
 31
0.0
  0
LINE
  5
119
100
AcDbEntity
  8
枠_
  6
CONTINUOUS
 62
     3
100
AcDbLine
 10
109.759995
 20
16.103522
 30
0.0
 11
109.759995
 21
15.87168
 31
0.0
  0
LINE
  5
11A
100
AcDbEntity
  8
枠_
  6
CONTINUOUS
 62
     3
100
AcDbLine
 10
109.759995
 20
15.87168
 30
0.0
 11
112.0784
 21
15.87168
 31
0.0
  0
LINE
  5
11B
100
AcDbEntity
  8
枠_
  6
CONTINUOUS
 62
     3
100
AcDbLine
 10
112.0784
 20
15.87168
 30
0.0
 11
112.0784
 21
15.407996
 31
0.0
  0
LINE
  5
11C
100
AcDbEntity
  8
枠_
  6
CONTINUOUS
 62
     3
100
AcDbLine
 10
112.0784
 20
15.407996
 30
0.0
 11
110.962784
 21
15.407996
 31
0.0
  0
LINE
  5
11D
100
AcDbEntity
  8
枠_
  6
CONTINUOUS
 62
     3
100
AcDbLine
 10
110.962784
 20
15.407996
 30
0.0
 11
112.0784
 21
14.4
 31
0.0
  0
LINE
  5
11E
100
AcDbEntity
  8
枠_
  6
CONTINUOUS
 62
     3
100
AcDbLine
 10
112.0784
 20
14.4
 30
0.0
 11
110.875626
 21
14.4
 31
0.0
  0
LINE
  5
11F
100
AcDbEntity
  8
枠_
  6
CONTINUOUS
 62
     3
100
AcDbLine
 10
110.875626
 20
14.4
 30
0.0
 11
109.759995
 21
15.407996
 31
0.0
  0
LINE
  5
120
100
AcDbEntity
  8
枠_
  6
CONTINUOUS
 62
     3
100
AcDbLine
 10
109.759995
 20
15.407996
 30
0.0
 11
109.759995
 21
14.4
 31
0.0
  0
LINE
  5
121
100
AcDbEntity
  8
枠_
  6
CONTINUOUS
 62
     3
100
AcDbLine
 10
109.759995
 20
14.4
 30
0.0
 11
108.752045
 21
14.4
 31
0.0
  0
LINE
  5
122
100
AcDbEntity
  8
枠_
  6
CONTINUOUS
 62
     3
100
AcDbLine
 10
108.752045
 20
14.4
 30
0.0
 11
108.752045
 21
15.407996
 31
0.0
  0
LINE
  5
123
100
AcDbEntity
  8
枠_
  6
CONTINUOUS
 62
     3
100
AcDbLine
 10
108.752045
 20
15.407996
 30
0.0
 11
107.636414
 21
14.4
 31
0.0
  0
LINE
  5
124
100
AcDbEntity
  8
枠_
  6
CONTINUOUS
 62
     3
100
AcDbLine
 10
107.636414
 20
14.4
 30
0.0
 11
106.433624
 21
14.4
 31
0.0
  0
LINE
  5
125
100
AcDbEntity
  8
枠_
  6
CONTINUOUS
 62
     3
100
AcDbLine
 10
106.433624
 20
14.4
 30
0.0
 11
107.549255
 21
15.407996
 31
0.0
  0
LINE
  5
126
100
AcDbEntity
  8
枠_
  6
CONTINUOUS
 62
     3
100
AcDbLine
 10
107.549255
 20
15.407996
 30
0.0
 11
106.433624
 21
15.407996
 31
0.0
  0
LINE
  5
127
100
AcDbEntity
  8
枠_
  6
CONTINUOUS
 62
     3
100
AcDbLine
 10
106.433624
 20
15.407996
 30
0.0
 11
106.433624
 21
15.87168
 31
0.0
  0
LINE
  5
128
100
AcDbEntity
  8
枠_
  6
CONTINUOUS
 62
     3
100
AcDbLine
 10
106.433624
 20
15.87168
 30
0.0
 11
108.752045
 21
15.87168
 31
0.0
  0
LINE
  5
129
100
AcDbEntity
  8
枠_
  6
CONTINUOUS
 62
     3
100
AcDbLine
 10
108.752045
 20
15.87168
 30
0.0
 11
108.752045
 21
16.103522
 31
0.0
  0
LINE
  5
12A
100
AcDbEntity
  8
枠_
  6
CONTINUOUS
 62
     3
100
AcDbLine
 10
108.752045
 20
16.103522
 30
0.0
 11
106.433624
 21
16.103522
 31
0.0
  0
LINE
  5
12B
100
AcDbEntity
  8
枠_
  6
CONTINUOUS
 62
     3
100
AcDbLine
 10
106.433624
 20
16.103522
 30
0.0
 11
106.433624
 21
16.567206
 31
0.0
  0
LINE
  5
12C
100
AcDbEntity
  8
枠_
  6
CONTINUOUS
 62
     3
100
AcDbLine
 10
106.433624
 20
16.567206
 30
0.0
 11
108.752045
 21
16.567206
 31
0.0
  0
LINE
  5
12D
100
AcDbEntity
  8
枠_
  6
CONTINUOUS
 62
     3
100
AcDbLine
 10
108.752045
 20
16.567206
 30
0.0
 11
108.752045
 21
16.799048
 31
0.0
  0
LINE
  5
12E
100
AcDbEntity
  8
枠_
  6
CONTINUOUS
 62
     3
100
AcDbLine
 10
108.752045
 20
16.799048
 30
0.0
 11
106.433624
 21
16.799048
 31
0.0
  0
LINE
  5
12F
100
AcDbEntity
  8
枠_
  6
CONTINUOUS
 62
     3
100
AcDbLine
 10
106.433624
 20
16.799048
 30
0.0
 11
106.433624
 21
17.262732
 31
0.0
  0
LINE
  5
130
100
AcDbEntity
  8
枠_
  6
CONTINUOUS
 62
     3
100
AcDbLine
 10
106.433624
 20
17.262732
 30
0.0
 11
107.679276
 21
17.262732
 31
0.0
  0
LINE
  5
131
100
AcDbEntity
  8
枠_
  6
CONTINUOUS
 62
     3
100
AcDbLine
 10
107.679276
 20
17.262732
 30
0.0
 11
107.495941
 21
17.766714
 31
0.0
  0
LINE
  5
132
100
AcDbEntity
  8
枠_
  6
CONTINUOUS
 62
     3
100
AcDbLine
 10
107.495941
 20
17.766714
 30
0.0
 11
106.433624
 21
17.766714
 31
0.0
  0
LINE
  5
133
100
AcDbEntity
  8
枠_
  6
CONTINUOUS
 62
     3
100
AcDbLine
 10
108.568497
 20
17.766714
 30
0.0
 11
109.943542
 21
17.766714
 31
0.0
  0
LINE
  5
134
100
AcDbEntity
  8
枠_
  6
CONTINUOUS
 62
     3
100
AcDbLine
 10
109.943542
 20
17.766714
 30
0.0
 11
109.759995
 21
17.262732
 31
0.0
  0
LINE
  5
135
100
AcDbEntity
  8
枠_
  6
CONTINUOUS
 62
     3
100
AcDbLine
 10
109.759995
 20
17.262732
 30
0.0
 11
108.752045
 21
17.262732
 31
0.0
  0
LINE
  5
136
100
AcDbEntity
  8
枠_
  6
CONTINUOUS
 62
     3
100
AcDbLine
 10
108.752045
 20
17.262732
 30
0.0
 11
108.568497
 21
17.766714
 31
0.0
  0
LINE
  5
137
100
AcDbEntity
  8
枠_
  6
CONTINUOUS
 62
     3
100
AcDbLine
 10
114.825638
 20
18.835196
 30
0.0
 11
114.498947
 21
17.524802
 31
0.0
  0
LINE
  5
138
100
AcDbEntity
  8
枠_
  6
CONTINUOUS
 62
     3
100
AcDbLine
 10
114.825638
 20
18.835196
 30
0.0
 11
115.656815
 21
18.835196
 31
0.0
  0
LINE
  5
139
100
AcDbEntity
  8
枠_
  6
CONTINUOUS
 62
     3
100
AcDbLine
 10
115.656815
 20
18.835196
 30
0.0
 11
115.531097
 21
18.331198
 31
0.0
  0
LINE
  5
13A
100
AcDbEntity
  8
枠_
  6
CONTINUOUS
 62
     3
100
AcDbLine
 10
115.531097
 20
18.331198
 30
0.0
 11
115.858414
 21
18.331198
 31
0.0
  0
LINE
  5
13B
100
AcDbEntity
  8
枠_
  6
CONTINUOUS
 62
     3
100
AcDbLine
 10
115.858414
 20
18.331198
 30
0.0
 11
115.858414
 21
18.835196
 31
0.0
  0
LINE
  5
13C
100
AcDbEntity
  8
枠_
  6
CONTINUOUS
 62
     3
100
AcDbLine
 10
115.858414
 20
18.835196
 30
0.0
 11
116.765671
 21
18.835196
 31
0.0
  0
LINE
  5
13D
100
AcDbEntity
  8
枠_
  6
CONTINUOUS
 62
     3
100
AcDbLine
 10
116.765671
 20
18.835196
 30
0.0
 11
116.765671
 21
18.331198
 31
0.0
  0
LINE
  5
13E
100
AcDbEntity
  8
枠_
  6
CONTINUOUS
 62
     3
100
AcDbLine
 10
116.765671
 20
18.331198
 30
0.0
 11
117.924774
 21
18.331198
 31
0.0
  0
LINE
  5
13F
100
AcDbEntity
  8
枠_
  6
CONTINUOUS
 62
     3
100
AcDbLine
 10
117.924774
 20
18.331198
 30
0.0
 11
117.924774
 21
17.8272
 31
0.0
  0
LINE
  5
140
100
AcDbEntity
  8
枠_
  6
CONTINUOUS
 62
     3
100
AcDbLine
 10
116.765671
 20
17.8272
 30
0.0
 11
117.924774
 21
17.8272
 31
0.0
  0
LINE
  5
141
100
AcDbEntity
  8
枠_
  6
CONTINUOUS
 62
     3
100
AcDbLine
 10
116.765671
 20
17.8272
 30
0.0
 11
116.765671
 21
17.323203
 31
0.0
  0
LINE
  5
142
100
AcDbEntity
  8
枠_
  6
CONTINUOUS
 62
     3
100
AcDbLine
 10
116.765671
 20
17.323203
 30
0.0
 11
118.025665
 21
17.323203
 31
0.0
  0
LINE
  5
143
100
AcDbEntity
  8
枠_
  6
CONTINUOUS
 62
     3
100
AcDbLine
 10
118.025665
 20
17.323203
 30
0.0
 11
118.025665
 21
16.819205
 31
0.0
  0
LINE
  5
144
100
AcDbEntity
  8
枠_
  6
CONTINUOUS
 62
     3
100
AcDbLine
 10
118.025665
 20
16.819205
 30
0.0
 11
117.585159
 21
16.819205
 31
0.0
  0
LINE
  5
145
100
AcDbEntity
  8
枠_
  6
CONTINUOUS
 62
     3
100
AcDbLine
 10
117.585159
 20
16.819205
 30
0.0
 11
118.025665
 21
14.4
 31
0.0
  0
LINE
  5
146
100
AcDbEntity
  8
枠_
  6
CONTINUOUS
 62
     3
100
AcDbLine
 10
118.025665
 20
14.4
 30
0.0
 11
117.205978
 21
14.4
 31
0.0
  0
LINE
  5
147
100
AcDbEntity
  8
枠_
  6
CONTINUOUS
 62
     3
100
AcDbLine
 10
117.205978
 20
14.4
 30
0.0
 11
116.765671
 21
16.819174
 31
0.0
  0
LINE
  5
148
100
AcDbEntity
  8
枠_
  6
CONTINUOUS
 62
     3
100
AcDbLine
 10
116.765671
 20
16.819174
 30
0.0
 11
116.765671
 21
14.4
 31
0.0
  0
LINE
  5
149
100
AcDbEntity
  8
枠_
  6
CONTINUOUS
 62
     3
100
AcDbLine
 10
116.765671
 20
14.4
 30
0.0
 11
115.858414
 21
14.4
 31
0.0
  0
LINE
  5
14A
100
AcDbEntity
  8
枠_
  6
CONTINUOUS
 62
     3
100
AcDbLine
 10
115.858414
 20
14.4
 30
0.0
 11
115.858414
 21
16.819205
 31
0.0
  0
LINE
  5
14B
100
AcDbEntity
  8
枠_
  6
CONTINUOUS
 62
     3
100
AcDbLine
 10
115.858414
 20
16.819205
 30
0.0
 11
115.418106
 21
14.4
 31
0.0
  0
LINE
  5
14C
100
AcDbEntity
  8
枠_
  6
CONTINUOUS
 62
     3
100
AcDbLine
 10
115.418106
 20
14.4
 30
0.0
 11
114.598404
 21
14.4
 31
0.0
  0
LINE
  5
14D
100
AcDbEntity
  8
枠_
  6
CONTINUOUS
 62
     3
100
AcDbLine
 10
114.598404
 20
14.4
 30
0.0
 11
115.038712
 21
16.819205
 31
0.0
  0
LINE
  5
14E
100
AcDbEntity
  8
枠_
  6
CONTINUOUS
 62
     3
100
AcDbLine
 10
115.038712
 20
16.819205
 30
0.0
 11
114.598404
 21
16.819205
 31
0.0
  0
LINE
  5
14F
100
AcDbEntity
  8
枠_
  6
CONTINUOUS
 62
     3
100
AcDbLine
 10
114.598404
 20
16.819205
 30
0.0
 11
114.598404
 21
17.323203
 31
0.0
  0
LINE
  5
150
100
AcDbEntity
  8
枠_
  6
CONTINUOUS
 62
     3
100
AcDbLine
 10
114.598404
 20
17.323203
 30
0.0
 11
115.858414
 21
17.323203
 31
0.0
  0
LINE
  5
151
100
AcDbEntity
  8
枠_
  6
CONTINUOUS
 62
     3
100
AcDbLine
 10
115.858414
 20
17.323203
 30
0.0
 11
115.858414
 21
17.8272
 31
0.0
  0
LINE
  5
152
100
AcDbEntity
  8
枠_
  6
CONTINUOUS
 62
     3
100
AcDbLine
 10
115.858414
 20
17.8272
 30
0.0
 11
115.405396
 21
17.8272
 31
0.0
  0
LINE
  5
153
100
AcDbEntity
  8
枠_
  6
CONTINUOUS
 62
     3
100
AcDbLine
 10
115.405396
 20
17.8272
 30
0.0
 11
115.330124
 21
17.524802
 31
0.0
  0
LINE
  5
154
100
AcDbEntity
  8
枠_
  6
CONTINUOUS
 62
     3
100
AcDbLine
 10
115.330124
 20
17.524802
 30
0.0
 11
114.498947
 21
17.524802
 31
0.0
  0
LINE
  5
155
100
AcDbEntity
  8
枠_
  6
CONTINUOUS
 62
     3
100
AcDbLine
 10
112.279999
 20
18.331198
 30
0.0
 11
112.279999
 21
17.8272
 31
0.0
  0
LINE
  5
156
100
AcDbEntity
  8
枠_
  6
CONTINUOUS
 62
     3
100
AcDbLine
 10
112.279999
 20
18.331198
 30
0.0
 11
113.287964
 21
18.331198
 31
0.0
  0
LINE
  5
157
100
AcDbEntity
  8
枠_
  6
CONTINUOUS
 62
     3
100
AcDbLine
 10
113.287964
 20
18.331198
 30
0.0
 11
113.287964
 21
18.835196
 31
0.0
  0
LINE
  5
158
100
AcDbEntity
  8
枠_
  6
CONTINUOUS
 62
     3
100
AcDbLine
 10
113.287964
 20
18.835196
 30
0.0
 11
114.195221
 21
18.835196
 31
0.0
  0
LINE
  5
159
100
AcDbEntity
  8
枠_
  6
CONTINUOUS
 62
     3
100
AcDbLine
 10
114.195221
 20
18.835196
 30
0.0
 11
114.195221
 21
18.331198
 31
0.0
  0
LINE
  5
15A
100
AcDbEntity
  8
枠_
  6
CONTINUOUS
 62
     3
100
AcDbLine
 10
114.195221
 20
18.331198
 30
0.0
 11
114.497513
 21
18.331198
 31
0.0
  0
LINE
  5
15B
100
AcDbEntity
  8
枠_
  6
CONTINUOUS
 62
     3
100
AcDbLine
 10
114.497513
 20
18.331198
 30
0.0
 11
114.497513
 21
17.8272
 31
0.0
  0
LINE
  5
15C
100
AcDbEntity
  8
枠_
  6
CONTINUOUS
 62
     3
100
AcDbLine
 10
114.497513
 20
17.8272
 30
0.0
 11
114.195221
 21
17.8272
 31
0.0
  0
LINE
  5
15D
100
AcDbEntity
  8
枠_
  6
CONTINUOUS
 62
     3
100
AcDbLine
 10
114.195221
 20
17.8272
 30
0.0
 11
114.497513
 21
17.411002
 31
0.0
  0
LINE
  5
15E
100
AcDbEntity
  8
枠_
  6
CONTINUOUS
 62
     3
100
AcDbLine
 10
114.497513
 20
17.411002
 30
0.0
 11
114.497513
 21
16.382071
 31
0.0
  0
LINE
  5
15F
100
AcDbEntity
  8
枠_
  6
CONTINUOUS
 62
     3
100
AcDbLine
 10
114.497513
 20
16.382071
 30
0.0
 11
114.195221
 21
16.798285
 31
0.0
  0
LINE
  5
160
100
AcDbEntity
  8
枠_
  6
CONTINUOUS
 62
     3
100
AcDbLine
 10
114.195221
 20
16.798285
 30
0.0
 11
114.195221
 21
14.4
 31
0.0
  0
LINE
  5
161
100
AcDbEntity
  8
枠_
  6
CONTINUOUS
 62
     3
100
AcDbLine
 10
114.195221
 20
14.4
 30
0.0
 11
113.287964
 21
14.4
 31
0.0
  0
LINE
  5
162
100
AcDbEntity
  8
枠_
  6
CONTINUOUS
 62
     3
100
AcDbLine
 10
113.287964
 20
14.4
 30
0.0
 11
113.287964
 21
17.8272
 31
0.0
  0
LINE
  5
163
100
AcDbEntity
  8
枠_
  6
CONTINUOUS
 62
     3
100
AcDbLine
 10
113.248383
 20
17.8272
 30
0.0
 11
112.888062
 21
14.4
 31
0.0
  0
LINE
  5
164
100
AcDbEntity
  8
枠_
  6
CONTINUOUS
 62
     3
100
AcDbLine
 10
112.888062
 20
14.4
 30
0.0
 11
112.279999
 21
14.4
 31
0.0
  0
LINE
  5
165
100
AcDbEntity
  8
枠_
  6
CONTINUOUS
 62
     3
100
AcDbLine
 10
112.279999
 20
14.4
 30
0.0
 11
112.64032
 21
17.8272
 31
0.0
  0
LINE
  5
166
100
AcDbEntity
  8
枠_
  6
CONTINUOUS
 62
     3
100
AcDbLine
 10
112.64032
 20
17.8272
 30
0.0
 11
112.279999
 21
17.8272
 31
0.0
  0
LINE
  5
167
100
AcDbEntity
  8
枠_
  6
CONTINUOUS
 62
     3
100
AcDbLine
 10
118.529556
 20
17.222403
 30
0.0
 11
118.529556
 21
16.617606
 31
0.0
  0
LINE
  5
168
100
AcDbEntity
  8
枠_
  6
CONTINUOUS
 62
     3
100
AcDbLine
 10
118.529556
 20
17.222403
 30
0.0
 11
121.553635
 21
17.222403
 31
0.0
  0
LINE
  5
169
100
AcDbEntity
  8
枠_
  6
CONTINUOUS
 62
     3
100
AcDbLine
 10
121.553635
 20
17.222403
 30
0.0
 11
121.553635
 21
16.617606
 31
0.0
  0
LINE
  5
16A
100
AcDbEntity
  8
枠_
  6
CONTINUOUS
 62
     3
100
AcDbLine
 10
121.553635
 20
16.617606
 30
0.0
 11
120.595917
 21
16.617606
 31
0.0
  0
LINE
  5
16B
100
AcDbEntity
  8
枠_
  6
CONTINUOUS
 62
     3
100
AcDbLine
 10
120.595917
 20
16.617606
 30
0.0
 11
120.595917
 21
15.777411
 31
0.0
  0
LINE
  5
16C
100
AcDbEntity
  8
枠_
  6
CONTINUOUS
 62
     3
100
AcDbLine
 10
120.595917
 20
15.777411
 30
0.0
 11
121.60408
 21
15.99166
 31
0.0
  0
LINE
  5
16D
100
AcDbEntity
  8
枠_
  6
CONTINUOUS
 62
     3
100
AcDbLine
 10
121.60408
 20
15.99166
 30
0.0
 11
121.60408
 21
15.0642
 31
0.0
  0
LINE
  5
16E
100
AcDbEntity
  8
枠_
  6
CONTINUOUS
 62
     3
100
AcDbLine
 10
121.60408
 20
15.0642
 30
0.0
 11
118.479095
 21
14.4
 31
0.0
  0
LINE
  5
16F
100
AcDbEntity
  8
枠_
  6
CONTINUOUS
 62
     3
100
AcDbLine
 10
118.479095
 20
14.4
 30
0.0
 11
118.479095
 21
15.32746
 31
0.0
  0
LINE
  5
170
100
AcDbEntity
  8
枠_
  6
CONTINUOUS
 62
     3
100
AcDbLine
 10
118.479095
 20
15.32746
 30
0.0
 11
119.487259
 21
15.541724
 31
0.0
  0
LINE
  5
171
100
AcDbEntity
  8
枠_
  6
CONTINUOUS
 62
     3
100
AcDbLine
 10
119.487259
 20
15.541724
 30
0.0
 11
119.487259
 21
16.617606
 31
0.0
  0
LINE
  5
172
100
AcDbEntity
  8
枠_
  6
CONTINUOUS
 62
     3
100
AcDbLine
 10
119.487259
 20
16.617606
 30
0.0
 11
118.529556
 21
16.617606
 31
0.0
  0
LINE
  5
173
100
AcDbEntity
  8
枠_
  6
CONTINUOUS
 62
     3
100
AcDbLine
 10
118.227264
 20
18.431998
 30
0.0
 11
118.227264
 21
17.8272
 31
0.0
  0
LINE
  5
174
100
AcDbEntity
  8
枠_
  6
CONTINUOUS
 62
     3
100
AcDbLine
 10
118.227264
 20
18.431998
 30
0.0
 11
121.224487
 21
18.431998
 31
0.0
  0
LINE
  5
175
100
AcDbEntity
  8
枠_
  6
CONTINUOUS
 62
     3
100
AcDbLine
 10
121.224487
 20
18.431998
 30
0.0
 11
121.07785
 21
18.835196
 31
0.0
  0
LINE
  5
176
100
AcDbEntity
  8
枠_
  6
CONTINUOUS
 62
     3
100
AcDbLine
 10
121.07785
 20
18.835196
 30
0.0
 11
122.25766
 21
18.835196
 31
0.0
  0
LINE
  5
177
100
AcDbEntity
  8
枠_
  6
CONTINUOUS
 62
     3
100
AcDbLine
 10
122.25766
 20
18.835196
 30
0.0
 11
122.404495
 21
18.431998
 31
0.0
  0
LINE
  5
178
100
AcDbEntity
  8
枠_
  6
CONTINUOUS
 62
     3
100
AcDbLine
 10
122.404495
 20
18.431998
 30
0.0
 11
122.662491
 21
18.431998
 31
0.0
  0
LINE
  5
179
100
AcDbEntity
  8
枠_
  6
CONTINUOUS
 62
     3
100
AcDbLine
 10
122.662491
 20
18.431998
 30
0.0
 11
122.662491
 21
18.835196
 31
0.0
  0
LINE
  5
17A
100
AcDbEntity
  8
枠_
  6
CONTINUOUS
 62
     3
100
AcDbLine
 10
122.662491
 20
18.835196
 30
0.0
 11
123.56955
 21
18.835196
 31
0.0
  0
LINE
  5
17B
100
AcDbEntity
  8
枠_
  6
CONTINUOUS
 62
     3
100
AcDbLine
 10
123.56955
 20
18.835196
 30
0.0
 11
123.56955
 21
18.431998
 31
0.0
  0
LINE
  5
17C
100
AcDbEntity
  8
枠_
  6
CONTINUOUS
 62
     3
100
AcDbLine
 10
123.56955
 20
18.431998
 30
0.0
 11
123.87204
 21
18.431998
 31
0.0
  0
LINE
  5
17D
100
AcDbEntity
  8
枠_
  6
CONTINUOUS
 62
     3
100
AcDbLine
 10
123.87204
 20
18.431998
 30
0.0
 11
123.87204
 21
17.8272
 31
0.0
  0
LINE
  5
17E
100
AcDbEntity
  8
枠_
  6
CONTINUOUS
 62
     3
100
AcDbLine
 10
123.87204
 20
17.8272
 30
0.0
 11
122.624542
 21
17.8272
 31
0.0
  0
LINE
  5
17F
100
AcDbEntity
  8
枠_
  6
CONTINUOUS
 62
     3
100
AcDbLine
 10
122.624542
 20
17.8272
 30
0.0
 11
123.87204
 21
14.4
 31
0.0
  0
LINE
  5
180
100
AcDbEntity
  8
枠_
  6
CONTINUOUS
 62
     3
100
AcDbLine
 10
123.87204
 20
14.4
 30
0.0
 11
122.692017
 21
14.4
 31
0.0
  0
LINE
  5
181
100
AcDbEntity
  8
枠_
  6
CONTINUOUS
 62
     3
100
AcDbLine
 10
122.692017
 20
14.4
 30
0.0
 11
121.444733
 21
17.8272
 31
0.0
  0
LINE
  5
182
100
AcDbEntity
  8
枠_
  6
CONTINUOUS
 62
     3
100
AcDbLine
 10
121.444733
 20
17.8272
 30
0.0
 11
118.227264
 21
17.8272
 31
0.0
  0
LINE
  5
183
100
AcDbEntity
  8
枠_
  6
CONTINUOUS
 62
     3
100
AcDbLine
 10
124.073639
 20
17.974783
 30
0.0
 11
124.073639
 21
17.336996
 31
0.0
  0
LINE
  5
184
100
AcDbEntity
  8
枠_
  6
CONTINUOUS
 62
     3
100
AcDbLine
 10
124.073639
 20
17.974783
 30
0.0
 11
126.946365
 21
18.935995
 31
0.0
  0
LINE
  5
185
100
AcDbEntity
  8
枠_
  6
CONTINUOUS
 62
     3
100
AcDbLine
 10
126.946365
 20
18.935995
 30
0.0
 11
129.819107
 21
17.974753
 31
0.0
  0
LINE
  5
186
100
AcDbEntity
  8
枠_
  6
CONTINUOUS
 62
     3
100
AcDbLine
 10
129.819107
 20
17.974753
 30
0.0
 11
129.819107
 21
17.336996
 31
0.0
  0
LINE
  5
187
100
AcDbEntity
  8
枠_
  6
CONTINUOUS
 62
     3
100
AcDbLine
 10
129.819107
 20
17.336996
 30
0.0
 11
128.962494
 21
17.623679
 31
0.0
  0
LINE
  5
188
100
AcDbEntity
  8
枠_
  6
CONTINUOUS
 62
     3
100
AcDbLine
 10
128.962494
 20
17.623679
 30
0.0
 11
128.962494
 21
17.121603
 31
0.0
  0
LINE
  5
189
100
AcDbEntity
  8
枠_
  6
CONTINUOUS
 62
     3
100
AcDbLine
 10
128.962494
 20
17.121603
 30
0.0
 11
124.93045
 21
17.121603
 31
0.0
  0
LINE
  5
18A
100
AcDbEntity
  8
枠_
  6
CONTINUOUS
 62
     3
100
AcDbLine
 10
124.93045
 20
17.121603
 30
0.0
 11
124.93045
 21
17.623679
 31
0.0
  0
LINE
  5
18B
100
AcDbEntity
  8
枠_
  6
CONTINUOUS
 62
     3
100
AcDbLine
 10
124.93045
 20
17.623679
 30
0.0
 11
124.073639
 21
17.336996
 31
0.0
  0
LINE
  5
18C
100
AcDbEntity
  8
枠_
  6
CONTINUOUS
 62
     3
100
AcDbLine
 10
125.237457
 20
17.726401
 30
0.0
 11
126.946365
 21
18.298224
 31
0.0
  0
LINE
  5
18D
100
AcDbEntity
  8
枠_
  6
CONTINUOUS
 62
     3
100
AcDbLine
 10
126.946365
 20
18.298224
 30
0.0
 11
128.655487
 21
17.726401
 31
0.0
  0
LINE
  5
18E
100
AcDbEntity
  8
枠_
  6
CONTINUOUS
 62
     3
100
AcDbLine
 10
128.655487
 20
17.726401
 30
0.0
 11
125.237457
 21
17.726401
 31
0.0
  0
LINE
  5
18F
100
AcDbEntity
  8
枠_
  6
CONTINUOUS
 62
     3
100
AcDbLine
 10
124.073639
 20
16.71839
 30
0.0
 11
124.073639
 21
16.113593
 31
0.0
  0
LINE
  5
190
100
AcDbEntity
  8
枠_
  6
CONTINUOUS
 62
     3
100
AcDbLine
 10
124.073639
 20
16.71839
 30
0.0
 11
129.819107
 21
16.71839
 31
0.0
  0
LINE
  5
191
100
AcDbEntity
  8
枠_
  6
CONTINUOUS
 62
     3
100
AcDbLine
 10
129.819107
 20
16.71839
 30
0.0
 11
129.819107
 21
16.113593
 31
0.0
  0
LINE
  5
192
100
AcDbEntity
  8
枠_
  6
CONTINUOUS
 62
     3
100
AcDbLine
 10
129.819107
 20
16.113593
 30
0.0
 11
129.020111
 21
16.113593
 31
0.0
  0
LINE
  5
193
100
AcDbEntity
  8
枠_
  6
CONTINUOUS
 62
     3
100
AcDbLine
 10
129.020111
 20
16.113593
 30
0.0
 11
129.819107
 21
14.4
 31
0.0
  0
LINE
  5
194
100
AcDbEntity
  8
枠_
  6
CONTINUOUS
 62
     3
100
AcDbLine
 10
129.819107
 20
14.4
 30
0.0
 11
124.073639
 21
14.4
 31
0.0
  0
LINE
  5
195
100
AcDbEntity
  8
枠_
  6
CONTINUOUS
 62
     3
100
AcDbLine
 10
124.073639
 20
14.4
 30
0.0
 11
124.87262
 21
16.113593
 31
0.0
  0
LINE
  5
196
100
AcDbEntity
  8
枠_
  6
CONTINUOUS
 62
     3
100
AcDbLine
 10
124.87262
 20
16.113593
 30
0.0
 11
124.073639
 21
16.113593
 31
0.0
  0
LINE
  5
197
100
AcDbEntity
  8
枠_
  6
CONTINUOUS
 62
     3
100
AcDbLine
 10
125.984756
 20
16.113593
 30
0.0
 11
127.907974
 21
16.113593
 31
0.0
  0
LINE
  5
198
100
AcDbEntity
  8
枠_
  6
CONTINUOUS
 62
     3
100
AcDbLine
 10
127.907974
 20
16.113593
 30
0.0
 11
128.424973
 21
15.004797
 31
0.0
  0
LINE
  5
199
100
AcDbEntity
  8
枠_
  6
CONTINUOUS
 62
     3
100
AcDbLine
 10
128.424973
 20
15.004797
 30
0.0
 11
125.467758
 21
15.004797
 31
0.0
  0
LINE
  5
19A
100
AcDbEntity
  8
枠_
  6
CONTINUOUS
 62
     3
100
AcDbLine
 10
125.984756
 20
16.113593
 30
0.0
 11
125.467758
 21
15.004797
 31
0.0
  0
LINE
  5
19B
100
AcDbEntity
  8
枠_
  6
CONTINUOUS
 62
     3
100
AcDbLine
 10
132.742493
 20
17.726401
 30
0.0
 11
132.742493
 21
17.121603
 31
0.0
  0
LINE
  5
19C
100
AcDbEntity
  8
枠_
  6
CONTINUOUS
 62
     3
100
AcDbLine
 10
132.742493
 20
17.726401
 30
0.0
 11
133.649551
 21
17.726401
 31
0.0
  0
LINE
  5
19D
100
AcDbEntity
  8
枠_
  6
CONTINUOUS
 62
     3
100
AcDbLine
 10
133.649551
 20
17.726401
 30
0.0
 11
133.649551
 21
18.835196
 31
0.0
  0
LINE
  5
19E
100
AcDbEntity
  8
枠_
  6
CONTINUOUS
 62
     3
100
AcDbLine
 10
133.649551
 20
18.835196
 30
0.0
 11
134.657501
 21
18.835196
 31
0.0
  0
LINE
  5
19F
100
AcDbEntity
  8
枠_
  6
CONTINUOUS
 62
     3
100
AcDbLine
 10
134.657501
 20
18.835196
 30
0.0
 11
134.657501
 21
17.726401
 31
0.0
  0
LINE
  5
1A0
100
AcDbEntity
  8
枠_
  6
CONTINUOUS
 62
     3
100
AcDbLine
 10
134.657501
 20
17.726401
 30
0.0
 11
135.564774
 21
17.726401
 31
0.0
  0
LINE
  5
1A1
100
AcDbEntity
  8
枠_
  6
CONTINUOUS
 62
     3
100
AcDbLine
 10
135.564774
 20
17.726401
 30
0.0
 11
135.564774
 21
17.121603
 31
0.0
  0
LINE
  5
1A2
100
AcDbEntity
  8
枠_
  6
CONTINUOUS
 62
     3
100
AcDbLine
 10
135.564774
 20
17.121603
 30
0.0
 11
134.657501
 21
17.121603
 31
0.0
  0
LINE
  5
1A3
100
AcDbEntity
  8
枠_
  6
CONTINUOUS
 62
     3
100
AcDbLine
 10
134.657501
 20
17.121603
 30
0.0
 11
134.657501
 21
15.004797
 31
0.0
  0
LINE
  5
1A4
100
AcDbEntity
  8
枠_
  6
CONTINUOUS
 62
     3
100
AcDbLine
 10
134.657501
 20
15.004797
 30
0.0
 11
135.665665
 21
15.004797
 31
0.0
  0
LINE
  5
1A5
100
AcDbEntity
  8
枠_
  6
CONTINUOUS
 62
     3
100
AcDbLine
 10
135.665665
 20
15.004797
 30
0.0
 11
135.665665
 21
14.4
 31
0.0
  0
LINE
  5
1A6
100
AcDbEntity
  8
枠_
  6
CONTINUOUS
 62
     3
100
AcDbLine
 10
135.665665
 20
14.4
 30
0.0
 11
132.339096
 21
14.4
 31
0.0
  0
LINE
  5
1A7
100
AcDbEntity
  8
枠_
  6
CONTINUOUS
 62
     3
100
AcDbLine
 10
132.339096
 20
14.4
 30
0.0
 11
132.339096
 21
15.004797
 31
0.0
  0
LINE
  5
1A8
100
AcDbEntity
  8
枠_
  6
CONTINUOUS
 62
     3
100
AcDbLine
 10
132.339096
 20
15.004797
 30
0.0
 11
133.649551
 21
15.004797
 31
0.0
  0
LINE
  5
1A9
100
AcDbEntity
  8
枠_
  6
CONTINUOUS
 62
     3
100
AcDbLine
 10
133.649551
 20
15.004797
 30
0.0
 11
133.649551
 21
17.121603
 31
0.0
  0
LINE
  5
1AA
100
AcDbEntity
  8
枠_
  6
CONTINUOUS
 62
     3
100
AcDbLine
 10
133.649551
 20
17.121603
 30
0.0
 11
132.742493
 21
17.121603
 31
0.0
  0
LINE
  5
1AB
100
AcDbEntity
  8
枠_
  6
CONTINUOUS
 62
     3
100
AcDbLine
 10
130.020691
 20
18.431998
 30
0.0
 11
130.020691
 21
17.8272
 31
0.0
  0
LINE
  5
1AC
100
AcDbEntity
  8
枠_
  6
CONTINUOUS
 62
     3
100
AcDbLine
 10
130.020691
 20
18.431998
 30
0.0
 11
130.927963
 21
18.431998
 31
0.0
  0
LINE
  5
1AD
100
AcDbEntity
  8
枠_
  6
CONTINUOUS
 62
     3
100
AcDbLine
 10
130.927963
 20
18.431998
 30
0.0
 11
130.927963
 21
18.835196
 31
0.0
  0
LINE
  5
1AE
100
AcDbEntity
  8
枠_
  6
CONTINUOUS
 62
     3
100
AcDbLine
 10
130.927963
 20
18.835196
 30
0.0
 11
131.935913
 21
18.835196
 31
0.0
  0
LINE
  5
1AF
100
AcDbEntity
  8
枠_
  6
CONTINUOUS
 62
     3
100
AcDbLine
 10
131.935913
 20
18.835196
 30
0.0
 11
131.935913
 21
18.431998
 31
0.0
  0
LINE
  5
1B0
100
AcDbEntity
  8
枠_
  6
CONTINUOUS
 62
     3
100
AcDbLine
 10
131.935913
 20
18.431998
 30
0.0
 11
132.843185
 21
18.431998
 31
0.0
  0
LINE
  5
1B1
100
AcDbEntity
  8
枠_
  6
CONTINUOUS
 62
     3
100
AcDbLine
 10
132.843185
 20
18.431998
 30
0.0
 11
131.802612
 21
16.945578
 31
0.0
  0
LINE
  5
1B2
100
AcDbEntity
  8
枠_
  6
CONTINUOUS
 62
     3
100
AcDbLine
 10
131.802612
 20
16.945578
 30
0.0
 11
132.742493
 21
16.287588
 31
0.0
  0
LINE
  5
1B3
100
AcDbEntity
  8
枠_
  6
CONTINUOUS
 62
     3
100
AcDbLine
 10
132.742493
 20
16.287588
 30
0.0
 11
132.742493
 21
15.180121
 31
0.0
  0
LINE
  5
1B4
100
AcDbEntity
  8
枠_
  6
CONTINUOUS
 62
     3
100
AcDbLine
 10
132.742493
 20
15.180121
 30
0.0
 11
131.935913
 21
15.744772
 31
0.0
  0
LINE
  5
1B5
100
AcDbEntity
  8
枠_
  6
CONTINUOUS
 62
     3
100
AcDbLine
 10
131.935913
 20
15.744772
 30
0.0
 11
131.935913
 21
14.4
 31
0.0
  0
LINE
  5
1B6
100
AcDbEntity
  8
枠_
  6
CONTINUOUS
 62
     3
100
AcDbLine
 10
131.935913
 20
14.4
 30
0.0
 11
130.927963
 21
14.4
 31
0.0
  0
LINE
  5
1B7
100
AcDbEntity
  8
枠_
  6
CONTINUOUS
 62
     3
100
AcDbLine
 10
130.927963
 20
14.4
 30
0.0
 11
130.927963
 21
15.69599
 31
0.0
  0
LINE
  5
1B8
100
AcDbEntity
  8
枠_
  6
CONTINUOUS
 62
     3
100
AcDbLine
 10
130.927963
 20
15.69599
 30
0.0
 11
130.020691
 21
14.4
 31
0.0
  0
LINE
  5
1B9
100
AcDbEntity
  8
枠_
  6
CONTINUOUS
 62
     3
100
AcDbLine
 10
130.020691
 20
14.4
 30
0.0
 11
130.020691
 21
15.98194
 31
0.0
  0
LINE
  5
1BA
100
AcDbEntity
  8
枠_
  6
CONTINUOUS
 62
     3
100
AcDbLine
 10
130.020691
 20
15.98194
 30
0.0
 11
131.312485
 21
17.8272
 31
0.0
  0
LINE
  5
1BB
100
AcDbEntity
  8
枠_
  6
CONTINUOUS
 62
     3
100
AcDbLine
 10
131.312485
 20
17.8272
 30
0.0
 11
130.020691
 21
17.8272
 31
0.0
  0
ARC
  5
1BC
100
AcDbEntity
  8
枠_
  6
CONTINUOUS
 62
     2
100
AcDbCircle
 10
85.816101
 20
17.020041
 30
0.0
 40
0.630012
100
AcDbArc
 50
310.768311
 51
335.998779
  0
LINE
  5
1BD
100
AcDbEntity
  8
枠_
  6
CONTINUOUS
 62
     2
100
AcDbLine
 10
86.540024
 20
17.096411
 30
0.0
 11
86.391968
 21
16.763907
 31
0.0
  0
LINE
  5
1BE
100
AcDbEntity
  8
枠_
  6
CONTINUOUS
 62
     2
100
AcDbLine
 10
84.798508
 20
17.474402
 30
0.0
 11
87.121841
 21
17.474402
 31
0.0
  0
ARC
  5
1BF
100
AcDbEntity
  8
枠_
  6
CONTINUOUS
 62
     2
100
AcDbCircle
 10
95.129929
 20
16.214407
 30
0.0
 40
1.562401
100
AcDbArc
 50
270.000031
 51
324.00116
  0
ARC
  5
1C0
100
AcDbEntity
  8
枠_
  6
CONTINUOUS
 62
     2
100
AcDbCircle
 10
95.129929
 20
16.214407
 30
0.0
 40
1.310401
100
AcDbArc
 50
270.000031
 51
324.00116
  0
ARC
  5
1C1
100
AcDbEntity
  8
枠_
  6
CONTINUOUS
 62
     2
100
AcDbCircle
 10
79.856567
 20
16.214407
 30
0.0
 40
1.562398
100
AcDbArc
 50
270.000031
 51
333.99855
  0
ARC
  5
1C2
100
AcDbEntity
  8
枠_
  6
CONTINUOUS
 62
     2
100
AcDbCircle
 10
79.77655
 20
16.214407
 30
0.0
 40
1.058399
100
AcDbArc
 50
270.000031
 51
333.99855
  0
ARC
  5
1C3
100
AcDbEntity
  8
枠_
  6
CONTINUOUS
 62
     2
100
AcDbCircle
 10
79.816559
 20
16.214407
 30
0.0
 40
1.310399
100
AcDbArc
 50
270.000031
 51
333.99855
  0
LINE
  5
1C4
100
AcDbEntity
  8
枠_
  6
CONTINUOUS
 62
     2
100
AcDbLine
 10
77.184082
 20
18.603213
 30
0.0
 11
79.638397
 21
18.603213
 31
0.0
  0
LINE
  5
1C5
100
AcDbEntity
  8
枠_
  6
CONTINUOUS
 62
     2
100
AcDbLine
 10
77.184082
 20
18.371214
 30
0.0
 11
79.638397
 21
18.371214
 31
0.0
  0
LINE
  5
1C6
100
AcDbEntity
  8
枠_
  6
CONTINUOUS
 62
     2
100
AcDbLine
 10
77.184082
 20
18.139231
 30
0.0
 11
79.638397
 21
18.139231
 31
0.0
  0
LINE
  5
1C7
100
AcDbEntity
  8
枠_
  6
CONTINUOUS
 62
     2
100
AcDbLine
 10
77.184082
 20
17.413603
 30
0.0
 11
79.638397
 21
17.413603
 31
0.0
  0
LINE
  5
1C8
100
AcDbEntity
  8
枠_
  6
CONTINUOUS
 62
     2
100
AcDbLine
 10
77.184082
 20
17.161589
 30
0.0
 11
79.638397
 21
17.161589
 31
0.0
  0
LINE
  5
1C9
100
AcDbEntity
  8
枠_
  6
CONTINUOUS
 62
     2
100
AcDbLine
 10
77.184082
 20
16.929606
 30
0.0
 11
79.638397
 21
16.929606
 31
0.0
  0
LINE
  5
1CA
100
AcDbEntity
  8
枠_
  6
CONTINUOUS
 62
     2
100
AcDbLine
 10
77.184082
 20
15.155997
 30
0.0
 11
79.77655
 21
15.155997
 31
0.0
  0
LINE
  5
1CB
100
AcDbEntity
  8
枠_
  6
CONTINUOUS
 62
     2
100
AcDbLine
 10
77.184082
 20
14.903998
 30
0.0
 11
79.77655
 21
14.903998
 31
0.0
  0
LINE
  5
1CC
100
AcDbEntity
  8
枠_
  6
CONTINUOUS
 62
     2
100
AcDbLine
 10
77.184082
 20
14.651999
 30
0.0
 11
79.77655
 21
14.651999
 31
0.0
  0
LINE
  5
1CD
100
AcDbEntity
  8
枠_
  6
CONTINUOUS
 62
     2
100
AcDbLine
 10
80.727707
 20
15.750403
 30
0.0
 11
81.610825
 21
17.561036
 31
0.0
  0
LINE
  5
1CE
100
AcDbEntity
  8
枠_
  6
CONTINUOUS
 62
     2
100
AcDbLine
 10
80.994125
 20
15.63996
 30
0.0
 11
81.931168
 21
17.561037
 31
0.0
  0
LINE
  5
1CF
100
AcDbEntity
  8
枠_
  6
CONTINUOUS
 62
     2
100
AcDbLine
 10
81.260529
 20
15.529425
 30
0.0
 11
82.251312
 21
17.561035
 31
0.0
  0
LINE
  5
1D0
100
AcDbEntity
  8
枠_
  6
CONTINUOUS
 62
     2
100
AcDbLine
 10
80.913635
 20
18.569598
 30
0.0
 11
81.351837
 21
18.569598
 31
0.0
  0
LINE
  5
1D1
100
AcDbEntity
  8
枠_
  6
CONTINUOUS
 62
     2
100
AcDbLine
 10
80.913635
 20
18.283999
 30
0.0
 11
81.351837
 21
18.283999
 31
0.0
  0
LINE
  5
1D2
100
AcDbEntity
  8
枠_
  6
CONTINUOUS
 62
     2
100
AcDbLine
 10
82.022491
 20
18.569598
 30
0.0
 11
82.460693
 21
18.569598
 31
0.0
  0
LINE
  5
1D3
100
AcDbEntity
  8
枠_
  6
CONTINUOUS
 62
     2
100
AcDbLine
 10
82.022491
 20
18.283999
 30
0.0
 11
82.460693
 21
18.283999
 31
0.0
  0
LINE
  5
1D4
100
AcDbEntity
  8
枠_
  6
CONTINUOUS
 62
     2
100
AcDbLine
 10
83.131348
 20
17.222418
 30
0.0
 11
84.328064
 21
17.222418
 31
0.0
  0
LINE
  5
1D5
100
AcDbEntity
  8
枠_
  6
CONTINUOUS
 62
     2
100
AcDbLine
 10
84.037537
 20
18.250268
 30
0.0
 11
84.160507
 21
17.474402
 31
0.0
  0
LINE
  5
1D6
100
AcDbEntity
  8
枠_
  6
CONTINUOUS
 62
     2
100
AcDbLine
 10
84.618805
 20
14.58173
 30
0.0
 11
84.244904
 21
16.941904
 31
0.0
  0
ARC
  5
1D7
100
AcDbEntity
  8
枠_
  6
CONTINUOUS
 62
     2
100
AcDbCircle
 10
85.796097
 20
17.020041
 30
0.0
 40
0.882012
100
AcDbArc
 50
272.671387
 51
335.998779
  0
ARC
  5
1D8
100
AcDbEntity
  8
枠_
  6
CONTINUOUS
 62
     2
100
AcDbCircle
 10
85.776093
 20
17.020041
 30
0.0
 40
1.134011
100
AcDbArc
 50
267.367432
 51
335.998779
  0
LINE
  5
1D9
100
AcDbEntity
  8
枠_
  6
CONTINUOUS
 62
     2
100
AcDbLine
 10
87.235168
 20
17.509053
 30
0.0
 11
86.812149
 21
16.558859
 31
0.0
  0
LINE
  5
1DA
100
AcDbEntity
  8
枠_
  6
CONTINUOUS
 62
     2
100
AcDbLine
 10
85.209061
 20
14.58173
 30
0.0
 11
84.822037
 21
17.024882
 31
0.0
  0
LINE
  5
1DB
100
AcDbEntity
  8
枠_
  6
CONTINUOUS
 62
     2
100
AcDbLine
 10
84.933929
 20
14.58173
 30
0.0
 11
84.352844
 21
18.250267
 31
0.0
  0
LINE
  5
1DC
100
AcDbEntity
  8
枠_
  6
CONTINUOUS
 62
     2
100
AcDbLine
 10
84.627975
 20
18.250267
 30
0.0
 11
84.739563
 21
17.545946
 31
0.0
  0
LINE
  5
1DD
100
AcDbEntity
  8
枠_
  6
CONTINUOUS
 62
     2
100
AcDbLine
 10
83.131348
 20
17.474402
 30
0.0
 11
83.96051
 21
17.474402
 31
0.0
  0
LINE
  5
1DE
100
AcDbEntity
  8
枠_
  6
CONTINUOUS
 62
     2
100
AcDbLine
 10
86.866989
 20
17.257039
 30
0.0
 11
86.602051
 21
16.661353
 31
0.0
  0
LINE
  5
1DF
100
AcDbEntity
  8
枠_
  6
CONTINUOUS
 62
     2
100
AcDbLine
 10
84.710739
 20
17.222418
 30
0.0
 11
86.63382
 21
17.222418
 31
0.0
  0
ARC
  5
1E0
100
AcDbEntity
  8
枠_
  6
CONTINUOUS
 62
     2
100
AcDbCircle
 10
85.756088
 20
17.020041
 30
0.0
 40
1.386011
100
AcDbArc
 50
269.611328
 51
335.998779
  0
LINE
  5
1E1
100
AcDbEntity
  8
枠_
  6
CONTINUOUS
 62
     2
100
AcDbLine
 10
87.490982
 20
17.509056
 30
0.0
 11
87.022247
 21
16.456335
 31
0.0
  0
LINE
  5
1E2
100
AcDbEntity
  8
枠_
  6
CONTINUOUS
 62
     2
100
AcDbLine
 10
98.231262
 20
18.331213
 30
0.0
 11
96.188065
 21
15.518271
 31
0.0
  0
LINE
  5
1E3
100
AcDbEntity
  8
枠_
  6
CONTINUOUS
 62
     2
100
AcDbLine
 10
97.686813
 20
18.07923
 30
0.0
 11
95.934204
 21
15.666403
 31
0.0
  0
ARC
  5
1E4
100
AcDbEntity
  8
枠_
  6
CONTINUOUS
 62
     2
100
AcDbCircle
 10
95.199936
 20
16.174406
 30
0.0
 40
0.932402
100
AcDbArc
 50
270.000031
 51
324.00116
  0
LINE
  5
1E5
100
AcDbEntity
  8
枠_
  6
CONTINUOUS
 62
     2
100
AcDbLine
 10
88.287949
 20
18.601559
 30
0.0
 11
92.726364
 21
18.601559
 31
0.0
  0
LINE
  5
1E6
100
AcDbEntity
  8
枠_
  6
CONTINUOUS
 62
     2
100
AcDbLine
 10
88.287949
 20
18.339575
 30
0.0
 11
92.726364
 21
18.339575
 31
0.0
  0
LINE
  5
1E7
100
AcDbEntity
  8
枠_
  6
CONTINUOUS
 62
     2
100
AcDbLine
 10
88.287949
 20
18.067591
 30
0.0
 11
92.726364
 21
18.067591
 31
0.0
  0
LINE
  5
1E8
100
AcDbEntity
  8
枠_
  6
CONTINUOUS
 62
     2
100
AcDbLine
 10
87.884766
 20
15.164404
 30
0.0
 11
93.129547
 21
15.164404
 31
0.0
  0
LINE
  5
1E9
100
AcDbEntity
  8
枠_
  6
CONTINUOUS
 62
     2
100
AcDbLine
 10
87.884766
 20
14.912405
 30
0.0
 11
93.129547
 21
14.912405
 31
0.0
  0
LINE
  5
1EA
100
AcDbEntity
  8
枠_
  6
CONTINUOUS
 62
     2
100
AcDbLine
 10
87.884766
 20
14.640391
 30
0.0
 11
93.129547
 21
14.640391
 31
0.0
  0
LINE
  5
1EB
100
AcDbEntity
  8
枠_
  6
CONTINUOUS
 62
     2
100
AcDbLine
 10
94.235214
 20
18.593213
 30
0.0
 11
98.525681
 21
18.593213
 31
0.0
  0
LINE
  5
1EC
100
AcDbEntity
  8
枠_
  6
CONTINUOUS
 62
     2
100
AcDbLine
 10
98.78569
 20
18.583212
 30
0.0
 11
96.451904
 21
15.370062
 31
0.0
  0
LINE
  5
1ED
100
AcDbEntity
  8
枠_
  6
CONTINUOUS
 62
     2
100
AcDbLine
 10
94.235214
 20
18.331213
 30
0.0
 11
98.03125
 21
18.331213
 31
0.0
  0
LINE
  5
1EE
100
AcDbEntity
  8
枠_
  6
CONTINUOUS
 62
     2
100
AcDbLine
 10
95.129929
 20
15.165997
 30
0.0
 11
93.832031
 21
15.165997
 31
0.0
  0
LINE
  5
1EF
100
AcDbEntity
  8
枠_
  6
CONTINUOUS
 62
     2
100
AcDbLine
 10
95.129929
 20
14.903998
 30
0.0
 11
93.832031
 21
14.903998
 31
0.0
  0
LINE
  5
1F0
100
AcDbEntity
  8
枠_
  6
CONTINUOUS
 62
     2
100
AcDbLine
 10
95.129929
 20
14.641999
 30
0.0
 11
93.832031
 21
14.641999
 31
0.0
  0
LINE
  5
1F1
100
AcDbEntity
  8
枠_
  6
CONTINUOUS
 62
     2
100
AcDbLine
 10
97.143188
 20
15.973715
 30
0.0
 11
98.337158
 21
14.6
 31
0.0
  0
LINE
  5
1F2
100
AcDbEntity
  8
枠_
  6
CONTINUOUS
 62
     2
100
AcDbLine
 10
97.295349
 20
16.153051
 30
0.0
 11
98.645172
 21
14.6
 31
0.0
  0
LINE
  5
1F3
100
AcDbEntity
  8
枠_
  6
CONTINUOUS
 62
     2
100
AcDbLine
 10
97.447311
 20
16.332295
 30
0.0
 11
98.952942
 21
14.6
 31
0.0
  0
LINE
  5
1F4
100
AcDbEntity
  8
枠_
  6
CONTINUOUS
 62
     2
100
AcDbLine
 10
97.599274
 20
16.511585
 30
0.0
 11
99.260925
 21
14.6
 31
0.0
  0
LINE
  5
1F5
100
AcDbEntity
  8
枠_
  6
CONTINUOUS
 62
     2
100
AcDbLine
 10
94.235214
 20
18.059229
 30
0.0
 11
97.436798
 21
18.059229
 31
0.0
  0
LINE
  5
1F6
100
AcDbEntity
  8
枠_
  6
CONTINUOUS
 62
     2
100
AcDbLine
 10
101.089554
 20
18.603213
 30
0.0
 11
105.931137
 21
18.603213
 31
0.0
  0
LINE
  5
1F7
100
AcDbEntity
  8
枠_
  6
CONTINUOUS
 62
     2
100
AcDbLine
 10
101.089554
 20
18.351214
 30
0.0
 11
105.931137
 21
18.351214
 31
0.0
  0
LINE
  5
1F8
100
AcDbEntity
  8
枠_
  6
CONTINUOUS
 62
     2
100
AcDbLine
 10
103.16774
 20
15.147992
 30
0.0
 11
103.16774
 21
18.121222
 31
0.0
  0
LINE
  5
1F9
100
AcDbEntity
  8
枠_
  6
CONTINUOUS
 62
     2
100
AcDbLine
 10
103.419586
 20
15.147992
 30
0.0
 11
103.419586
 21
18.121222
 31
0.0
  0
LINE
  5
1FA
100
AcDbEntity
  8
枠_
  6
CONTINUOUS
 62
     2
100
AcDbLine
 10
103.671417
 20
15.147992
 30
0.0
 11
103.671417
 21
18.121222
 31
0.0
  0
LINE
  5
1FB
100
AcDbEntity
  8
枠_
  6
CONTINUOUS
 62
     2
100
AcDbLine
 10
103.903244
 20
15.147992
 30
0.0
 11
103.903244
 21
18.121222
 31
0.0
  0
LINE
  5
1FC
100
AcDbEntity
  8
枠_
  6
CONTINUOUS
 62
     2
100
AcDbLine
 10
100.887955
 20
14.947992
 30
0.0
 11
106.132736
 21
14.947992
 31
0.0
  0
LINE
  5
1FD
100
AcDbEntity
  8
枠_
  6
CONTINUOUS
 62
     2
100
AcDbLine
 10
100.887955
 20
14.645993
 30
0.0
 11
106.132736
 21
14.645993
 31
0.0
  0
LINE
  5
1FE
100
AcDbEntity
  8
枠_
  6
CONTINUOUS
 62
     2
100
AcDbLine
 10
107.312759
 20
18.635196
 30
0.0
 11
107.687088
 21
18.15615
 31
0.0
  0
LINE
  5
1FF
100
AcDbEntity
  8
枠_
  6
CONTINUOUS
 62
     2
100
AcDbLine
 10
107.632477
 20
18.635196
 30
0.0
 11
108.006805
 21
18.15615
 31
0.0
  0
LINE
  5
200
100
AcDbEntity
  8
枠_
  6
CONTINUOUS
 62
     2
100
AcDbLine
 10
108.631134
 20
18.635196
 30
0.0
 11
108.631134
 21
18.198556
 31
0.0
  0
LINE
  5
201
100
AcDbEntity
  8
枠_
  6
CONTINUOUS
 62
     2
100
AcDbLine
 10
108.902985
 20
18.635196
 30
0.0
 11
108.902985
 21
18.198556
 31
0.0
  0
LINE
  5
202
100
AcDbEntity
  8
枠_
  6
CONTINUOUS
 62
     2
100
AcDbLine
 10
109.639099
 20
18.635196
 30
0.0
 11
109.639099
 21
18.198556
 31
0.0
  0
LINE
  5
203
100
AcDbEntity
  8
枠_
  6
CONTINUOUS
 62
     2
100
AcDbLine
 10
109.930939
 20
18.635196
 30
0.0
 11
109.930939
 21
18.198556
 31
0.0
  0
LINE
  5
204
100
AcDbEntity
  8
枠_
  6
CONTINUOUS
 62
     2
100
AcDbLine
 10
110.899567
 20
18.635196
 30
0.0
 11
110.525238
 21
18.15615
 31
0.0
  0
LINE
  5
205
100
AcDbEntity
  8
枠_
  6
CONTINUOUS
 62
     2
100
AcDbLine
 10
111.239288
 20
18.635196
 30
0.0
 11
110.86496
 21
18.15615
 31
0.0
  0
LINE
  5
206
100
AcDbEntity
  8
枠_
  6
CONTINUOUS
 62
     2
100
AcDbLine
 10
106.633621
 20
17.998557
 30
0.0
 11
111.878403
 21
17.998557
 31
0.0
  0
LINE
  5
207
100
AcDbEntity
  8
枠_
  6
CONTINUOUS
 62
     2
100
AcDbLine
 10
107.943176
 20
17.218829
 30
0.0
 11
107.727783
 21
17.810618
 31
0.0
  0
LINE
  5
208
100
AcDbEntity
  8
枠_
  6
CONTINUOUS
 62
     2
100
AcDbLine
 10
108.251221
 20
17.218829
 30
0.0
 11
108.035828
 21
17.810618
 31
0.0
  0
LINE
  5
209
100
AcDbEntity
  8
枠_
  6
CONTINUOUS
 62
     2
100
AcDbLine
 10
108.539261
 20
17.218851
 30
0.0
 11
108.324112
 21
17.810595
 31
0.0
  0
LINE
  5
20A
100
AcDbEntity
  8
枠_
  6
CONTINUOUS
 62
     2
100
AcDbLine
 10
109.991943
 20
17.218807
 30
0.0
 11
110.207565
 21
17.81064
 31
0.0
  0
LINE
  5
20B
100
AcDbEntity
  8
枠_
  6
CONTINUOUS
 62
     2
100
AcDbLine
 10
110.300201
 20
17.218807
 30
0.0
 11
110.515823
 21
17.81064
 31
0.0
  0
LINE
  5
20C
100
AcDbEntity
  8
枠_
  6
CONTINUOUS
 62
     2
100
AcDbLine
 10
110.588242
 20
17.218807
 30
0.0
 11
110.803864
 21
17.81064
 31
0.0
  0
LINE
  5
20D
100
AcDbEntity
  8
枠_
  6
CONTINUOUS
 62
     2
100
AcDbLine
 10
106.633621
 20
17.03089
 30
0.0
 11
111.878403
 21
17.03089
 31
0.0
  0
LINE
  5
20E
100
AcDbEntity
  8
枠_
  6
CONTINUOUS
 62
     2
100
AcDbLine
 10
106.633621
 20
16.335364
 30
0.0
 11
108.783875
 21
16.335364
 31
0.0
  0
LINE
  5
20F
100
AcDbEntity
  8
枠_
  6
CONTINUOUS
 62
     2
100
AcDbLine
 10
106.633621
 20
15.639838
 30
0.0
 11
108.783875
 21
15.639838
 31
0.0
  0
LINE
  5
210
100
AcDbEntity
  8
枠_
  6
CONTINUOUS
 62
     2
100
AcDbLine
 10
109.747559
 20
15.639838
 30
0.0
 11
111.878403
 21
15.639838
 31
0.0
  0
LINE
  5
211
100
AcDbEntity
  8
枠_
  6
CONTINUOUS
 62
     2
100
AcDbLine
 10
106.950882
 20
14.6
 30
0.0
 11
107.953323
 21
15.505754
 31
0.0
  0
LINE
  5
212
100
AcDbEntity
  8
枠_
  6
CONTINUOUS
 62
     2
100
AcDbLine
 10
107.286774
 20
14.6
 30
0.0
 11
108.289246
 21
15.505756
 31
0.0
  0
LINE
  5
213
100
AcDbEntity
  8
枠_
  6
CONTINUOUS
 62
     2
100
AcDbLine
 10
107.602875
 20
14.6
 30
0.0
 11
108.605347
 21
15.505756
 31
0.0
  0
LINE
  5
214
100
AcDbEntity
  8
枠_
  6
CONTINUOUS
 62
     2
100
AcDbLine
 10
108.983871
 20
14.6
 30
0.0
 11
108.983871
 21
16.83089
 31
0.0
  0
LINE
  5
215
100
AcDbEntity
  8
枠_
  6
CONTINUOUS
 62
     2
100
AcDbLine
 10
109.275711
 20
14.6
 30
0.0
 11
109.275711
 21
16.83089
 31
0.0
  0
LINE
  5
216
100
AcDbEntity
  8
枠_
  6
CONTINUOUS
 62
     2
100
AcDbLine
 10
109.547562
 20
14.6
 30
0.0
 11
109.547562
 21
16.83089
 31
0.0
  0
LINE
  5
217
100
AcDbEntity
  8
枠_
  6
CONTINUOUS
 62
     2
100
AcDbLine
 10
110.917175
 20
14.6
 30
0.0
 11
109.914734
 21
15.505754
 31
0.0
  0
LINE
  5
218
100
AcDbEntity
  8
枠_
  6
CONTINUOUS
 62
     2
100
AcDbLine
 10
111.253082
 20
14.6
 30
0.0
 11
110.25061
 21
15.505756
 31
0.0
  0
LINE
  5
219
100
AcDbEntity
  8
枠_
  6
CONTINUOUS
 62
     2
100
AcDbLine
 10
111.589188
 20
14.6
 30
0.0
 11
110.586716
 21
15.505756
 31
0.0
  0
LINE
  5
21A
100
AcDbEntity
  8
枠_
  6
CONTINUOUS
 62
     2
100
AcDbLine
 10
113.499786
 20
18.635196
 30
0.0
 11
113.499786
 21
18.279199
 31
0.0
  0
LINE
  5
21B
100
AcDbEntity
  8
枠_
  6
CONTINUOUS
 62
     2
100
AcDbLine
 10
113.751617
 20
18.635196
 30
0.0
 11
113.751617
 21
18.279199
 31
0.0
  0
LINE
  5
21C
100
AcDbEntity
  8
枠_
  6
CONTINUOUS
 62
     2
100
AcDbLine
 10
114.003464
 20
18.635196
 30
0.0
 11
114.003464
 21
18.279199
 31
0.0
  0
LINE
  5
21D
100
AcDbEntity
  8
枠_
  6
CONTINUOUS
 62
     2
100
AcDbLine
 10
112.479996
 20
18.079199
 30
0.0
 11
114.297516
 21
18.079199
 31
0.0
  0
LINE
  5
21E
100
AcDbEntity
  8
枠_
  6
CONTINUOUS
 62
     2
100
AcDbLine
 10
112.494415
 20
14.598905
 30
0.0
 11
112.839203
 21
17.880294
 31
0.0
  0
LINE
  5
21F
100
AcDbEntity
  8
枠_
  6
CONTINUOUS
 62
     2
100
AcDbLine
 10
112.727676
 20
14.598905
 30
0.0
 11
113.072479
 21
17.880294
 31
0.0
  0
LINE
  5
220
100
AcDbEntity
  8
枠_
  6
CONTINUOUS
 62
     2
100
AcDbLine
 10
113.499786
 20
14.6
 30
0.0
 11
113.499786
 21
17.879199
 31
0.0
  0
LINE
  5
221
100
AcDbEntity
  8
枠_
  6
CONTINUOUS
 62
     2
100
AcDbLine
 10
113.751617
 20
14.6
 30
0.0
 11
113.751617
 21
17.879199
 31
0.0
  0
LINE
  5
222
100
AcDbEntity
  8
枠_
  6
CONTINUOUS
 62
     2
100
AcDbLine
 10
114.003464
 20
14.6
 30
0.0
 11
114.003464
 21
17.879199
 31
0.0
  0
LINE
  5
223
100
AcDbEntity
  8
枠_
  6
CONTINUOUS
 62
     2
100
AcDbLine
 10
114.120926
 20
17.615425
 30
0.0
 11
114.380035
 21
17.258384
 31
0.0
  0
LINE
  5
224
100
AcDbEntity
  8
枠_
  6
CONTINUOUS
 62
     2
100
AcDbLine
 10
114.120926
 20
17.226425
 30
0.0
 11
114.380035
 21
16.869384
 31
0.0
  0
LINE
  5
225
100
AcDbEntity
  8
枠_
  6
CONTINUOUS
 62
     2
100
AcDbLine
 10
114.746918
 20
17.71886
 30
0.0
 11
114.976883
 21
18.641138
 31
0.0
  0
LINE
  5
226
100
AcDbEntity
  8
枠_
  6
CONTINUOUS
 62
     2
100
AcDbLine
 10
114.98674
 20
17.718869
 30
0.0
 11
115.216522
 21
18.641129
 31
0.0
  0
LINE
  5
227
100
AcDbEntity
  8
枠_
  6
CONTINUOUS
 62
     2
100
AcDbLine
 10
115.196381
 20
17.71886
 30
0.0
 11
115.426346
 21
18.641138
 31
0.0
  0
LINE
  5
228
100
AcDbEntity
  8
枠_
  6
CONTINUOUS
 62
     2
100
AcDbLine
 10
116.070236
 20
18.279199
 30
0.0
 11
116.070236
 21
18.635196
 31
0.0
  0
LINE
  5
229
100
AcDbEntity
  8
枠_
  6
CONTINUOUS
 62
     2
100
AcDbLine
 10
116.342072
 20
18.279199
 30
0.0
 11
116.342072
 21
18.635196
 31
0.0
  0
LINE
  5
22A
100
AcDbEntity
  8
枠_
  6
CONTINUOUS
 62
     2
100
AcDbLine
 10
116.593918
 20
18.279199
 30
0.0
 11
116.593918
 21
18.635196
 31
0.0
  0
LINE
  5
22B
100
AcDbEntity
  8
枠_
  6
CONTINUOUS
 62
     2
100
AcDbLine
 10
115.486221
 20
18.079199
 30
0.0
 11
117.724777
 21
18.079199
 31
0.0
  0
LINE
  5
22C
100
AcDbEntity
  8
枠_
  6
CONTINUOUS
 62
     2
100
AcDbLine
 10
116.070236
 20
17.879199
 30
0.0
 11
116.070236
 21
17.271203
 31
0.0
  0
LINE
  5
22D
100
AcDbEntity
  8
枠_
  6
CONTINUOUS
 62
     2
100
AcDbLine
 10
116.342072
 20
17.879199
 30
0.0
 11
116.342072
 21
17.271203
 31
0.0
  0
LINE
  5
22E
100
AcDbEntity
  8
枠_
  6
CONTINUOUS
 62
     2
100
AcDbLine
 10
116.593918
 20
17.879199
 30
0.0
 11
116.593918
 21
17.271203
 31
0.0
  0
LINE
  5
22F
100
AcDbEntity
  8
枠_
  6
CONTINUOUS
 62
     2
100
AcDbLine
 10
114.798401
 20
17.071204
 30
0.0
 11
117.825668
 21
17.071204
 31
0.0
  0
LINE
  5
230
100
AcDbEntity
  8
枠_
  6
CONTINUOUS
 62
     2
100
AcDbLine
 10
115.244797
 20
16.874439
 30
0.0
 11
114.830078
 21
14.596765
 31
0.0
  0
LINE
  5
231
100
AcDbEntity
  8
枠_
  6
CONTINUOUS
 62
     2
100
AcDbLine
 10
115.480728
 20
16.874439
 30
0.0
 11
115.066025
 21
14.596765
 31
0.0
  0
LINE
  5
232
100
AcDbEntity
  8
枠_
  6
CONTINUOUS
 62
     2
100
AcDbLine
 10
115.688919
 20
16.874442
 30
0.0
 11
115.274002
 21
14.596762
 31
0.0
  0
LINE
  5
233
100
AcDbEntity
  8
枠_
  6
CONTINUOUS
 62
     2
100
AcDbLine
 10
116.070236
 20
16.871204
 30
0.0
 11
116.070236
 21
14.6
 31
0.0
  0
LINE
  5
234
100
AcDbEntity
  8
枠_
  6
CONTINUOUS
 62
     2
100
AcDbLine
 10
116.322067
 20
16.871204
 30
0.0
 11
116.322067
 21
14.6
 31
0.0
  0
LINE
  5
235
100
AcDbEntity
  8
枠_
  6
CONTINUOUS
 62
     3
100
AcDbLine
 10
116.593918
 20
16.871204
 30
0.0
 11
116.593918
 21
14.6
 31
0.0
  0
LINE
  5
236
100
AcDbEntity
  8
枠_
  6
CONTINUOUS
 62
     2
100
AcDbLine
 10
116.934952
 20
16.874442
 30
0.0
 11
117.349869
 21
14.596762
 31
0.0
  0
LINE
  5
237
100
AcDbEntity
  8
枠_
  6
CONTINUOUS
 62
     2
100
AcDbLine
 10
117.151093
 20
16.874442
 30
0.0
 11
117.56601
 21
14.596762
 31
0.0
  0
LINE
  5
238
100
AcDbEntity
  8
枠_
  6
CONTINUOUS
 62
     2
100
AcDbLine
 10
117.407028
 20
16.874442
 30
0.0
 11
117.821945
 21
14.596762
 31
0.0
  0
LINE
  5
239
100
AcDbEntity
  8
枠_
  6
CONTINUOUS
 62
     2
100
AcDbLine
 10
118.427261
 20
18.240015
 30
0.0
 11
121.28241
 21
18.240015
 31
0.0
  0
LINE
  5
23A
100
AcDbEntity
  8
枠_
  6
CONTINUOUS
 62
     2
100
AcDbLine
 10
118.427261
 20
17.988017
 30
0.0
 11
121.37413
 21
17.988017
 31
0.0
  0
LINE
  5
23B
100
AcDbEntity
  8
枠_
  6
CONTINUOUS
 62
     2
100
AcDbLine
 10
122.811661
 20
14.587939
 30
0.0
 11
121.334198
 21
18.647257
 31
0.0
  0
LINE
  5
23C
100
AcDbEntity
  8
枠_
  6
CONTINUOUS
 62
     2
100
AcDbLine
 10
123.079697
 20
14.58794
 30
0.0
 11
121.602295
 21
18.647256
 31
0.0
  0
LINE
  5
23D
100
AcDbEntity
  8
枠_
  6
CONTINUOUS
 62
     2
100
AcDbLine
 10
123.347733
 20
14.58794
 30
0.0
 11
121.870331
 21
18.647256
 31
0.0
  0
LINE
  5
23E
100
AcDbEntity
  8
枠_
  6
CONTINUOUS
 62
     2
100
AcDbLine
 10
123.615768
 20
14.587936
 30
0.0
 11
122.138138
 21
18.647259
 31
0.0
  0
LINE
  5
23F
100
AcDbEntity
  8
枠_
  6
CONTINUOUS
 62
     2
100
AcDbLine
 10
122.854309
 20
18.440015
 30
0.0
 11
122.854309
 21
18.635196
 31
0.0
  0
LINE
  5
240
100
AcDbEntity
  8
枠_
  6
CONTINUOUS
 62
     2
100
AcDbLine
 10
123.12616
 20
18.440015
 30
0.0
 11
123.12616
 21
18.635196
 31
0.0
  0
LINE
  5
241
100
AcDbEntity
  8
枠_
  6
CONTINUOUS
 62
     2
100
AcDbLine
 10
123.397995
 20
18.440015
 30
0.0
 11
123.397995
 21
18.635196
 31
0.0
  0
LINE
  5
242
100
AcDbEntity
  8
枠_
  6
CONTINUOUS
 62
     2
100
AcDbLine
 10
122.486374
 20
18.240015
 30
0.0
 11
123.672043
 21
18.240015
 31
0.0
  0
LINE
  5
243
100
AcDbEntity
  8
枠_
  6
CONTINUOUS
 62
     2
100
AcDbLine
 10
122.57811
 20
17.988017
 30
0.0
 11
123.672043
 21
17.988017
 31
0.0
  0
LINE
  5
244
100
AcDbEntity
  8
枠_
  6
CONTINUOUS
 62
     2
100
AcDbLine
 10
118.729553
 20
17.03641
 30
0.0
 11
121.353638
 21
17.03641
 31
0.0
  0
LINE
  5
245
100
AcDbEntity
  8
枠_
  6
CONTINUOUS
 62
     2
100
AcDbLine
 10
118.729553
 20
16.784396
 30
0.0
 11
121.353638
 21
16.784396
 31
0.0
  0
LINE
  5
246
100
AcDbEntity
  8
枠_
  6
CONTINUOUS
 62
     2
100
AcDbLine
 10
119.679092
 20
16.584396
 30
0.0
 11
119.679092
 21
15.579115
 31
0.0
  0
LINE
  5
247
100
AcDbEntity
  8
枠_
  6
CONTINUOUS
 62
     2
100
AcDbLine
 10
119.930923
 20
16.584396
 30
0.0
 11
119.930923
 21
15.632643
 31
0.0
  0
LINE
  5
248
100
AcDbEntity
  8
枠_
  6
CONTINUOUS
 62
     2
100
AcDbLine
 10
120.182755
 20
16.584396
 30
0.0
 11
120.182755
 21
15.686172
 31
0.0
  0
LINE
  5
249
100
AcDbEntity
  8
枠_
  6
CONTINUOUS
 62
     2
100
AcDbLine
 10
120.434601
 20
16.584396
 30
0.0
 11
120.434601
 21
15.739703
 31
0.0
  0
LINE
  5
24A
100
AcDbEntity
  8
枠_
  6
CONTINUOUS
 62
     2
100
AcDbLine
 10
118.674728
 20
15.165632
 30
0.0
 11
121.408447
 21
15.7467
 31
0.0
  0
LINE
  5
24B
100
AcDbEntity
  8
枠_
  6
CONTINUOUS
 62
     2
100
AcDbLine
 10
118.674728
 20
14.888003
 30
0.0
 11
121.408447
 21
15.469085
 31
0.0
  0
LINE
  5
24C
100
AcDbEntity
  8
枠_
  6
CONTINUOUS
 62
     2
100
AcDbLine
 10
118.674728
 20
14.650373
 30
0.0
 11
121.408447
 21
15.231441
 31
0.0
  0
LINE
  5
24D
100
AcDbEntity
  8
枠_
  6
CONTINUOUS
 62
     2
100
AcDbLine
 10
124.263306
 20
17.832594
 30
0.0
 11
126.851532
 21
18.69854
 31
0.0
  0
LINE
  5
24E
100
AcDbEntity
  8
枠_
  6
CONTINUOUS
 62
     2
100
AcDbLine
 10
124.263306
 20
17.566862
 30
0.0
 11
126.851532
 21
18.432824
 31
0.0
  0
LINE
  5
24F
100
AcDbEntity
  8
枠_
  6
CONTINUOUS
 62
     2
100
AcDbLine
 10
127.041199
 20
18.698539
 30
0.0
 11
129.62944
 21
17.83253
 31
0.0
  0
LINE
  5
250
100
AcDbEntity
  8
枠_
  6
CONTINUOUS
 62
     2
100
AcDbLine
 10
127.041199
 20
18.452823
 30
0.0
 11
129.62944
 21
17.586814
 31
0.0
  0
LINE
  5
251
100
AcDbEntity
  8
枠_
  6
CONTINUOUS
 62
     2
100
AcDbLine
 10
128.762497
 20
17.559611
 30
0.0
 11
125.130447
 21
17.559611
 31
0.0
  0
LINE
  5
252
100
AcDbEntity
  8
枠_
  6
CONTINUOUS
 62
     2
100
AcDbLine
 10
128.762497
 20
17.287596
 30
0.0
 11
125.130447
 21
17.287596
 31
0.0
  0
LINE
  5
253
100
AcDbEntity
  8
枠_
  6
CONTINUOUS
 62
     2
100
AcDbLine
 10
124.273636
 20
16.506392
 30
0.0
 11
129.61911
 21
16.506392
 31
0.0
  0
LINE
  5
254
100
AcDbEntity
  8
枠_
  6
CONTINUOUS
 62
     2
100
AcDbLine
 10
124.273636
 20
16.274409
 30
0.0
 11
129.61911
 21
16.274409
 31
0.0
  0
LINE
  5
255
100
AcDbEntity
  8
枠_
  6
CONTINUOUS
 62
     2
100
AcDbLine
 10
125.101334
 20
16.093153
 30
0.0
 11
124.591125
 21
14.999246
 31
0.0
  0
LINE
  5
256
100
AcDbEntity
  8
枠_
  6
CONTINUOUS
 62
     2
100
AcDbLine
 10
125.419434
 20
16.093154
 30
0.0
 11
124.90921
 21
14.999246
 31
0.0
  0
LINE
  5
257
100
AcDbEntity
  8
枠_
  6
CONTINUOUS
 62
     2
100
AcDbLine
 10
125.737534
 20
16.093154
 30
0.0
 11
125.22731
 21
14.999246
 31
0.0
  0
LINE
  5
258
100
AcDbEntity
  8
枠_
  6
CONTINUOUS
 62
     2
100
AcDbLine
 10
128.155411
 20
16.093167
 30
0.0
 11
128.665833
 21
14.999234
 31
0.0
  0
LINE
  5
259
100
AcDbEntity
  8
枠_
  6
CONTINUOUS
 62
     2
100
AcDbLine
 10
128.473709
 20
16.093142
 30
0.0
 11
128.983704
 21
14.999258
 31
0.0
  0
LINE
  5
25A
100
AcDbEntity
  8
枠_
  6
CONTINUOUS
 62
     2
100
AcDbLine
 10
128.791992
 20
16.093131
 30
0.0
 11
129.301819
 21
14.999269
 31
0.0
  0
LINE
  5
25B
100
AcDbEntity
  8
枠_
  6
CONTINUOUS
 62
     2
100
AcDbLine
 10
124.468536
 20
14.817992
 30
0.0
 11
129.42421
 21
14.817992
 31
0.0
  0
LINE
  5
25C
100
AcDbEntity
  8
枠_
  6
CONTINUOUS
 62
     2
100
AcDbLine
 10
124.351028
 20
14.565993
 30
0.0
 11
129.541718
 21
14.565993
 31
0.0
  0
LINE
  5
25D
100
AcDbEntity
  8
枠_
  6
CONTINUOUS
 62
     2
100
AcDbLine
 10
131.139786
 20
18.440015
 30
0.0
 11
131.139786
 21
18.635196
 31
0.0
  0
LINE
  5
25E
100
AcDbEntity
  8
枠_
  6
CONTINUOUS
 62
     2
100
AcDbLine
 10
131.431625
 20
18.440015
 30
0.0
 11
131.431625
 21
18.635196
 31
0.0
  0
LINE
  5
25F
100
AcDbEntity
  8
枠_
  6
CONTINUOUS
 62
     2
100
AcDbLine
 10
131.72348
 20
18.440015
 30
0.0
 11
131.72348
 21
18.635196
 31
0.0
  0
LINE
  5
260
100
AcDbEntity
  8
枠_
  6
CONTINUOUS
 62
     2
100
AcDbLine
 10
130.220688
 20
18.240015
 30
0.0
 11
132.508789
 21
18.240015
 31
0.0
  0
LINE
  5
261
100
AcDbEntity
  8
枠_
  6
CONTINUOUS
 62
     2
100
AcDbLine
 10
130.220688
 20
17.988017
 30
0.0
 11
132.332382
 21
17.988017
 31
0.0
  0
LINE
  5
262
100
AcDbEntity
  8
枠_
  6
CONTINUOUS
 62
     2
100
AcDbLine
 10
131.537918
 20
17.824168
 30
0.0
 11
130.135376
 21
15.820472
 31
0.0
  0
LINE
  5
263
100
AcDbEntity
  8
枠_
  6
CONTINUOUS
 62
     2
100
AcDbLine
 10
131.865662
 20
17.82418
 30
0.0
 11
130.135391
 21
15.352851
 31
0.0
  0
LINE
  5
264
100
AcDbEntity
  8
枠_
  6
CONTINUOUS
 62
     2
100
AcDbLine
 10
132.173798
 20
17.824177
 30
0.0
 11
130.135391
 21
14.912573
 31
0.0
  0
LINE
  5
265
100
AcDbEntity
  8
枠_
  6
CONTINUOUS
 62
     2
100
AcDbLine
 10
131.692993
 20
16.788691
 30
0.0
 11
132.578674
 21
16.168464
 31
0.0
  0
LINE
  5
266
100
AcDbEntity
  8
枠_
  6
CONTINUOUS
 62
     2
100
AcDbLine
 10
131.548447
 20
16.582199
 30
0.0
 11
132.578659
 21
15.860799
 31
0.0
  0
LINE
  5
267
100
AcDbEntity
  8
枠_
  6
CONTINUOUS
 62
     2
100
AcDbLine
 10
131.394501
 20
16.362313
 30
0.0
 11
132.578659
 21
15.53315
 31
0.0
  0
LINE
  5
268
100
AcDbEntity
  8
枠_
  6
CONTINUOUS
 62
     2
100
AcDbLine
 10
131.139786
 20
16.147223
 30
0.0
 11
131.139786
 21
14.6
 31
0.0
  0
LINE
  5
269
100
AcDbEntity
  8
枠_
  6
CONTINUOUS
 62
     2
100
AcDbLine
 10
131.431625
 20
16.136316
 30
0.0
 11
131.431625
 21
14.6
 31
0.0
  0
LINE
  5
26A
100
AcDbEntity
  8
枠_
  6
CONTINUOUS
 62
     2
100
AcDbLine
 10
131.72348
 20
15.931957
 30
0.0
 11
131.72348
 21
14.6
 31
0.0
  0
LINE
  5
26B
100
AcDbEntity
  8
枠_
  6
CONTINUOUS
 62
     2
100
AcDbLine
 10
133.861374
 20
15.017991
 30
0.0
 11
133.861374
 21
18.635196
 31
0.0
  0
LINE
  5
26C
100
AcDbEntity
  8
枠_
  6
CONTINUOUS
 62
     2
100
AcDbLine
 10
134.153214
 20
15.017991
 30
0.0
 11
134.153214
 21
18.635196
 31
0.0
  0
LINE
  5
26D
100
AcDbEntity
  8
枠_
  6
CONTINUOUS
 62
     2
100
AcDbLine
 10
134.445068
 20
15.017991
 30
0.0
 11
134.445068
 21
18.635196
 31
0.0
  0
LINE
  5
26E
100
AcDbEntity
  8
枠_
  6
CONTINUOUS
 62
     2
100
AcDbLine
 10
132.94249
 20
17.534403
 30
0.0
 11
133.661377
 21
17.534403
 31
0.0
  0
LINE
  5
26F
100
AcDbEntity
  8
枠_
  6
CONTINUOUS
 62
     2
100
AcDbLine
 10
132.94249
 20
17.28242
 30
0.0
 11
133.661377
 21
17.28242
 31
0.0
  0
LINE
  5
270
100
AcDbEntity
  8
枠_
  6
CONTINUOUS
 62
     2
100
AcDbLine
 10
134.645065
 20
17.534403
 30
0.0
 11
135.364777
 21
17.534403
 31
0.0
  0
LINE
  5
271
100
AcDbEntity
  8
枠_
  6
CONTINUOUS
 62
     2
100
AcDbLine
 10
134.645065
 20
17.262419
 30
0.0
 11
135.364777
 21
17.262419
 31
0.0
  0
LINE
  5
272
100
AcDbEntity
  8
枠_
  6
CONTINUOUS
 62
     2
100
AcDbLine
 10
132.539093
 20
14.817992
 30
0.0
 11
135.465668
 21
14.817992
 31
0.0
  0
LINE
  5
273
100
AcDbEntity
  8
枠_
  6
CONTINUOUS
 62
     2
100
AcDbLine
 10
132.539093
 20
14.565993
 30
0.0
 11
135.465668
 21
14.565993
 31
0.0
  0
LINE
  5
274
100
AcDbEntity
  8
枠_
  6
CONTINUOUS
 62
     2
100
AcDbLine
 10
109.747559
 20
16.335364
 30
0.0
 11
111.878403
 21
16.335364
 31
0.0
  0
LINE
  5
275
100
AcDbEntity
  8
枠_
  6
CONTINUOUS
 62
     7
100
AcDbLine
 10
138.061362
 20
48.379663
 30
0.0
 11
138.061362
 21
145.2
 31
0.0
  0
LINE
  5
276
100
AcDbEntity
  8
枠_
  6
CONTINUOUS
 62
     7
100
AcDbLine
 10
78.1
 20
48.379663
 30
0.0
 11
138.061362
 21
48.379663
 31
0.0
  0
TEXT
  5
277
100
AcDbEntity
  8
枠_
  6
CONTINUOUS
 62
     2
100
AcDbText
 10
137.579489
 20
61.304977
 30
0.0
 40
4.0
  1
Ｗ．Ｌ
 50
90.0
 41
0.833
  7
EXCADSTD
 72
     5
 11
137.579489
 21
73.204977
 31
0.0
100
AcDbText
  0
TEXT
  5
278
100
AcDbEntity
  8
枠_
  6
CONTINUOUS
 62
     6
100
AcDbText
 10
58.4
 20
19.95
 30
0.0
 40
3.0
  1
ゆ
 41
0.98
  7
EXCADSTD
 72
     5
 11
61.2
 21
19.95
 31
0.0
100
AcDbText
  0
TEXT
  5
279
100
AcDbEntity
  8
枠_
  6
CONTINUOUS
 62
     6
100
AcDbText
 10
49.6
 20
20.0
 30
0.0
 40
5.0
  1
間瀬
 41
0.7728
  7
EXCADSTD
 72
     5
 11
58.03272
 21
20.0
 31
0.0
100
AcDbText
  0
TEXT
  5
27A
100
AcDbEntity
  8
枠_
  6
CONTINUOUS
 62
     2
100
AcDbText
 10
93.784692
 20
48.879663
 30
0.0
 40
4.0
  1
Ｆ．Ｌ
 41
0.833
  7
EXCADSTD
 72
     5
 11
105.684692
 21
48.879663
 31
0.0
100
AcDbText
  0
TEXT
  5
27B
100
AcDbEntity
  8
枠_
  6
CONTINUOUS
 62
     7
100
AcDbText
 10
145.325
 20
13.075
 30
0.0
 40
7.0
  1
Ｌ０８１００１０
 41
0.795
  7
EXCADSTD
 72
     5
 11
198.325
 21
13.075
 31
0.0
100
AcDbText
  0
TEXT
  5
27C
100
AcDbEntity
  8
枠_
  6
CONTINUOUS
 62
     6
100
AcDbText
 10
20.55
 20
20.0
 30
0.0
 40
5.0
  1
竹内
 41
0.8568
  7
EXCADSTD
 72
     5
 11
29.89932
 21
20.0
 31
0.0
100
AcDbText
  0
TEXT
  5
27D
100
AcDbEntity
  8
枠_
  6
CONTINUOUS
 62
     6
100
AcDbText
 10
18.104412
 20
12.695007
 30
0.0
 40
2.5
  1
２０
 41
0.75768
  7
EXCADSTD
 72
     5
 11
22.238278
 21
12.695007
 31
0.0
100
AcDbText
  0
TEXT
  5
27E
100
AcDbEntity
  8
枠_
  6
CONTINUOUS
 62
     6
100
AcDbText
 10
23.114412
 20
12.695007
 30
0.0
 40
2.5
  1
２
 41
0.89208
  7
EXCADSTD
 72
     5
 11
25.238412
 21
12.695007
 31
0.0
100
AcDbText
  0
TEXT
  5
27F
100
AcDbEntity
  8
枠_
  6
CONTINUOUS
 62
     6
100
AcDbText
 10
28.304412
 20
12.695007
 30
0.0
 40
2.5
  1
２０
 41
0.75768
  7
EXCADSTD
 72
     5
 11
32.438278
 21
12.695007
 31
0.0
100
AcDbText
  0
TEXT
  5
280
100
AcDbEntity
  8
枠_
  6
CONTINUOUS
 62
     6
100
AcDbText
 10
63.5
 20
20.0
 30
0.0
 40
5.0
  1
古林
 41
0.8568
  7
EXCADSTD
 72
     5
 11
72.84932
 21
20.0
 31
0.0
100
AcDbText
  0
LEADER
  5
281
100
AcDbEntity
  8
洗面器
  6
CONTINUOUS
 62
     6
100
AcDbLeader
  3
STANDARD
 73
     3
 74
     1
 75
     0
 40
0.0
 76
     2
 10
113.348907
 20
126.794746
 30
0.0
 10
104.250967
 20
135.875009
 30
0.0
 77
     6
1001
ACAD
1000
DSTYLE
1002
{
1070
    41
1040
3.5
1070
     5
1000
_EX_NORM
1070
     6
1000
_EX_NORM
1070
     7
1000
_EX_NORM
1070
   341
1005
2C
1002
}
  0
CIRCLE
  5
282
100
AcDbEntity
  8
洗面器
  6
CONTINUOUS
 62
     6
100
AcDbCircle
 10
113.961356
 20
126.361841
 30
0.0
 40
0.75
  0
ARC
  5
283
100
AcDbEntity
  8
洗面器
  6
CONTINUOUS
 62
     6
100
AcDbCircle
 10
126.461356
 20
126.361841
 30
0.0
 40
0.75
100
AcDbArc
 50
114.339852
 51
25.071362
  0
LINE
  5
284
100
AcDbEntity
  8
洗面器
  6
CONTINUOUS
 62
     6
100
AcDbLine
 10
113.961356
 20
128.111841
 30
0.0
 11
113.961356
 21
124.661859
 31
0.0
  0
LINE
  5
285
100
AcDbEntity
  8
洗面器
  6
CONTINUOUS
 62
     6
100
AcDbLine
 10
124.711356
 20
126.361841
 30
0.0
 11
127.539114
 21
126.361841
 31
0.0
  0
LINE
  5
286
100
AcDbEntity
  8
洗面器
  6
CONTINUOUS
 62
     6
100
AcDbLine
 10
126.461356
 20
126.784513
 30
0.0
 11
126.461356
 21
124.661859
 31
0.0
  0
LINE
  5
287
100
AcDbEntity
  8
洗面器
  6
CONTINUOUS
 62
     3
100
AcDbLine
 10
141.711356
 20
126.361841
 30
0.0
 11
146.741537
 21
126.361841
 31
0.0
  0
LINE
  5
288
100
AcDbEntity
  8
洗面器
  6
CONTINUOUS
 62
     6
100
AcDbLine
 10
112.211356
 20
126.361841
 30
0.0
 11
115.711356
 21
126.361841
 31
0.0
  0
LINE
  5
289
100
AcDbEntity
  8
洗面器
  6
CONTINUOUS
 62
     3
100
AcDbLine
 10
92.110037
 20
129.358942
 30
0.0
 11
116.026892
 21
129.358942
 31
0.0
  0
LINE
  5
28A
100
AcDbEntity
  8
洗面器
  6
CONTINUOUS
 62
     3
100
AcDbLine
 10
80.110037
 20
124.379648
 30
0.0
 11
100.465079
 21
124.379648
 31
0.0
  0
POLYLINE
  5
28B
100
AcDbEntity
  8
洗面器
  6
CONTINUOUS
 62
     3
100
AcDb2dPolyline
 66
     1
 10
0.0
 20
0.0
 30
0.0
 70
   128
  0
VERTEX
  5
28C
100
AcDbEntity
  8
洗面器
  6
CONTINUOUS
 62
     3
100
AcDbVertex
100
AcDb2dVertex
 10
124.942099
 20
87.705869
 30
0.0
  0
VERTEX
  5
28D
100
AcDbEntity
  8
洗面器
  6
CONTINUOUS
 62
     3
100
AcDbVertex
100
AcDb2dVertex
 10
121.561362
 20
86.8
 30
0.0
  0
VERTEX
  5
28E
100
AcDbEntity
  8
洗面器
  6
CONTINUOUS
 62
     3
100
AcDbVertex
100
AcDb2dVertex
 10
124.942099
 20
85.894131
 30
0.0
  0
SEQEND
  5
28F
100
AcDbEntity
  8
洗面器
  6
CONTINUOUS
 62
     3
  0
POLYLINE
  5
290
100
AcDbEntity
  8
洗面器
  6
CONTINUOUS
 62
     3
100
AcDb2dPolyline
 66
     1
 10
0.0
 20
0.0
 30
0.0
 70
   128
  0
VERTEX
  5
291
100
AcDbEntity
  8
洗面器
  6
CONTINUOUS
 62
     3
100
AcDbVertex
100
AcDb2dVertex
 10
134.680624
 20
85.894131
 30
0.0
  0
VERTEX
  5
292
100
AcDbEntity
  8
洗面器
  6
CONTINUOUS
 62
     3
100
AcDbVertex
100
AcDb2dVertex
 10
138.061362
 20
86.8
 30
0.0
  0
VERTEX
  5
293
100
AcDbEntity
  8
洗面器
  6
CONTINUOUS
 62
     3
100
AcDbVertex
100
AcDb2dVertex
 10
134.680624
 20
87.705869
 30
0.0
  0
SEQEND
  5
294
100
AcDbEntity
  8
洗面器
  6
CONTINUOUS
 62
     3
  0
LINE
  5
295
100
AcDbEntity
  8
洗面器
  6
CONTINUOUS
 62
     3
100
AcDbLine
 10
121.561362
 20
86.8
 30
0.0
 11
138.061362
 21
86.8
 31
0.0
  0
POLYLINE
  5
296
100
AcDbEntity
  8
洗面器
  6
CONTINUOUS
 62
     3
100
AcDb2dPolyline
 66
     1
 10
0.0
 20
0.0
 30
0.0
 70
   128
  0
VERTEX
  5
297
100
AcDbEntity
  8
洗面器
  6
CONTINUOUS
 62
     3
100
AcDbVertex
100
AcDb2dVertex
 10
143.835669
 20
132.742578
 30
0.0
  0
VERTEX
  5
298
100
AcDbEntity
  8
洗面器
  6
CONTINUOUS
 62
     3
100
AcDbVertex
100
AcDb2dVertex
 10
144.741537
 20
129.361841
 30
0.0
  0
VERTEX
  5
299
100
AcDbEntity
  8
洗面器
  6
CONTINUOUS
 62
     3
100
AcDbVertex
100
AcDb2dVertex
 10
145.647406
 20
132.742578
 30
0.0
  0
SEQEND
  5
29A
100
AcDbEntity
  8
洗面器
  6
CONTINUOUS
 62
     3
  0
POLYLINE
  5
29B
100
AcDbEntity
  8
洗面器
  6
CONTINUOUS
 62
     3
100
AcDb2dPolyline
 66
     1
 10
0.0
 20
0.0
 30
0.0
 70
   128
  0
VERTEX
  5
29C
100
AcDbEntity
  8
洗面器
  6
CONTINUOUS
 62
     3
100
AcDbVertex
100
AcDb2dVertex
 10
145.647406
 20
122.981104
 30
0.0
  0
VERTEX
  5
29D
100
AcDbEntity
  8
洗面器
  6
CONTINUOUS
 62
     3
100
AcDbVertex
100
AcDb2dVertex
 10
144.741537
 20
126.361841
 30
0.0
  0
VERTEX
  5
29E
100
AcDbEntity
  8
洗面器
  6
CONTINUOUS
 62
     3
100
AcDbVertex
100
AcDb2dVertex
 10
143.835669
 20
122.981104
 30
0.0
  0
SEQEND
  5
29F
100
AcDbEntity
  8
洗面器
  6
CONTINUOUS
 62
     3
  0
LINE
  5
2A0
100
AcDbEntity
  8
洗面器
  6
CONTINUOUS
 62
     3
100
AcDbLine
 10
146.741537
 20
129.361841
 30
0.0
 11
138.561362
 21
129.361841
 31
0.0
  0
POLYLINE
  5
2A1
100
AcDbEntity
  8
洗面器
  6
CONTINUOUS
 62
     3
100
AcDb2dPolyline
 66
     1
 10
0.0
 20
0.0
 30
0.0
 70
   128
  0
VERTEX
  5
2A2
100
AcDbEntity
  8
洗面器
  6
CONTINUOUS
 62
     3
100
AcDbVertex
100
AcDb2dVertex
 10
95.015906
 20
120.998911
 30
0.0
  0
VERTEX
  5
2A3
100
AcDbEntity
  8
洗面器
  6
CONTINUOUS
 62
     3
100
AcDbVertex
100
AcDb2dVertex
 10
94.110037
 20
124.379648
 30
0.0
  0
VERTEX
  5
2A4
100
AcDbEntity
  8
洗面器
  6
CONTINUOUS
 62
     3
100
AcDbVertex
100
AcDb2dVertex
 10
93.204169
 20
120.998911
 30
0.0
  0
SEQEND
  5
2A5
100
AcDbEntity
  8
洗面器
  6
CONTINUOUS
 62
     3
  0
POLYLINE
  5
2A6
100
AcDbEntity
  8
洗面器
  6
CONTINUOUS
 62
     3
100
AcDb2dPolyline
 66
     1
 10
0.0
 20
0.0
 30
0.0
 70
   128
  0
VERTEX
  5
2A7
100
AcDbEntity
  8
洗面器
  6
CONTINUOUS
 62
     3
100
AcDbVertex
100
AcDb2dVertex
 10
93.204169
 20
113.542596
 30
0.0
  0
VERTEX
  5
2A8
100
AcDbEntity
  8
洗面器
  6
CONTINUOUS
 62
     3
100
AcDbVertex
100
AcDb2dVertex
 10
94.110037
 20
110.161859
 30
0.0
  0
VERTEX
  5
2A9
100
AcDbEntity
  8
洗面器
  6
CONTINUOUS
 62
     3
100
AcDbVertex
100
AcDb2dVertex
 10
95.015906
 20
113.542596
 30
0.0
  0
SEQEND
  5
2AA
100
AcDbEntity
  8
洗面器
  6
CONTINUOUS
 62
     3
  0
LINE
  5
2AB
100
AcDbEntity
  8
洗面器
  6
CONTINUOUS
 62
     3
100
AcDbLine
 10
92.110037
 20
110.161859
 30
0.0
 11
117.734946
 21
110.161859
 31
0.0
  0
POLYLINE
  5
2AC
100
AcDbEntity
  8
洗面器
  6
CONTINUOUS
 62
     3
100
AcDb2dPolyline
 66
     1
 10
0.0
 20
0.0
 30
0.0
 70
   128
  0
VERTEX
  5
2AD
100
AcDbEntity
  8
洗面器
  6
CONTINUOUS
 62
     3
100
AcDbVertex
100
AcDb2dVertex
 10
93.204169
 20
132.739679
 30
0.0
  0
VERTEX
  5
2AE
100
AcDbEntity
  8
洗面器
  6
CONTINUOUS
 62
     3
100
AcDbVertex
100
AcDb2dVertex
 10
94.110037
 20
129.358942
 30
0.0
  0
VERTEX
  5
2AF
100
AcDbEntity
  8
洗面器
  6
CONTINUOUS
 62
     3
100
AcDbVertex
100
AcDb2dVertex
 10
95.015906
 20
132.739679
 30
0.0
  0
SEQEND
  5
2B0
100
AcDbEntity
  8
洗面器
  6
CONTINUOUS
 62
     3
  0
LINE
  5
2B1
100
AcDbEntity
  8
洗面器
  6
CONTINUOUS
 62
     3
100
AcDbLine
 10
94.110037
 20
133.858942
 30
0.0
 11
94.110037
 21
110.161859
 31
0.0
  0
TEXT
  5
2B2
100
AcDbEntity
  8
洗面器
  6
CONTINUOUS
 62
     2
100
AcDbText
 10
144.391547
 20
132.634424
 30
0.0
 40
4.0
  1
３０
 50
90.0
 41
0.861
  7
EXCADSTD
 72
     5
 11
144.391547
 21
140.150544
 31
0.0
100
AcDbText
  0
TEXT
  5
2B3
100
AcDbEntity
  8
洗面器
  6
CONTINUOUS
 62
     2
100
AcDbText
 10
124.011374
 20
87.150006
 30
0.0
 40
4.0
  1
１６５
 41
0.833
  7
EXCADSTD
 72
     5
 11
135.911374
 21
87.150006
 31
0.0
100
AcDbText
  0
TEXT
  5
2B4
100
AcDbEntity
  8
洗面器
  6
CONTINUOUS
 62
     2
100
AcDbText
 10
93.760031
 20
111.470743
 30
0.0
 40
4.0
  1
１４２
 50
90.0
 41
0.833
  7
EXCADSTD
 72
     5
 11
93.760031
 21
123.370743
 31
0.0
100
AcDbText
  0
TEXT
  5
2B5
100
AcDbEntity
  8
洗面器
  6
CONTINUOUS
 62
     2
100
AcDbText
 10
93.760031
 20
123.570743
 30
0.0
 40
4.0
  1
５０
 50
90.0
 41
0.7875
  7
EXCADSTD
 72
     5
 11
93.760031
 21
130.445243
 31
0.0
100
AcDbText
  0
ARC
  5
2B6
100
AcDbEntity
  8
洗面器
  6
CONTINUOUS
 62
     7
100
AcDbCircle
 10
116.684653
 20
112.752649
 30
0.0
 40
0.999998
100
AcDbArc
 50
8.056659
 51
85.13147
  0
ARC
  5
2B7
100
AcDbEntity
  8
洗面器
  6
CONTINUOUS
 62
     7
100
AcDbCircle
 10
137.079184
 20
128.76185
 30
0.0
 40
0.600006
100
AcDbArc
 50
89.999969
 51
171.607788
  0
ARC
  5
2B8
100
AcDbEntity
  8
洗面器
  6
CONTINUOUS
 62
     7
100
AcDbCircle
 10
132.399008
 20
128.554285
 30
0.0
 40
3.999998
100
AcDbArc
 50
270.974014
 51
351.60791
  0
ARC
  5
2B9
100
AcDbEntity
  8
洗面器
  6
CONTINUOUS
 62
     7
100
AcDbCircle
 10
136.061362
 20
129.233743
 30
0.0
 40
1.999998
100
AcDbArc
 50
325.147537
 51
0.0
  0
ARC
  5
2BA
100
AcDbEntity
  8
洗面器
  6
CONTINUOUS
 62
     7
100
AcDbCircle
 10
129.496176
 20
133.805383
 30
0.0
 40
9.999993
100
AcDbArc
 50
298.933136
 51
325.148224
  0
ARC
  5
2BB
100
AcDbEntity
  8
洗面器
  6
CONTINUOUS
 62
     7
100
AcDbCircle
 10
101.261313
 20
123.689157
 30
0.0
 40
0.699996
100
AcDbArc
 50
89.63028
 51
187.448395
  0
ARC
  5
2BC
100
AcDbEntity
  8
洗面器
  6
CONTINUOUS
 62
     7
100
AcDbCircle
 10
101.876303
 20
118.985406
 30
0.0
 40
0.699999
100
AcDbArc
 50
187.448456
 51
269.650269
  0
LINE
  5
2BD
100
AcDbEntity
  8
洗面器
  6
CONTINUOUS
 62
     7
100
AcDbLine
 10
101.182211
 20
118.894678
 30
0.0
 11
100.567221
 21
123.598413
 31
0.0
  0
ARC
  5
2BE
100
AcDbEntity
  8
洗面器
  6
CONTINUOUS
 62
     7
100
AcDbCircle
 10
109.79183
 20
1450.343164
 30
0.0
 40
1332.081055
100
AcDbArc
 50
269.659439
 51
271.216125
  0
ARC
  5
2BF
100
AcDbEntity
  8
洗面器
  6
CONTINUOUS
 62
     7
100
AcDbCircle
 10
106.439536
 20
74.661859
 30
0.0
 40
50.0
100
AcDbArc
 50
89.999969
 51
96.029068
  0
LINE
  5
2C0
100
AcDbEntity
  8
洗面器
  6
CONTINUOUS
 62
     7
100
AcDbLine
 10
106.439536
 20
124.661859
 30
0.0
 11
133.320395
 21
124.661859
 31
0.0
  0
ARC
  5
2C1
100
AcDbEntity
  8
洗面器
  6
CONTINUOUS
 62
     7
100
AcDbCircle
 10
109.79183
 20
1456.443018
 30
0.0
 40
1332.081055
100
AcDbArc
 50
269.705338
 51
270.975372
  0
ARC
  5
2C2
100
AcDbEntity
  8
洗面器
  6
CONTINUOUS
 62
     7
100
AcDbCircle
 10
102.178793
 20
129.496576
 30
0.0
 40
4.999996
100
AcDbArc
 50
274.442978
 51
308.526688
  0
ARC
  5
2C3
100
AcDbEntity
  8
洗面器
  6
CONTINUOUS
 62
     7
100
AcDbCircle
 10
114.636313
 20
113.850168
 30
0.0
 40
14.999999
100
AcDbArc
 50
96.290146
 51
128.526443
  0
ARC
  5
2C4
100
AcDbEntity
  8
洗面器
  6
CONTINUOUS
 62
     7
100
AcDbCircle
 10
123.948813
 20
29.361841
 30
0.0
 40
100.0
100
AcDbArc
 50
89.999969
 51
96.289978
  0
ARC
  5
2C5
100
AcDbEntity
  8
洗面器
  6
CONTINUOUS
 62
     7
100
AcDbCircle
 10
104.197836
 20
117.573602
 30
0.0
 40
0.699998
100
AcDbArc
 50
55.13382
 51
89.760162
  0
ARC
  5
2C6
100
AcDbEntity
  8
洗面器
  6
CONTINUOUS
 62
     7
100
AcDbCircle
 10
118.89144
 20
138.658838
 30
0.0
 40
25.0
100
AcDbArc
 50
235.128738
 51
265.131088
  0
ARC
  5
2C7
100
AcDbEntity
  8
洗面器
  6
CONTINUOUS
 62
     7
100
AcDbCircle
 10
118.234946
 20
110.361841
 30
0.0
 40
0.200003
100
AcDbArc
 50
188.056549
 51
270.000031
  0
LINE
  5
2C8
100
AcDbEntity
  8
洗面器
  6
CONTINUOUS
 62
     7
100
AcDbLine
 10
118.036948
 20
110.333826
 30
0.0
 11
117.674887
 21
112.892816
 31
0.0
  0
LINE
  5
2C9
100
AcDbEntity
  8
洗面器
  6
CONTINUOUS
 62
     7
100
AcDbLine
 10
118.234946
 20
110.161859
 30
0.0
 11
124.887778
 21
110.161859
 31
0.0
  0
ARC
  5
2CA
100
AcDbEntity
  8
洗面器
  6
CONTINUOUS
 62
     7
100
AcDbCircle
 10
121.561362
 20
163.416528
 30
0.0
 40
50.0
100
AcDbArc
 50
265.986053
 51
275.610397
  0
ARC
  5
2CB
100
AcDbEntity
  8
洗面器
  6
CONTINUOUS
 62
     7
100
AcDbCircle
 10
133.980551
 20
117.781412
 30
0.0
 40
0.699992
100
AcDbArc
 50
91.04921
 51
150.130447
  0
ARC
  5
2CC
100
AcDbEntity
  8
洗面器
  6
CONTINUOUS
 62
     7
100
AcDbCircle
 10
125.569418
 20
122.612939
 30
0.0
 40
9.000007
100
AcDbArc
 50
275.610397
 51
330.126221
  0
ARC
  5
2CD
100
AcDbEntity
  8
洗面器
  6
CONTINUOUS
 62
     7
100
AcDbCircle
 10
121.743246
 20
120.070123
 30
0.0
 40
9.999994
100
AcDbArc
 50
288.37706
 51
329.486343
  0
ARC
  5
2CE
100
AcDbEntity
  8
洗面器
  6
CONTINUOUS
 62
     7
100
AcDbCircle
 10
125.584799
 20
110.29812
 30
0.0
 40
0.500003
100
AcDbArc
 50
111.46698
 51
174.776932
  0
ARC
  5
2CF
100
AcDbEntity
  8
洗面器
  6
CONTINUOUS
 62
     7
100
AcDbCircle
 10
124.887778
 20
110.361841
 30
0.0
 40
0.199997
100
AcDbArc
 50
270.000031
 51
354.777863
  0
LINE
  5
2D0
100
AcDbEntity
  8
洗面器
  6
CONTINUOUS
 62
     7
100
AcDbLine
 10
136.485922
 20
128.84939
 30
0.0
 11
136.356039
 21
127.970499
 31
0.0
  0
LINE
  5
2D1
100
AcDbEntity
  8
洗面器
  6
CONTINUOUS
 62
     7
100
AcDbLine
 10
123.948813
 20
129.361841
 30
0.0
 11
129.770265
 21
129.361841
 31
0.0
  0
LINE
  5
2D2
100
AcDbEntity
  8
洗面器
  6
CONTINUOUS
 62
     7
100
AcDbLine
 10
131.752411
 20
129.361841
 30
0.0
 11
138.061362
 21
129.361841
 31
0.0
  0
LINE
  5
2D3
100
AcDbEntity
  8
洗面器
  6
CONTINUOUS
 62
     3
100
AcDbLine
 10
144.741537
 20
139.2
 30
0.0
 11
144.741537
 21
121.861841
 31
0.0
  0
ARC
  5
2D4
100
AcDbEntity
  8
洗面器
  6
CONTINUOUS
 62
     6
100
AcDbCircle
 10
139.88847
 20
123.669261
 30
0.0
 40
3.0
100
AcDbArc
 50
63.834961
 51
83.821533
  0
ARC
  5
2D5
100
AcDbEntity
  8
洗面器
  6
CONTINUOUS
 62
     6
100
AcDbCircle
 10
139.88847
 20
129.054424
 30
0.0
 40
3.0
100
AcDbArc
 50
276.178467
 51
296.165039
  0
LINE
  5
2D6
100
AcDbEntity
  8
洗面器
  6
CONTINUOUS
 62
     6
100
AcDbLine
 10
138.061355
 20
126.071849
 30
0.0
 11
140.211346
 21
126.071849
 31
0.0
  0
LINE
  5
2D7
100
AcDbEntity
  8
洗面器
  6
CONTINUOUS
 62
     6
100
AcDbLine
 10
138.061355
 20
126.651836
 30
0.0
 11
140.211346
 21
126.651836
 31
0.0
  0
TEXT
  5
2D8
100
AcDbEntity
  8
洗面器
  6
CONTINUOUS
 62
     2
100
AcDbText
 10
89.401935
 20
136.225015
 30
0.0
 40
4.0
  1
ＮＴ７Ａ
 41
0.819
  7
EXCADSTD
 72
     5
 11
105.001935
 21
136.225015
 31
0.0
100
AcDbText
  0
LINE
  5
2D9
100
AcDbEntity
  8
洗面器
  6
CONTINUOUS
 62
     6
100
AcDbLine
 10
89.401935
 20
135.875009
 30
0.0
 11
104.250967
 21
135.875009
 31
0.0
  0
LINE
  5
2DA
100
AcDbEntity
  8
洗面器
  6
EXLTYPE3
 62
     6
100
AcDbLine
 10
108.362906
 20
181.481116
 30
0.0
 11
139.041754
 21
212.159964
 31
0.0
  0
CIRCLE
  5
2DB
100
AcDbEntity
  8
洗面器
  6
CONTINUOUS
 62
     6
100
AcDbCircle
 10
121.561392
 20
194.679617
 30
0.0
 40
1.75
  0
CIRCLE
  5
2DC
100
AcDbEntity
  8
洗面器
  6
CONTINUOUS
 62
     6
100
AcDbCircle
 10
121.561392
 20
194.679617
 30
0.0
 40
2.7
  0
LINE
  5
2DD
100
AcDbEntity
  8
洗面器
  6
CONTINUOUS
 62
     6
100
AcDbLine
 10
122.69277
 20
193.548239
 30
0.0
 11
124.741385
 21
191.499625
 31
0.0
  0
LINE
  5
2DE
100
AcDbEntity
  8
洗面器
  6
CONTINUOUS
 62
     6
100
AcDbLine
 10
118.550681
 20
197.690329
 30
0.0
 11
120.430014
 21
195.810995
 31
0.0
  0
POLYLINE
  5
2DF
100
AcDbEntity
  8
洗面器
  6
CONTINUOUS
 62
     3
100
AcDb2dPolyline
 66
     1
 10
0.0
 20
0.0
 30
0.0
 70
   128
  0
VERTEX
  5
2E0
100
AcDbEntity
  8
洗面器
  6
CONTINUOUS
 62
     3
100
AcDbVertex
100
AcDb2dVertex
 10
120.929892
 20
180.766287
 30
0.0
  0
VERTEX
  5
2E1
100
AcDbEntity
  8
洗面器
  6
CONTINUOUS
 62
     3
100
AcDbVertex
100
AcDb2dVertex
 10
119.179892
 20
177.73519
 30
0.0
  0
VERTEX
  5
2E2
100
AcDbEntity
  8
洗面器
  6
CONTINUOUS
 62
     3
100
AcDbVertex
100
AcDb2dVertex
 10
122.210974
 20
179.48519
 30
0.0
  0
SEQEND
  5
2E3
100
AcDbEntity
  8
洗面器
  6
CONTINUOUS
 62
     3
  0
POLYLINE
  5
2E4
100
AcDbEntity
  8
洗面器
  6
CONTINUOUS
 62
     3
100
AcDb2dPolyline
 66
     1
 10
0.0
 20
0.0
 30
0.0
 70
   128
  0
VERTEX
  5
2E5
100
AcDbEntity
  8
洗面器
  6
CONTINUOUS
 62
     3
100
AcDbVertex
100
AcDb2dVertex
 10
132.986243
 20
190.260474
 30
0.0
  0
VERTEX
  5
2E6
100
AcDbEntity
  8
洗面器
  6
CONTINUOUS
 62
     3
100
AcDbVertex
100
AcDb2dVertex
 10
134.736243
 20
193.291556
 30
0.0
  0
VERTEX
  5
2E7
100
AcDbEntity
  8
洗面器
  6
CONTINUOUS
 62
     3
100
AcDbVertex
100
AcDb2dVertex
 10
131.705145
 20
191.541556
 30
0.0
  0
SEQEND
  5
2E8
100
AcDbEntity
  8
洗面器
  6
CONTINUOUS
 62
     3
  0
LINE
  5
2E9
100
AcDbEntity
  8
洗面器
  6
CONTINUOUS
 62
     3
100
AcDbLine
 10
119.179892
 20
177.73519
 30
0.0
 11
134.736243
 21
193.291556
 31
0.0
  0
POLYLINE
  5
2EA
100
AcDbEntity
  8
洗面器
  6
CONTINUOUS
 62
     3
100
AcDb2dPolyline
 66
     1
 10
0.0
 20
0.0
 30
0.0
 70
   128
  0
VERTEX
  5
2EB
100
AcDbEntity
  8
洗面器
  6
CONTINUOUS
 62
     3
100
AcDbVertex
100
AcDb2dVertex
 10
151.647406
 20
207.798911
 30
0.0
  0
VERTEX
  5
2EC
100
AcDbEntity
  8
洗面器
  6
CONTINUOUS
 62
     3
100
AcDbVertex
100
AcDb2dVertex
 10
150.741537
 20
211.179648
 30
0.0
  0
VERTEX
  5
2ED
100
AcDbEntity
  8
洗面器
  6
CONTINUOUS
 62
     3
100
AcDbVertex
100
AcDb2dVertex
 10
149.835669
 20
207.798911
 30
0.0
  0
SEQEND
  5
2EE
100
AcDbEntity
  8
洗面器
  6
CONTINUOUS
 62
     3
  0
POLYLINE
  5
2EF
100
AcDbEntity
  8
洗面器
  6
CONTINUOUS
 62
     3
100
AcDb2dPolyline
 66
     1
 10
0.0
 20
0.0
 30
0.0
 70
   128
  0
VERTEX
  5
2F0
100
AcDbEntity
  8
洗面器
  6
CONTINUOUS
 62
     3
100
AcDbVertex
100
AcDb2dVertex
 10
149.835669
 20
177.060416
 30
0.0
  0
VERTEX
  5
2F1
100
AcDbEntity
  8
洗面器
  6
CONTINUOUS
 62
     3
100
AcDbVertex
100
AcDb2dVertex
 10
150.741537
 20
173.679678
 30
0.0
  0
VERTEX
  5
2F2
100
AcDbEntity
  8
洗面器
  6
CONTINUOUS
 62
     3
100
AcDbVertex
100
AcDb2dVertex
 10
151.647406
 20
177.060416
 30
0.0
  0
SEQEND
  5
2F3
100
AcDbEntity
  8
洗面器
  6
CONTINUOUS
 62
     3
  0
LINE
  5
2F4
100
AcDbEntity
  8
洗面器
  6
CONTINUOUS
 62
     3
100
AcDbLine
 10
150.741537
 20
211.179648
 30
0.0
 11
150.741537
 21
173.679678
 31
0.0
  0
LINE
  5
2F5
100
AcDbEntity
  8
洗面器
  6
CONTINUOUS
 62
     3
100
AcDbLine
 10
152.741537
 20
211.179648
 30
0.0
 11
139.161353
 21
211.179648
 31
0.0
  0
POLYLINE
  5
2F6
100
AcDbEntity
  8
洗面器
  6
CONTINUOUS
 62
     3
100
AcDb2dPolyline
 66
     1
 10
0.0
 20
0.0
 30
0.0
 70
   128
  0
VERTEX
  5
2F7
100
AcDbEntity
  8
洗面器
  6
CONTINUOUS
 62
     3
100
AcDbVertex
100
AcDb2dVertex
 10
145.647406
 20
196.198904
 30
0.0
  0
VERTEX
  5
2F8
100
AcDbEntity
  8
洗面器
  6
CONTINUOUS
 62
     3
100
AcDbVertex
100
AcDb2dVertex
 10
144.741537
 20
199.579642
 30
0.0
  0
VERTEX
  5
2F9
100
AcDbEntity
  8
洗面器
  6
CONTINUOUS
 62
     3
100
AcDbVertex
100
AcDb2dVertex
 10
143.835669
 20
196.198904
 30
0.0
  0
SEQEND
  5
2FA
100
AcDbEntity
  8
洗面器
  6
CONTINUOUS
 62
     3
  0
POLYLINE
  5
2FB
100
AcDbEntity
  8
洗面器
  6
CONTINUOUS
 62
     3
100
AcDb2dPolyline
 66
     1
 10
0.0
 20
0.0
 30
0.0
 70
   128
  0
VERTEX
  5
2FC
100
AcDbEntity
  8
洗面器
  6
CONTINUOUS
 62
     3
100
AcDbVertex
100
AcDb2dVertex
 10
94.017996
 20
186.750418
 30
0.0
  0
VERTEX
  5
2FD
100
AcDbEntity
  8
洗面器
  6
CONTINUOUS
 62
     3
100
AcDbVertex
100
AcDb2dVertex
 10
90.986914
 20
188.500418
 30
0.0
  0
VERTEX
  5
2FE
100
AcDbEntity
  8
洗面器
  6
CONTINUOUS
 62
     3
100
AcDbVertex
100
AcDb2dVertex
 10
92.736914
 20
185.469336
 30
0.0
  0
SEQEND
  5
2FF
100
AcDbEntity
  8
洗面器
  6
CONTINUOUS
 62
     3
  0
POLYLINE
  5
300
100
AcDbEntity
  8
洗面器
  6
CONTINUOUS
 62
     3
100
AcDb2dPolyline
 66
     1
 10
0.0
 20
0.0
 30
0.0
 70
   128
  0
VERTEX
  5
301
100
AcDbEntity
  8
洗面器
  6
CONTINUOUS
 62
     3
100
AcDbVertex
100
AcDb2dVertex
 10
112.350989
 20
165.855246
 30
0.0
  0
VERTEX
  5
302
100
AcDbEntity
  8
洗面器
  6
CONTINUOUS
 62
     3
100
AcDbVertex
100
AcDb2dVertex
 10
115.382086
 20
164.105246
 30
0.0
  0
VERTEX
  5
303
100
AcDbEntity
  8
洗面器
  6
CONTINUOUS
 62
     3
100
AcDbVertex
100
AcDb2dVertex
 10
113.632086
 20
167.136328
 30
0.0
  0
SEQEND
  5
304
100
AcDbEntity
  8
洗面器
  6
CONTINUOUS
 62
     3
  0
LINE
  5
305
100
AcDbEntity
  8
洗面器
  6
CONTINUOUS
 62
     3
100
AcDbLine
 10
90.986914
 20
188.500418
 30
0.0
 11
115.382086
 21
164.105246
 31
0.0
  0
POLYLINE
  5
306
100
AcDbEntity
  8
洗面器
  6
CONTINUOUS
 62
     3
100
AcDb2dPolyline
 66
     1
 10
0.0
 20
0.0
 30
0.0
 70
   128
  0
VERTEX
  5
307
100
AcDbEntity
  8
洗面器
  6
CONTINUOUS
 62
     3
100
AcDbVertex
100
AcDb2dVertex
 10
111.467093
 20
158.253851
 30
0.0
  0
VERTEX
  5
308
100
AcDbEntity
  8
洗面器
  6
CONTINUOUS
 62
     3
100
AcDbVertex
100
AcDb2dVertex
 10
114.49819
 20
156.503851
 30
0.0
  0
VERTEX
  5
309
100
AcDbEntity
  8
洗面器
  6
CONTINUOUS
 62
     3
100
AcDbVertex
100
AcDb2dVertex
 10
112.74819
 20
159.534933
 30
0.0
  0
SEQEND
  5
30A
100
AcDbEntity
  8
洗面器
  6
CONTINUOUS
 62
     3
  0
POLYLINE
  5
30B
100
AcDbEntity
  8
洗面器
  6
CONTINUOUS
 62
     3
100
AcDb2dPolyline
 66
     1
 10
0.0
 20
0.0
 30
0.0
 70
   128
  0
VERTEX
  5
30C
100
AcDbEntity
  8
洗面器
  6
CONTINUOUS
 62
     3
100
AcDbVertex
100
AcDb2dVertex
 10
86.416602
 20
185.866507
 30
0.0
  0
VERTEX
  5
30D
100
AcDbEntity
  8
洗面器
  6
CONTINUOUS
 62
     3
100
AcDbVertex
100
AcDb2dVertex
 10
83.385519
 20
187.616507
 30
0.0
  0
VERTEX
  5
30E
100
AcDbEntity
  8
洗面器
  6
CONTINUOUS
 62
     3
100
AcDbVertex
100
AcDb2dVertex
 10
85.135519
 20
184.585425
 30
0.0
  0
SEQEND
  5
30F
100
AcDbEntity
  8
洗面器
  6
CONTINUOUS
 62
     3
  0
LINE
  5
310
100
AcDbEntity
  8
洗面器
  6
CONTINUOUS
 62
     3
100
AcDbLine
 10
114.49819
 20
156.503851
 30
0.0
 11
83.385519
 21
187.616507
 31
0.0
  0
POLYLINE
  5
311
100
AcDbEntity
  8
洗面器
  6
CONTINUOUS
 62
     3
100
AcDb2dPolyline
 66
     1
 10
0.0
 20
0.0
 30
0.0
 70
   128
  0
VERTEX
  5
312
100
AcDbEntity
  8
洗面器
  6
CONTINUOUS
 62
     3
100
AcDbVertex
100
AcDb2dVertex
 10
143.835669
 20
190.460379
 30
0.0
  0
VERTEX
  5
313
100
AcDbEntity
  8
洗面器
  6
CONTINUOUS
 62
     3
100
AcDbVertex
100
AcDb2dVertex
 10
144.741537
 20
187.079642
 30
0.0
  0
VERTEX
  5
314
100
AcDbEntity
  8
洗面器
  6
CONTINUOUS
 62
     3
100
AcDbVertex
100
AcDb2dVertex
 10
145.647406
 20
190.460379
 30
0.0
  0
SEQEND
  5
315
100
AcDbEntity
  8
洗面器
  6
CONTINUOUS
 62
     3
  0
LINE
  5
316
100
AcDbEntity
  8
洗面器
  6
CONTINUOUS
 62
     3
100
AcDbLine
 10
141.71134
 20
199.579642
 30
0.0
 11
146.661353
 21
199.579642
 31
0.0
  0
LINE
  5
317
100
AcDbEntity
  8
洗面器
  6
CONTINUOUS
 62
     3
100
AcDbLine
 10
141.71134
 20
187.079642
 30
0.0
 11
146.661353
 21
187.079642
 31
0.0
  0
LINE
  5
318
100
AcDbEntity
  8
洗面器
  6
CONTINUOUS
 62
     3
100
AcDbLine
 10
129.031897
 20
173.679678
 30
0.0
 11
152.741537
 21
173.679678
 31
0.0
  0
LINE
  5
319
100
AcDbEntity
  8
洗面器
  6
CONTINUOUS
 62
     3
100
AcDbLine
 10
128.841955
 20
199.185844
 30
0.0
 11
136.150458
 21
191.877341
 31
0.0
  0
LINE
  5
31A
100
AcDbEntity
  8
洗面器
  6
CONTINUOUS
 62
     3
100
AcDbLine
 10
112.959081
 20
183.956001
 30
0.0
 11
120.594107
 21
176.320975
 31
0.0
  0
LINE
  5
31B
100
AcDbEntity
  8
洗面器
  6
CONTINUOUS
 62
     3
100
AcDbLine
 10
113.967856
 20
162.691016
 30
0.0
 11
130.415854
 21
179.138999
 31
0.0
  0
LINE
  5
31C
100
AcDbEntity
  8
洗面器
  6
CONTINUOUS
 62
     3
100
AcDbLine
 10
89.572668
 20
187.086172
 30
0.0
 11
106.020682
 21
203.534172
 31
0.0
  0
LINE
  5
31D
100
AcDbEntity
  8
洗面器
  6
CONTINUOUS
 62
     3
100
AcDbLine
 10
81.971274
 20
186.202261
 30
0.0
 11
102.429633
 21
206.660621
 31
0.0
  0
LINE
  5
31E
100
AcDbEntity
  8
洗面器
  6
CONTINUOUS
 62
     3
100
AcDbLine
 10
113.08396
 20
155.089621
 30
0.0
 11
133.542304
 21
175.547965
 31
0.0
  0
TEXT
  5
31F
100
AcDbEntity
  8
洗面器
  6
CONTINUOUS
 62
     2
100
AcDbText
 10
144.391547
 20
199.579611
 30
0.0
 40
4.0
  1
１１６
 50
90.0
 41
0.805
  7
EXCADSTD
 72
     5
 11
144.391547
 21
211.079611
 31
0.0
100
AcDbText
  0
TEXT
  5
320
100
AcDbEntity
  8
洗面器
  6
CONTINUOUS
 62
     2
100
AcDbText
 10
150.391547
 20
186.62966
 30
0.0
 40
4.0
  1
３７５
 50
90.0
 41
0.833
  7
EXCADSTD
 72
     5
 11
150.391547
 21
198.52966
 31
0.0
100
AcDbText
  0
TEXT
  5
321
100
AcDbEntity
  8
洗面器
  6
CONTINUOUS
 62
     2
100
AcDbText
 10
122.491812
 20
181.542059
 30
0.0
 40
4.0
  1
２２０
 50
45.000031
 41
0.833
  7
EXCADSTD
 72
     5
 11
130.906378
 21
189.956634
 31
0.0
100
AcDbText
  0
TEXT
  5
322
100
AcDbEntity
  8
洗面器
  6
CONTINUOUS
 62
     2
100
AcDbText
 10
99.394431
 20
180.587866
 30
0.0
 40
4.0
  1
３４５
 50
315.0
 41
0.833
  7
EXCADSTD
 72
     5
 11
107.809001
 21
172.173296
 31
0.0
100
AcDbText
  0
TEXT
  5
323
100
AcDbEntity
  8
洗面器
  6
CONTINUOUS
 62
     2
100
AcDbText
 10
95.151785
 20
176.34519
 30
0.0
 40
4.0
  1
４４０
 50
315.000031
 41
0.833
  7
EXCADSTD
 72
     5
 11
103.56636
 21
167.930624
 31
0.0
100
AcDbText
  0
ARC
  5
324
100
AcDbEntity
  8
洗面器
  6
CONTINUOUS
 62
     7
100
AcDbCircle
 10
130.061346
 20
183.380698
 30
0.0
 40
8.00001
100
AcDbArc
 50
315.0
 51
0.0
  0
ARC
  5
325
100
AcDbEntity
  8
洗面器
  6
CONTINUOUS
 62
     7
100
AcDbCircle
 10
134.987097
 20
208.587912
 30
0.0
 40
36.0
100
AcDbArc
 50
227.172333
 51
253.337143
  0
ARC
  5
326
100
AcDbEntity
  8
洗面器
  6
CONTINUOUS
 62
     7
100
AcDbCircle
 10
127.531897
 20
183.679678
 30
0.0
 40
10.000005
100
AcDbArc
 50
253.337143
 51
314.999939
  0
ARC
  5
327
100
AcDbEntity
  8
洗面器
  6
CONTINUOUS
 62
     7
100
AcDbCircle
 10
131.561346
 20
204.679648
 30
0.0
 40
5.0
100
AcDbArc
 50
0.0
 51
89.999969
  0
ARC
  5
328
100
AcDbEntity
  8
洗面器
  6
CONTINUOUS
 62
     2
100
AcDbCircle
 10
131.561346
 20
204.679648
 30
0.0
 40
4.300003
100
AcDbArc
 50
0.0
 51
89.999969
  0
LINE
  5
329
100
AcDbEntity
  8
洗面器
  6
CONTINUOUS
 62
     7
100
AcDbLine
 10
109.75231
 20
209.679648
 30
0.0
 11
131.561346
 21
209.679648
 31
0.0
  0
ARC
  5
32A
100
AcDbEntity
  8
洗面器
  6
CONTINUOUS
 62
     2
100
AcDbCircle
 10
109.052313
 20
200.979666
 30
0.0
 40
8.0
100
AcDbArc
 50
89.999969
 51
131.452774
  0
ARC
  5
32B
100
AcDbEntity
  8
洗面器
  6
CONTINUOUS
 62
     2
100
AcDbCircle
 10
127.861334
 20
182.170645
 30
0.0
 40
8.000004
100
AcDbArc
 50
318.547241
 51
0.0
  0
ARC
  5
32C
100
AcDbEntity
  8
洗面器
  6
CONTINUOUS
 62
     7
100
AcDbCircle
 10
128.561331
 20
182.870627
 30
0.0
 40
7.999993
100
AcDbArc
 50
311.452667
 51
0.0
  0
ARC
  5
32D
100
AcDbEntity
  8
洗面器
  6
CONTINUOUS
 62
     7
100
AcDbCircle
 10
137.661353
 20
210.779654
 30
0.0
 40
0.399994
100
AcDbArc
 50
0.0
 51
89.999969
  0
LINE
  5
32E
100
AcDbEntity
  8
洗面器
  6
CONTINUOUS
 62
     7
100
AcDbLine
 10
134.602988
 20
176.608588
 30
0.0
 11
135.718207
 21
177.723822
 31
0.0
  0
LINE
  5
32F
100
AcDbEntity
  8
洗面器
  6
CONTINUOUS
 62
     7
100
AcDbLine
 10
104.605505
 20
208.836508
 30
0.0
 11
103.490271
 21
207.721274
 31
0.0
  0
LINE
  5
330
100
AcDbEntity
  8
洗面器
  6
CONTINUOUS
 62
     7
100
AcDbLine
 10
138.061362
 20
183.380698
 30
0.0
 11
138.061346
 21
210.779654
 31
0.0
  0
LINE
  5
331
100
AcDbEntity
  8
洗面器
  6
CONTINUOUS
 62
     7
100
AcDbLine
 10
110.262366
 20
211.179663
 30
0.0
 11
137.661353
 21
211.179648
 31
0.0
  0
ARC
  5
332
100
AcDbEntity
  8
洗面器
  6
CONTINUOUS
 62
     7
100
AcDbCircle
 10
128.868964
 20
201.987265
 30
0.0
 40
27.0
100
AcDbArc
 50
222.827621
 51
227.172607
  0
ARC
  5
333
100
AcDbEntity
  8
洗面器
  6
CONTINUOUS
 62
     7
100
AcDbCircle
 10
126.526739
 20
185.149405
 30
0.0
 40
7.0
100
AcDbArc
 50
262.08078
 51
350.619263
  0
ARC
  5
334
100
AcDbEntity
  8
洗面器
  6
CONTINUOUS
 62
     7
100
AcDbCircle
 10
109.75231
 20
201.679648
 30
0.0
 40
8.0
100
AcDbArc
 50
89.999969
 51
138.547272
  0
ARC
  5
335
100
AcDbEntity
  8
洗面器
  6
CONTINUOUS
 62
     7
100
AcDbCircle
 10
128.868964
 20
201.987265
 30
0.0
 40
24.0
100
AcDbArc
 50
187.919189
 51
262.08078
  0
ARC
  5
336
100
AcDbEntity
  8
洗面器
  6
CONTINUOUS
 62
     7
100
AcDbCircle
 10
118.533209
 20
187.85015
 30
0.0
 40
15.0
100
AcDbArc
 50
17.613586
 51
32.055878
  0
ARC
  5
337
100
AcDbEntity
  8
洗面器
  6
CONTINUOUS
 62
     7
100
AcDbCircle
 10
115.673865
 20
186.942358
 30
0.0
 40
18.0
100
AcDbArc
 50
350.619207
 51
17.613647
  0
ARC
  5
338
100
AcDbEntity
  8
洗面器
  6
CONTINUOUS
 62
     7
100
AcDbCircle
 10
110.561346
 20
200.650214
 30
0.0
 40
9.99999
100
AcDbArc
 50
135.0
 51
196.662842
  0
ARC
  5
339
100
AcDbEntity
  8
洗面器
  6
CONTINUOUS
 62
     7
100
AcDbCircle
 10
110.262366
 20
203.179663
 30
0.0
 40
8.0
100
AcDbArc
 50
89.999969
 51
135.0
  0
ARC
  5
33A
100
AcDbEntity
  8
洗面器
  6
CONTINUOUS
 62
     7
100
AcDbCircle
 10
112.031073
 20
199.645071
 30
0.0
 40
6.999999
100
AcDbArc
 50
99.380783
 51
187.919113
  0
ARC
  5
33B
100
AcDbEntity
  8
洗面器
  6
CONTINUOUS
 62
     7
100
AcDbCircle
 10
135.46958
 20
208.105429
 30
0.0
 40
36.0
100
AcDbArc
 50
196.662872
 51
222.827621
  0
ARC
  5
33C
100
AcDbEntity
  8
洗面器
  6
CONTINUOUS
 62
     7
100
AcDbCircle
 10
114.731818
 20
191.651541
 30
0.0
 40
15.000006
100
AcDbArc
 50
57.944092
 51
72.386398
  0
ARC
  5
33D
100
AcDbEntity
  8
洗面器
  6
CONTINUOUS
 62
     7
100
AcDbCircle
 10
113.824042
 20
188.792181
 30
0.0
 40
18.0
100
AcDbArc
 50
72.386337
 51
99.380829
  0
ARC
  5
33E
100
AcDbEntity
  8
洗面器
  6
CONTINUOUS
 62
     7
100
AcDbCircle
 10
108.36286
 20
181.481162
 30
0.0
 40
27.0
100
AcDbArc
 50
32.056061
 51
42.695786
  0
ARC
  5
33F
100
AcDbEntity
  8
洗面器
  6
CONTINUOUS
 62
     7
100
AcDbCircle
 10
108.36286
 20
181.481162
 30
0.0
 40
27.0
100
AcDbArc
 50
57.456314
 51
57.944046
  0
LINE
  5
340
100
AcDbEntity
  8
洗面器
  6
CONTINUOUS
 62
     7
100
AcDbLine
 10
136.561346
 20
182.870642
 30
0.0
 11
136.561346
 21
204.679648
 31
0.0
  0
LINE
  5
341
100
AcDbEntity
  8
洗面器
  6
CONTINUOUS
 62
     2
100
AcDbLine
 10
109.052313
 20
208.979666
 30
0.0
 11
113.159384
 21
208.979666
 31
0.0
  0
LINE
  5
342
100
AcDbEntity
  8
洗面器
  6
CONTINUOUS
 62
     2
100
AcDbLine
 10
114.763297
 20
208.979666
 30
0.0
 11
125.659384
 21
208.979651
 31
0.0
  0
LINE
  5
343
100
AcDbEntity
  8
洗面器
  6
CONTINUOUS
 62
     2
100
AcDbLine
 10
127.263297
 20
208.979651
 30
0.0
 11
131.561346
 21
208.979651
 31
0.0
  0
LINE
  5
344
100
AcDbEntity
  8
洗面器
  6
CONTINUOUS
 62
     2
100
AcDbLine
 10
135.861365
 20
182.170645
 30
0.0
 11
135.861365
 21
186.277686
 31
0.0
  0
LINE
  5
345
100
AcDbEntity
  8
洗面器
  6
CONTINUOUS
 62
     2
100
AcDbLine
 10
135.861349
 20
187.881598
 30
0.0
 11
135.861334
 21
198.777686
 31
0.0
  0
LINE
  5
346
100
AcDbEntity
  8
洗面器
  6
CONTINUOUS
 62
     2
100
AcDbLine
 10
135.861334
 20
200.381598
 30
0.0
 11
135.861334
 21
204.679648
 31
0.0
  0
ARC
  5
347
100
AcDbEntity
  8
洗面器
  6
CONTINUOUS
 62
     6
100
AcDbCircle
 10
113.96134
 20
209.329642
 30
0.0
 40
0.75
100
AcDbArc
 50
180.0
 51
0.0
  0
ARC
  5
348
100
AcDbEntity
  8
洗面器
  6
CONTINUOUS
 62
     6
100
AcDbCircle
 10
126.46134
 20
209.329642
 30
0.0
 40
0.75
100
AcDbArc
 50
180.0
 51
0.0
  0
LINE
  5
349
100
AcDbEntity
  8
洗面器
  6
CONTINUOUS
 62
     6
100
AcDbLine
 10
113.21134
 20
209.329642
 30
0.0
 11
114.71134
 21
209.329642
 31
0.0
  0
LINE
  5
34A
100
AcDbEntity
  8
洗面器
  6
CONTINUOUS
 62
     6
100
AcDbLine
 10
125.71134
 20
209.329642
 30
0.0
 11
127.21134
 21
209.329642
 31
0.0
  0
ARC
  5
34B
100
AcDbEntity
  8
洗面器
  6
CONTINUOUS
 62
     6
100
AcDbCircle
 10
136.21134
 20
199.579642
 30
0.0
 40
0.75
100
AcDbArc
 50
90.0
 51
270.0
  0
ARC
  5
34C
100
AcDbEntity
  8
洗面器
  6
CONTINUOUS
 62
     6
100
AcDbCircle
 10
136.21134
 20
187.079642
 30
0.0
 40
0.75
100
AcDbArc
 50
90.0
 51
270.0
  0
LINE
  5
34D
100
AcDbEntity
  8
洗面器
  6
CONTINUOUS
 62
     6
100
AcDbLine
 10
136.21134
 20
186.329642
 30
0.0
 11
136.21134
 21
187.829642
 31
0.0
  0
LINE
  5
34E
100
AcDbEntity
  8
洗面器
  6
CONTINUOUS
 62
     6
100
AcDbLine
 10
136.21134
 20
198.829642
 30
0.0
 11
136.21134
 21
200.329642
 31
0.0
  0
CIRCLE
  5
34F
100
AcDbEntity
  8
洗面器
  6
CONTINUOUS
 62
     6
100
AcDbCircle
 10
133.061346
 20
200.479666
 30
0.0
 40
0.7
  0
CIRCLE
  5
350
100
AcDbEntity
  8
洗面器
  6
CONTINUOUS
 62
     6
100
AcDbCircle
 10
133.061346
 20
200.479666
 30
0.0
 40
0.5
  0
CIRCLE
  5
351
100
AcDbEntity
  8
洗面器
  6
CONTINUOUS
 62
     6
100
AcDbCircle
 10
121.561392
 20
194.679617
 30
0.0
 40
0.3
  0
LINE
  5
352
100
AcDbEntity
  8
洗面器
  6
CONTINUOUS
 62
     6
100
AcDbLine
 10
121.137122
 20
195.103888
 30
0.0
 11
121.985663
 21
194.255347
 31
0.0
  0
ARC
  5
353
100
AcDbEntity
  8
洗面器
  6
CONTINUOUS
 62
     6
100
AcDbCircle
 10
132.552252
 20
199.970572
 30
0.0
 40
0.72
100
AcDbArc
 50
85.635376
 51
4.36462
  0
ARC
  5
354
100
AcDbEntity
  8
洗面器
  6
CONTINUOUS
 62
     6
100
AcDbCircle
 10
132.552252
 20
199.970572
 30
0.0
 40
0.84
100
AcDbArc
 50
81.368423
 51
8.631582
  0
ARC
  5
355
100
AcDbEntity
  8
洗面器
  6
CONTINUOUS
 62
     6
100
AcDbCircle
 10
122.070502
 20
195.188742
 30
0.0
 40
0.72
100
AcDbArc
 50
249.05072
 51
200.951996
  0
ARC
  5
356
100
AcDbEntity
  8
洗面器
  6
CONTINUOUS
 62
     6
100
AcDbCircle
 10
122.070502
 20
195.188742
 30
0.0
 40
0.84
100
AcDbArc
 50
245.365082
 51
204.636292
  0
CIRCLE
  5
357
100
AcDbEntity
  8
洗面器
  6
CONTINUOUS
 62
     6
100
AcDbCircle
 10
122.821722
 20
195.939948
 30
0.0
 40
0.175
  0
CIRCLE
  5
358
100
AcDbEntity
  8
洗面器
  6
CONTINUOUS
 62
     6
100
AcDbCircle
 10
123.138953
 20
196.257193
 30
0.0
 40
0.175
  0
CIRCLE
  5
359
100
AcDbEntity
  8
洗面器
  6
CONTINUOUS
 62
     6
100
AcDbCircle
 10
123.491522
 20
196.567633
 30
0.0
 40
0.175
  0
CIRCLE
  5
35A
100
AcDbEntity
  8
洗面器
  6
CONTINUOUS
 62
     6
100
AcDbCircle
 10
123.404883
 20
197.069876
 30
0.0
 40
0.175
  0
CIRCLE
  5
35B
100
AcDbEntity
  8
洗面器
  6
CONTINUOUS
 62
     6
100
AcDbCircle
 10
123.024191
 20
197.35993
 30
0.0
 40
0.175
  0
CIRCLE
  5
35C
100
AcDbEntity
  8
洗面器
  6
CONTINUOUS
 62
     6
100
AcDbCircle
 10
122.688834
 20
197.695303
 30
0.0
 40
0.175
  0
CIRCLE
  5
35D
100
AcDbEntity
  8
洗面器
  6
CONTINUOUS
 62
     6
100
AcDbCircle
 10
122.580054
 20
198.121298
 30
0.0
 40
0.175
  0
CIRCLE
  5
35E
100
AcDbEntity
  8
洗面器
  6
CONTINUOUS
 62
     6
100
AcDbCircle
 10
122.888235
 20
198.50199
 30
0.0
 40
0.175
  0
CIRCLE
  5
35F
100
AcDbEntity
  8
洗面器
  6
CONTINUOUS
 62
     6
100
AcDbCircle
 10
123.232672
 20
198.18476
 30
0.0
 40
0.175
  0
CIRCLE
  5
360
100
AcDbEntity
  8
洗面器
  6
CONTINUOUS
 62
     6
100
AcDbCircle
 10
123.49552
 20
197.831259
 30
0.0
 40
0.175
  0
CIRCLE
  5
361
100
AcDbEntity
  8
洗面器
  6
CONTINUOUS
 62
     6
100
AcDbCircle
 10
123.803702
 20
197.477759
 30
0.0
 40
0.175
  0
CIRCLE
  5
362
100
AcDbEntity
  8
洗面器
  6
CONTINUOUS
 62
     6
100
AcDbCircle
 10
124.06655
 20
197.124258
 30
0.0
 40
0.175
  0
CIRCLE
  5
363
100
AcDbEntity
  8
洗面器
  6
CONTINUOUS
 62
     6
100
AcDbCircle
 10
124.238776
 20
196.6892
 30
0.0
 40
0.175
  0
CIRCLE
  5
364
100
AcDbEntity
  8
洗面器
  6
CONTINUOUS
 62
     6
100
AcDbCircle
 10
124.374731
 20
196.245062
 30
0.0
 40
0.175
  0
CIRCLE
  5
365
100
AcDbEntity
  8
洗面器
  6
CONTINUOUS
 62
     6
100
AcDbCircle
 10
124.528815
 20
195.782797
 30
0.0
 40
0.175
  0
CIRCLE
  5
366
100
AcDbEntity
  8
洗面器
  6
CONTINUOUS
 62
     6
100
AcDbCircle
 10
124.836996
 20
195.474615
 30
0.0
 40
0.175
  0
CIRCLE
  5
367
100
AcDbEntity
  8
洗面器
  6
CONTINUOUS
 62
     6
100
AcDbCircle
 10
125.263007
 20
195.26615
 30
0.0
 40
0.175
  0
CIRCLE
  5
368
100
AcDbEntity
  8
洗面器
  6
CONTINUOUS
 62
     6
100
AcDbCircle
 10
125.734335
 20
195.08486
 30
0.0
 40
0.175
  0
CIRCLE
  5
369
100
AcDbEntity
  8
洗面器
  6
CONTINUOUS
 62
     6
100
AcDbCircle
 10
126.160345
 20
194.894522
 30
0.0
 40
0.175
  0
CIRCLE
  5
36A
100
AcDbEntity
  8
洗面器
  6
CONTINUOUS
 62
     6
100
AcDbCircle
 10
126.613531
 20
194.776694
 30
0.0
 40
0.175
  0
CIRCLE
  5
36B
100
AcDbEntity
  8
洗面器
  6
CONTINUOUS
 62
     6
100
AcDbCircle
 10
127.066733
 20
194.822012
 30
0.0
 40
0.175
  0
CIRCLE
  5
36C
100
AcDbEntity
  8
洗面器
  6
CONTINUOUS
 62
     6
100
AcDbCircle
 10
127.528998
 20
194.985159
 30
0.0
 40
0.175
  0
CIRCLE
  5
36D
100
AcDbEntity
  8
洗面器
  6
CONTINUOUS
 62
     6
100
AcDbCircle
 10
127.883292
 20
195.301611
 30
0.0
 40
0.175
  0
CIRCLE
  5
36E
100
AcDbEntity
  8
洗面器
  6
CONTINUOUS
 62
     6
100
AcDbCircle
 10
128.205054
 20
195.623389
 30
0.0
 40
0.175
  0
CIRCLE
  5
36F
100
AcDbEntity
  8
洗面器
  6
CONTINUOUS
 62
     6
100
AcDbCircle
 10
128.517767
 20
195.936087
 30
0.0
 40
0.175
  0
CIRCLE
  5
370
100
AcDbEntity
  8
洗面器
  6
CONTINUOUS
 62
     6
100
AcDbCircle
 10
128.844077
 20
196.262396
 30
0.0
 40
0.175
  0
CIRCLE
  5
371
100
AcDbEntity
  8
洗面器
  6
CONTINUOUS
 62
     6
100
AcDbCircle
 10
129.17037
 20
196.588705
 30
0.0
 40
0.175
  0
CIRCLE
  5
372
100
AcDbEntity
  8
洗面器
  6
CONTINUOUS
 62
     6
100
AcDbCircle
 10
129.478552
 20
196.896872
 30
0.0
 40
0.175
  0
CIRCLE
  5
373
100
AcDbEntity
  8
洗面器
  6
CONTINUOUS
 62
     6
100
AcDbCircle
 10
129.77767
 20
197.19599
 30
0.0
 40
0.175
  0
CIRCLE
  5
374
100
AcDbEntity
  8
洗面器
  6
CONTINUOUS
 62
     6
100
AcDbCircle
 10
130.097159
 20
197.500525
 30
0.0
 40
0.175
  0
CIRCLE
  5
375
100
AcDbEntity
  8
洗面器
  6
CONTINUOUS
 62
     6
100
AcDbCircle
 10
130.430273
 20
197.848593
 30
0.0
 40
0.175
  0
CIRCLE
  5
376
100
AcDbEntity
  8
洗面器
  6
CONTINUOUS
 62
     6
100
AcDbCircle
 10
130.765646
 20
198.183966
 30
0.0
 40
0.175
  0
CIRCLE
  5
377
100
AcDbEntity
  8
洗面器
  6
CONTINUOUS
 62
     6
100
AcDbCircle
 10
131.082877
 20
198.501196
 30
0.0
 40
0.175
  0
CIRCLE
  5
378
100
AcDbEntity
  8
洗面器
  6
CONTINUOUS
 62
     6
100
AcDbCircle
 10
131.39559
 20
198.81391
 30
0.0
 40
0.175
  0
CIRCLE
  5
379
100
AcDbEntity
  8
洗面器
  6
CONTINUOUS
 62
     6
100
AcDbCircle
 10
131.703757
 20
199.122092
 30
0.0
 40
0.175
  0
CIRCLE
  5
37A
100
AcDbEntity
  8
洗面器
  6
CONTINUOUS
 62
     6
100
AcDbCircle
 10
131.980215
 20
199.398535
 30
0.0
 40
0.175
  0
ARC
  5
37B
100
AcDbEntity
  8
洗面器
  6
CONTINUOUS
 62
     7
100
AcDbCircle
 10
108.362952
 20
181.48107
 30
0.0
 40
27.0
100
AcDbArc
 50
47.304214
 51
57.943939
  0
LINE
  5
37C
100
AcDbEntity
  8
洗面器
  6
CONTINUOUS
 62
     6
100
AcDbLine
 10
130.761343
 20
209.97
 30
0.0
 11
130.761343
 21
213.779654
 31
0.0
  0
LINE
  5
37D
100
AcDbEntity
  8
洗面器
  6
CONTINUOUS
 62
     6
100
AcDbLine
 10
130.761343
 20
200.903952
 30
0.0
 11
130.761343
 21
206.77
 31
0.0
  0
LINE
  5
37E
100
AcDbEntity
  8
洗面器
  6
CONTINUOUS
 62
     6
100
AcDbLine
 10
130.761343
 20
207.97
 30
0.0
 11
130.761343
 21
208.77
 31
0.0
  0
POLYLINE
  5
37F
100
AcDbEntity
  8
洗面器
  6
CONTINUOUS
 62
     3
100
AcDb2dPolyline
 66
     1
 10
0.0
 20
0.0
 30
0.0
 70
   128
  0
VERTEX
  5
380
100
AcDbEntity
  8
洗面器
  6
CONTINUOUS
 62
     3
100
AcDbVertex
100
AcDb2dVertex
 10
143.835669
 20
207.798911
 30
0.0
  0
VERTEX
  5
381
100
AcDbEntity
  8
洗面器
  6
CONTINUOUS
 62
     3
100
AcDbVertex
100
AcDb2dVertex
 10
144.741537
 20
211.179648
 30
0.0
  0
VERTEX
  5
382
100
AcDbEntity
  8
洗面器
  6
CONTINUOUS
 62
     3
100
AcDbVertex
100
AcDb2dVertex
 10
145.647406
 20
207.798911
 30
0.0
  0
SEQEND
  5
383
100
AcDbEntity
  8
洗面器
  6
CONTINUOUS
 62
     3
  0
POLYLINE
  5
384
100
AcDbEntity
  8
洗面器
  6
CONTINUOUS
 62
     3
100
AcDb2dPolyline
 66
     1
 10
0.0
 20
0.0
 30
0.0
 70
   128
  0
VERTEX
  5
385
100
AcDbEntity
  8
洗面器
  6
CONTINUOUS
 62
     3
100
AcDbVertex
100
AcDb2dVertex
 10
145.647406
 20
202.960379
 30
0.0
  0
VERTEX
  5
386
100
AcDbEntity
  8
洗面器
  6
CONTINUOUS
 62
     3
100
AcDbVertex
100
AcDb2dVertex
 10
144.741537
 20
199.579642
 30
0.0
  0
VERTEX
  5
387
100
AcDbEntity
  8
洗面器
  6
CONTINUOUS
 62
     3
100
AcDbVertex
100
AcDb2dVertex
 10
143.835669
 20
202.960379
 30
0.0
  0
SEQEND
  5
388
100
AcDbEntity
  8
洗面器
  6
CONTINUOUS
 62
     3
  0
LINE
  5
389
100
AcDbEntity
  8
洗面器
  6
CONTINUOUS
 62
     3
100
AcDbLine
 10
144.741537
 20
187.079642
 30
0.0
 11
144.741537
 21
211.179648
 31
0.0
  0
TEXT
  5
38A
100
AcDbEntity
  8
洗面器
  6
CONTINUOUS
 62
     2
100
AcDbText
 10
144.391547
 20
187.797305
 30
0.0
 40
4.0
  1
１２５
 50
90.0
 41
0.805
  7
EXCADSTD
 72
     5
 11
144.391547
 21
199.297305
 31
0.0
100
AcDbText
  0
ARC
  5
38B
100
AcDbEntity
  8
洗面器
  6
CONTINUOUS
 62
     6
100
AcDbCircle
 10
116.653916
 20
213.006765
 30
0.0
 40
3.0
100
AcDbArc
 50
153.834961
 51
173.821533
  0
ARC
  5
38C
100
AcDbEntity
  8
洗面器
  6
CONTINUOUS
 62
     6
100
AcDbCircle
 10
111.268753
 20
213.006765
 30
0.0
 40
3.0
100
AcDbArc
 50
6.178467
 51
26.165039
  0
LINE
  5
38D
100
AcDbEntity
  8
洗面器
  6
CONTINUOUS
 62
     6
100
AcDbLine
 10
114.251328
 20
211.179656
 30
0.0
 11
114.251328
 21
213.329641
 31
0.0
  0
LINE
  5
38E
100
AcDbEntity
  8
洗面器
  6
CONTINUOUS
 62
     6
100
AcDbLine
 10
113.671341
 20
211.179656
 30
0.0
 11
113.671341
 21
213.329641
 31
0.0
  0
ARC
  5
38F
100
AcDbEntity
  8
洗面器
  6
CONTINUOUS
 62
     6
100
AcDbCircle
 10
129.153916
 20
213.006765
 30
0.0
 40
3.0
100
AcDbArc
 50
153.834961
 51
173.821533
  0
ARC
  5
390
100
AcDbEntity
  8
洗面器
  6
CONTINUOUS
 62
     6
100
AcDbCircle
 10
123.768753
 20
213.006765
 30
0.0
 40
3.0
100
AcDbArc
 50
6.178467
 51
26.165039
  0
LINE
  5
391
100
AcDbEntity
  8
洗面器
  6
CONTINUOUS
 62
     6
100
AcDbLine
 10
126.751328
 20
211.179649
 30
0.0
 11
126.751328
 21
213.329641
 31
0.0
  0
LINE
  5
392
100
AcDbEntity
  8
洗面器
  6
CONTINUOUS
 62
     6
100
AcDbLine
 10
126.171341
 20
211.179649
 30
0.0
 11
126.171341
 21
213.329641
 31
0.0
  0
ARC
  5
393
100
AcDbEntity
  8
洗面器
  6
CONTINUOUS
 62
     6
100
AcDbCircle
 10
139.888555
 20
189.772126
 30
0.0
 40
3.0
100
AcDbArc
 50
276.178467
 51
296.165039
  0
ARC
  5
394
100
AcDbEntity
  8
洗面器
  6
CONTINUOUS
 62
     6
100
AcDbCircle
 10
139.888555
 20
184.386963
 30
0.0
 40
3.0
100
AcDbArc
 50
63.834961
 51
83.821533
  0
ARC
  5
395
100
AcDbEntity
  8
洗面器
  6
CONTINUOUS
 62
     6
100
AcDbCircle
 10
139.888555
 20
202.272126
 30
0.0
 40
3.0
100
AcDbArc
 50
276.178467
 51
296.165039
  0
ARC
  5
396
100
AcDbEntity
  8
洗面器
  6
CONTINUOUS
 62
     6
100
AcDbCircle
 10
139.888555
 20
196.886963
 30
0.0
 40
3.0
100
AcDbArc
 50
63.834961
 51
83.821533
  0
LINE
  5
397
100
AcDbEntity
  8
洗面器
  6
CONTINUOUS
 62
     6
100
AcDbLine
 10
138.061439
 20
199.869538
 30
0.0
 11
140.211431
 21
199.869538
 31
0.0
  0
LINE
  5
398
100
AcDbEntity
  8
洗面器
  6
CONTINUOUS
 62
     6
100
AcDbLine
 10
138.061439
 20
199.289551
 30
0.0
 11
140.211431
 21
199.289551
 31
0.0
  0
LINE
  5
399
100
AcDbEntity
  8
洗面器
  6
CONTINUOUS
 62
     6
100
AcDbLine
 10
138.061446
 20
187.369538
 30
0.0
 11
140.211431
 21
187.369538
 31
0.0
  0
LINE
  5
39A
100
AcDbEntity
  8
洗面器
  6
CONTINUOUS
 62
     6
100
AcDbLine
 10
138.061446
 20
186.789551
 30
0.0
 11
140.211431
 21
186.789551
 31
0.0
  0
LEADER
  5
39B
100
AcDbEntity
  8
水栓
  6
CONTINUOUS
 62
     6
100
AcDbLeader
  3
STANDARD
 73
     3
 74
     1
 75
     0
 40
0.0
 76
     2
 10
129.33733
 20
131.47484
 30
0.0
 10
122.5
 20
141.7
 30
0.0
 77
     6
1001
ACAD
1000
DSTYLE
1002
{
1070
    41
1040
3.5
1070
     5
1000
_EX_NORM
1070
     6
1000
_EX_NORM
1070
     7
1000
_EX_NORM
1070
   341
1005
2C
1002
}
  0
ARC
  5
39C
100
AcDbEntity
  8
水栓
  6
CONTINUOUS
 62
     6
100
AcDbCircle
 10
117.214339
 20
122.06225
 30
0.0
 40
12.000006
100
AcDbArc
 50
12.511409
 51
23.653809
  0
LINE
  5
39D
100
AcDbEntity
  8
水栓
  6
CONTINUOUS
 62
     6
100
AcDbLine
 10
130.131789
 20
128.129648
 30
0.0
 11
131.961348
 21
128.129648
 31
0.0
  0
LINE
  5
39E
100
AcDbEntity
  8
水栓
  6
CONTINUOUS
 62
     6
100
AcDbLine
 10
128.114256
 20
126.679651
 30
0.0
 11
128.412383
 21
127.318994
 31
0.0
  0
LINE
  5
39F
100
AcDbEntity
  8
水栓
  6
CONTINUOUS
 62
     6
100
AcDbLine
 10
127.611174
 20
127.079645
 30
0.0
 11
128.114714
 21
128.159479
 31
0.0
  0
ARC
  5
3A0
100
AcDbEntity
  8
水栓
  6
CONTINUOUS
 62
     6
100
AcDbCircle
 10
127.314619
 20
127.842508
 30
0.0
 40
0.749996
100
AcDbArc
 50
103.159515
 51
154.999115
  0
ARC
  5
3A1
100
AcDbEntity
  8
水栓
  6
CONTINUOUS
 62
     6
100
AcDbCircle
 10
128.054533
 20
124.67785
 30
0.0
 40
4.0
100
AcDbArc
 50
76.840332
 51
103.159668
  0
LINE
  5
3A2
100
AcDbEntity
  8
水栓
  6
CONTINUOUS
 62
     6
100
AcDbLine
 10
126.634886
 20
128.159479
 30
0.0
 11
126.111372
 21
127.079645
 31
0.0
  0
ARC
  5
3A3
100
AcDbEntity
  8
水栓
  6
CONTINUOUS
 62
     6
100
AcDbCircle
 10
122.603621
 20
117.196436
 30
0.0
 40
11.999997
100
AcDbArc
 50
38.471025
 51
58.68689
  0
ARC
  5
3A4
100
AcDbEntity
  8
水栓
  6
CONTINUOUS
 62
     6
100
AcDbCircle
 10
128.684279
 20
127.192209
 30
0.0
 40
0.3
100
AcDbArc
 50
58.68689
 51
155.000366
  0
LINE
  5
3A5
100
AcDbEntity
  8
水栓
  6
CONTINUOUS
 62
     6
100
AcDbLine
 10
129.064864
 20
128.542062
 30
0.0
 11
131.500273
 21
127.600671
 31
0.0
  0
ARC
  5
3A6
100
AcDbEntity
  8
水栓
  6
CONTINUOUS
 62
     6
100
AcDbCircle
 10
128.794447
 20
127.842508
 30
0.0
 40
0.750001
100
AcDbArc
 50
68.865677
 51
154.999603
  0
LINE
  5
3A7
100
AcDbEntity
  8
水栓
  6
CONTINUOUS
 62
     6
100
AcDbLine
 10
126.111372
 20
127.079645
 30
0.0
 11
127.611189
 21
127.079645
 31
0.0
  0
LINE
  5
3A8
100
AcDbEntity
  8
水栓
  6
CONTINUOUS
 62
     6
100
AcDbLine
 10
127.611189
 20
127.079645
 30
0.0
 11
128.114256
 21
126.679651
 31
0.0
  0
LINE
  5
3A9
100
AcDbEntity
  8
水栓
  6
CONTINUOUS
 62
     6
100
AcDbLine
 10
126.585707
 20
126.679651
 30
0.0
 11
128.114256
 21
126.679651
 31
0.0
  0
LINE
  5
3AA
100
AcDbEntity
  8
水栓
  6
CONTINUOUS
 62
     6
100
AcDbLine
 10
126.111372
 20
127.079645
 30
0.0
 11
126.585707
 21
126.679651
 31
0.0
  0
LINE
  5
3AB
100
AcDbEntity
  8
水栓
  6
CONTINUOUS
 62
     6
100
AcDbLine
 10
131.961348
 20
128.129648
 30
0.0
 11
131.961348
 21
128.254648
 31
0.0
  0
LINE
  5
3AC
100
AcDbEntity
  8
水栓
  6
CONTINUOUS
 62
     6
100
AcDbLine
 10
131.961348
 20
128.129648
 30
0.0
 11
132.701146
 21
124.661859
 31
0.0
  0
LINE
  5
3AD
100
AcDbEntity
  8
水栓
  6
CONTINUOUS
 62
     6
100
AcDbLine
 10
131.236357
 20
129.544641
 30
0.0
 11
131.236357
 21
130.394647
 31
0.0
  0
LINE
  5
3AE
100
AcDbEntity
  8
水栓
  6
CONTINUOUS
 62
     6
100
AcDbLine
 10
130.286345
 20
129.544641
 30
0.0
 11
130.286345
 21
130.394647
 31
0.0
  0
LINE
  5
3AF
100
AcDbEntity
  8
水栓
  6
CONTINUOUS
 62
     6
100
AcDbLine
 10
131.361357
 20
130.394647
 30
0.0
 11
131.310515
 21
130.808786
 31
0.0
  0
ARC
  5
3B0
100
AcDbEntity
  8
水栓
  6
CONTINUOUS
 62
     6
100
AcDbCircle
 10
130.761351
 20
130.741357
 30
0.0
 40
0.553278
100
AcDbArc
 50
7.000167
 51
172.999832
  0
LINE
  5
3B1
100
AcDbEntity
  8
水栓
  6
CONTINUOUS
 62
     6
100
AcDbLine
 10
130.161345
 20
130.394647
 30
0.0
 11
130.212202
 21
130.808786
 31
0.0
  0
LINE
  5
3B2
100
AcDbEntity
  8
水栓
  6
CONTINUOUS
 62
     6
100
AcDbLine
 10
127.996306
 20
130.394647
 30
0.0
 11
133.526411
 21
130.394647
 31
0.0
  0
ARC
  5
3B3
100
AcDbEntity
  8
水栓
  6
CONTINUOUS
 62
     6
100
AcDbCircle
 10
130.761351
 20
130.236246
 30
0.0
 40
1.708383
100
AcDbArc
 50
65.811432
 51
114.188568
  0
ARC
  5
3B4
100
AcDbEntity
  8
水栓
  6
CONTINUOUS
 62
     6
100
AcDbCircle
 10
132.875014
 20
130.776529
 30
0.0
 40
0.6
100
AcDbArc
 50
6.99977
 51
81.190689
  0
LINE
  5
3B5
100
AcDbEntity
  8
水栓
  6
CONTINUOUS
 62
     6
100
AcDbLine
 10
133.526411
 20
130.394647
 30
0.0
 11
133.470549
 21
130.849649
 31
0.0
  0
ARC
  5
3B6
100
AcDbEntity
  8
水栓
  6
CONTINUOUS
 62
     6
100
AcDbCircle
 10
129.904265
 20
111.605341
 30
0.0
 40
20.0
100
AcDbArc
 50
81.191528
 51
85.534775
  0
ARC
  5
3B7
100
AcDbEntity
  8
水栓
  6
CONTINUOUS
 62
     6
100
AcDbCircle
 10
128.647704
 20
130.776544
 30
0.0
 40
0.6
100
AcDbArc
 50
98.807861
 51
173.000229
  0
ARC
  5
3B8
100
AcDbEntity
  8
水栓
  6
CONTINUOUS
 62
     6
100
AcDbCircle
 10
131.618468
 20
111.605356
 30
0.0
 40
20.0
100
AcDbArc
 50
94.465317
 51
98.808472
  0
LINE
  5
3B9
100
AcDbEntity
  8
水栓
  6
CONTINUOUS
 62
     6
100
AcDbLine
 10
127.996306
 20
130.394647
 30
0.0
 11
128.052168
 21
130.849664
 31
0.0
  0
LINE
  5
3BA
100
AcDbEntity
  8
水栓
  6
CONTINUOUS
 62
     6
100
AcDbLine
 10
130.061354
 20
131.544641
 30
0.0
 11
131.461348
 21
131.544641
 31
0.0
  0
LINE
  5
3BB
100
AcDbEntity
  8
水栓
  6
CONTINUOUS
 62
     6
100
AcDbLine
 10
130.061354
 20
131.794641
 30
0.0
 11
131.461348
 21
131.794641
 31
0.0
  0
LINE
  5
3BC
100
AcDbEntity
  8
水栓
  6
CONTINUOUS
 62
     6
100
AcDbLine
 10
131.461348
 20
131.794641
 30
0.0
 11
131.461348
 21
131.544641
 31
0.0
  0
LINE
  5
3BD
100
AcDbEntity
  8
水栓
  6
CONTINUOUS
 62
     6
100
AcDbLine
 10
130.061354
 20
131.794641
 30
0.0
 11
130.061354
 21
131.544641
 31
0.0
  0
ARC
  5
3BE
100
AcDbEntity
  8
水栓
  6
CONTINUOUS
 62
     6
100
AcDbCircle
 10
129.886343
 20
128.63215
 30
0.0
 40
0.550005
100
AcDbArc
 50
122.777451
 51
140.599655
  0
LINE
  5
3BF
100
AcDbEntity
  8
水栓
  6
CONTINUOUS
 62
     6
100
AcDbLine
 10
130.231329
 20
129.544641
 30
0.0
 11
129.588583
 21
129.094583
 31
0.0
  0
LINE
  5
3C0
100
AcDbEntity
  8
水栓
  6
CONTINUOUS
 62
     6
100
AcDbLine
 10
130.231329
 20
129.544641
 30
0.0
 11
131.291342
 21
129.544641
 31
0.0
  0
LINE
  5
3C1
100
AcDbEntity
  8
水栓
  6
CONTINUOUS
 62
     6
100
AcDbLine
 10
131.934012
 20
129.094644
 30
0.0
 11
131.291342
 21
129.544641
 31
0.0
  0
ARC
  5
3C2
100
AcDbEntity
  8
水栓
  6
CONTINUOUS
 62
     6
100
AcDbCircle
 10
131.636343
 20
128.63215
 30
0.0
 40
0.550002
100
AcDbArc
 50
39.400345
 51
57.234024
  0
LINE
  5
3C3
100
AcDbEntity
  8
水栓
  6
CONTINUOUS
 62
     6
100
AcDbLine
 10
131.934012
 20
129.094644
 30
0.0
 11
129.588675
 21
129.094644
 31
0.0
  0
POLYLINE
  5
3C4
100
AcDbEntity
  8
水栓
  6
CONTINUOUS
 62
     6
100
AcDb2dPolyline
 66
     1
 10
0.0
 20
0.0
 30
0.0
 70
   128
  0
VERTEX
  5
3C5
100
AcDbEntity
  8
水栓
  6
CONTINUOUS
 62
     6
100
AcDbVertex
100
AcDb2dVertex
 10
130.905905
 20
128.632166
 30
0.0
  0
VERTEX
  5
3C6
100
AcDbEntity
  8
水栓
  6
CONTINUOUS
 62
     6
100
AcDbVertex
100
AcDb2dVertex
 10
130.907828
 20
128.662592
 30
0.0
  0
VERTEX
  5
3C7
100
AcDbEntity
  8
水栓
  6
CONTINUOUS
 62
     6
100
AcDbVertex
100
AcDb2dVertex
 10
130.913596
 20
128.692789
 30
0.0
  0
VERTEX
  5
3C8
100
AcDbEntity
  8
水栓
  6
CONTINUOUS
 62
     6
100
AcDbVertex
100
AcDb2dVertex
 10
130.923132
 20
128.722513
 30
0.0
  0
VERTEX
  5
3C9
100
AcDbEntity
  8
水栓
  6
CONTINUOUS
 62
     6
100
AcDbVertex
100
AcDb2dVertex
 10
130.936392
 20
128.75155
 30
0.0
  0
VERTEX
  5
3CA
100
AcDbEntity
  8
水栓
  6
CONTINUOUS
 62
     6
100
AcDbVertex
100
AcDb2dVertex
 10
130.953268
 20
128.779703
 30
0.0
  0
VERTEX
  5
3CB
100
AcDbEntity
  8
水栓
  6
CONTINUOUS
 62
     6
100
AcDbVertex
100
AcDb2dVertex
 10
130.973624
 20
128.806711
 30
0.0
  0
VERTEX
  5
3CC
100
AcDbEntity
  8
水栓
  6
CONTINUOUS
 62
     6
100
AcDbVertex
100
AcDb2dVertex
 10
130.997321
 20
128.832391
 30
0.0
  0
VERTEX
  5
3CD
100
AcDbEntity
  8
水栓
  6
CONTINUOUS
 62
     6
100
AcDbVertex
100
AcDb2dVertex
 10
131.024161
 20
128.856561
 30
0.0
  0
VERTEX
  5
3CE
100
AcDbEntity
  8
水栓
  6
CONTINUOUS
 62
     6
100
AcDbVertex
100
AcDb2dVertex
 10
131.053946
 20
128.879007
 30
0.0
  0
VERTEX
  5
3CF
100
AcDbEntity
  8
水栓
  6
CONTINUOUS
 62
     6
100
AcDbVertex
100
AcDb2dVertex
 10
131.086462
 20
128.899576
 30
0.0
  0
VERTEX
  5
3D0
100
AcDbEntity
  8
水栓
  6
CONTINUOUS
 62
     6
100
AcDbVertex
100
AcDb2dVertex
 10
131.121436
 20
128.918115
 30
0.0
  0
VERTEX
  5
3D1
100
AcDbEntity
  8
水栓
  6
CONTINUOUS
 62
     6
100
AcDbVertex
100
AcDb2dVertex
 10
131.158636
 20
128.934473
 30
0.0
  0
VERTEX
  5
3D2
100
AcDbEntity
  8
水栓
  6
CONTINUOUS
 62
     6
100
AcDbVertex
100
AcDb2dVertex
 10
131.197745
 20
128.948526
 30
0.0
  0
VERTEX
  5
3D3
100
AcDbEntity
  8
水栓
  6
CONTINUOUS
 62
     6
100
AcDbVertex
100
AcDb2dVertex
 10
131.238486
 20
128.960184
 30
0.0
  0
VERTEX
  5
3D4
100
AcDbEntity
  8
水栓
  6
CONTINUOUS
 62
     6
100
AcDbVertex
100
AcDb2dVertex
 10
131.280524
 20
128.96937
 30
0.0
  0
VERTEX
  5
3D5
100
AcDbEntity
  8
水栓
  6
CONTINUOUS
 62
     6
100
AcDbVertex
100
AcDb2dVertex
 10
131.323569
 20
128.975961
 30
0.0
  0
VERTEX
  5
3D6
100
AcDbEntity
  8
水栓
  6
CONTINUOUS
 62
     6
100
AcDbVertex
100
AcDb2dVertex
 10
131.367285
 20
128.979944
 30
0.0
  0
VERTEX
  5
3D7
100
AcDbEntity
  8
水栓
  6
CONTINUOUS
 62
     6
100
AcDbVertex
100
AcDb2dVertex
 10
131.411337
 20
128.981271
 30
0.0
  0
VERTEX
  5
3D8
100
AcDbEntity
  8
水栓
  6
CONTINUOUS
 62
     6
100
AcDbVertex
100
AcDb2dVertex
 10
131.455389
 20
128.979944
 30
0.0
  0
VERTEX
  5
3D9
100
AcDbEntity
  8
水栓
  6
CONTINUOUS
 62
     6
100
AcDbVertex
100
AcDb2dVertex
 10
131.499106
 20
128.975961
 30
0.0
  0
VERTEX
  5
3DA
100
AcDbEntity
  8
水栓
  6
CONTINUOUS
 62
     6
100
AcDbVertex
100
AcDb2dVertex
 10
131.542151
 20
128.96937
 30
0.0
  0
VERTEX
  5
3DB
100
AcDbEntity
  8
水栓
  6
CONTINUOUS
 62
     6
100
AcDbVertex
100
AcDb2dVertex
 10
131.584204
 20
128.960214
 30
0.0
  0
VERTEX
  5
3DC
100
AcDbEntity
  8
水栓
  6
CONTINUOUS
 62
     6
100
AcDbVertex
100
AcDb2dVertex
 10
131.624945
 20
128.948557
 30
0.0
  0
VERTEX
  5
3DD
100
AcDbEntity
  8
水栓
  6
CONTINUOUS
 62
     6
100
AcDbVertex
100
AcDb2dVertex
 10
131.664069
 20
128.934473
 30
0.0
  0
VERTEX
  5
3DE
100
AcDbEntity
  8
水栓
  6
CONTINUOUS
 62
     6
100
AcDbVertex
100
AcDb2dVertex
 10
131.701254
 20
128.9181
 30
0.0
  0
VERTEX
  5
3DF
100
AcDbEntity
  8
水栓
  6
CONTINUOUS
 62
     6
100
AcDbVertex
100
AcDb2dVertex
 10
131.736243
 20
128.899561
 30
0.0
  0
VERTEX
  5
3E0
100
AcDbEntity
  8
水栓
  6
CONTINUOUS
 62
     6
100
AcDbVertex
100
AcDb2dVertex
 10
131.768759
 20
128.879007
 30
0.0
  0
VERTEX
  5
3E1
100
AcDbEntity
  8
水栓
  6
CONTINUOUS
 62
     6
100
AcDbVertex
100
AcDb2dVertex
 10
131.798544
 20
128.856546
 30
0.0
  0
VERTEX
  5
3E2
100
AcDbEntity
  8
水栓
  6
CONTINUOUS
 62
     6
100
AcDbVertex
100
AcDb2dVertex
 10
131.825385
 20
128.832391
 30
0.0
  0
VERTEX
  5
3E3
100
AcDbEntity
  8
水栓
  6
CONTINUOUS
 62
     6
100
AcDbVertex
100
AcDb2dVertex
 10
131.849081
 20
128.806711
 30
0.0
  0
VERTEX
  5
3E4
100
AcDbEntity
  8
水栓
  6
CONTINUOUS
 62
     6
100
AcDbVertex
100
AcDb2dVertex
 10
131.869437
 20
128.779703
 30
0.0
  0
VERTEX
  5
3E5
100
AcDbEntity
  8
水栓
  6
CONTINUOUS
 62
     6
100
AcDbVertex
100
AcDb2dVertex
 10
131.886313
 20
128.751566
 30
0.0
  0
VERTEX
  5
3E6
100
AcDbEntity
  8
水栓
  6
CONTINUOUS
 62
     6
100
AcDbVertex
100
AcDb2dVertex
 10
131.899573
 20
128.722513
 30
0.0
  0
VERTEX
  5
3E7
100
AcDbEntity
  8
水栓
  6
CONTINUOUS
 62
     6
100
AcDbVertex
100
AcDb2dVertex
 10
131.909109
 20
128.692773
 30
0.0
  0
VERTEX
  5
3E8
100
AcDbEntity
  8
水栓
  6
CONTINUOUS
 62
     6
100
AcDbVertex
100
AcDb2dVertex
 10
131.914877
 20
128.662592
 30
0.0
  0
VERTEX
  5
3E9
100
AcDbEntity
  8
水栓
  6
CONTINUOUS
 62
     6
100
AcDbVertex
100
AcDb2dVertex
 10
131.916785
 20
128.632166
 30
0.0
  0
VERTEX
  5
3EA
100
AcDbEntity
  8
水栓
  6
CONTINUOUS
 62
     6
100
AcDbVertex
100
AcDb2dVertex
 10
131.914862
 20
128.60174
 30
0.0
  0
VERTEX
  5
3EB
100
AcDbEntity
  8
水栓
  6
CONTINUOUS
 62
     6
100
AcDbVertex
100
AcDb2dVertex
 10
131.909094
 20
128.571542
 30
0.0
  0
VERTEX
  5
3EC
100
AcDbEntity
  8
水栓
  6
CONTINUOUS
 62
     6
100
AcDbVertex
100
AcDb2dVertex
 10
131.899573
 20
128.541788
 30
0.0
  0
VERTEX
  5
3ED
100
AcDbEntity
  8
水栓
  6
CONTINUOUS
 62
     6
100
AcDbVertex
100
AcDb2dVertex
 10
131.886313
 20
128.51275
 30
0.0
  0
VERTEX
  5
3EE
100
AcDbEntity
  8
水栓
  6
CONTINUOUS
 62
     6
100
AcDbVertex
100
AcDb2dVertex
 10
131.869437
 20
128.484598
 30
0.0
  0
VERTEX
  5
3EF
100
AcDbEntity
  8
水栓
  6
CONTINUOUS
 62
     6
100
AcDbVertex
100
AcDb2dVertex
 10
131.849081
 20
128.457605
 30
0.0
  0
VERTEX
  5
3F0
100
AcDbEntity
  8
水栓
  6
CONTINUOUS
 62
     6
100
AcDbVertex
100
AcDb2dVertex
 10
131.825385
 20
128.431924
 30
0.0
  0
VERTEX
  5
3F1
100
AcDbEntity
  8
水栓
  6
CONTINUOUS
 62
     6
100
AcDbVertex
100
AcDb2dVertex
 10
131.798544
 20
128.407755
 30
0.0
  0
VERTEX
  5
3F2
100
AcDbEntity
  8
水栓
  6
CONTINUOUS
 62
     6
100
AcDbVertex
100
AcDb2dVertex
 10
131.768759
 20
128.385294
 30
0.0
  0
VERTEX
  5
3F3
100
AcDbEntity
  8
水栓
  6
CONTINUOUS
 62
     6
100
AcDbVertex
100
AcDb2dVertex
 10
131.736243
 20
128.364725
 30
0.0
  0
VERTEX
  5
3F4
100
AcDbEntity
  8
水栓
  6
CONTINUOUS
 62
     6
100
AcDbVertex
100
AcDb2dVertex
 10
131.70127
 20
128.346185
 30
0.0
  0
VERTEX
  5
3F5
100
AcDbEntity
  8
水栓
  6
CONTINUOUS
 62
     6
100
AcDbVertex
100
AcDb2dVertex
 10
131.664069
 20
128.329828
 30
0.0
  0
VERTEX
  5
3F6
100
AcDbEntity
  8
水栓
  6
CONTINUOUS
 62
     6
100
AcDbVertex
100
AcDb2dVertex
 10
131.62496
 20
128.315775
 30
0.0
  0
VERTEX
  5
3F7
100
AcDbEntity
  8
水栓
  6
CONTINUOUS
 62
     6
100
AcDbVertex
100
AcDb2dVertex
 10
131.584219
 20
128.304117
 30
0.0
  0
VERTEX
  5
3F8
100
AcDbEntity
  8
水栓
  6
CONTINUOUS
 62
     6
100
AcDbVertex
100
AcDb2dVertex
 10
131.542151
 20
128.294946
 30
0.0
  0
VERTEX
  5
3F9
100
AcDbEntity
  8
水栓
  6
CONTINUOUS
 62
     6
100
AcDbVertex
100
AcDb2dVertex
 10
131.499106
 20
128.288355
 30
0.0
  0
VERTEX
  5
3FA
100
AcDbEntity
  8
水栓
  6
CONTINUOUS
 62
     6
100
AcDbVertex
100
AcDb2dVertex
 10
131.455374
 20
128.284372
 30
0.0
  0
VERTEX
  5
3FB
100
AcDbEntity
  8
水栓
  6
CONTINUOUS
 62
     6
100
AcDbVertex
100
AcDb2dVertex
 10
131.411337
 20
128.28306
 30
0.0
  0
VERTEX
  5
3FC
100
AcDbEntity
  8
水栓
  6
CONTINUOUS
 62
     6
100
AcDbVertex
100
AcDb2dVertex
 10
131.367285
 20
128.284387
 30
0.0
  0
VERTEX
  5
3FD
100
AcDbEntity
  8
水栓
  6
CONTINUOUS
 62
     6
100
AcDbVertex
100
AcDb2dVertex
 10
131.323569
 20
128.28837
 30
0.0
  0
VERTEX
  5
3FE
100
AcDbEntity
  8
水栓
  6
CONTINUOUS
 62
     6
100
AcDbVertex
100
AcDb2dVertex
 10
131.280524
 20
128.294946
 30
0.0
  0
VERTEX
  5
3FF
100
AcDbEntity
  8
水栓
  6
CONTINUOUS
 62
     6
100
AcDbVertex
100
AcDb2dVertex
 10
131.23847
 20
128.304102
 30
0.0
  0
VERTEX
  5
400
100
AcDbEntity
  8
水栓
  6
CONTINUOUS
 62
     6
100
AcDbVertex
100
AcDb2dVertex
 10
131.197729
 20
128.315759
 30
0.0
  0
SEQEND
  5
401
100
AcDbEntity
  8
水栓
  6
CONTINUOUS
 62
     6
  0
POLYLINE
  5
402
100
AcDbEntity
  8
水栓
  6
CONTINUOUS
 62
     6
100
AcDb2dPolyline
 66
     1
 10
0.0
 20
0.0
 30
0.0
 70
   128
  0
VERTEX
  5
403
100
AcDbEntity
  8
水栓
  6
CONTINUOUS
 62
     6
100
AcDbVertex
100
AcDb2dVertex
 10
131.197729
 20
128.315759
 30
0.0
  0
VERTEX
  5
404
100
AcDbEntity
  8
水栓
  6
CONTINUOUS
 62
     6
100
AcDbVertex
100
AcDb2dVertex
 10
131.158636
 20
128.329828
 30
0.0
  0
VERTEX
  5
405
100
AcDbEntity
  8
水栓
  6
CONTINUOUS
 62
     6
100
AcDbVertex
100
AcDb2dVertex
 10
131.121451
 20
128.346201
 30
0.0
  0
VERTEX
  5
406
100
AcDbEntity
  8
水栓
  6
CONTINUOUS
 62
     6
100
AcDbVertex
100
AcDb2dVertex
 10
131.086462
 20
128.36474
 30
0.0
  0
VERTEX
  5
407
100
AcDbEntity
  8
水栓
  6
CONTINUOUS
 62
     6
100
AcDbVertex
100
AcDb2dVertex
 10
131.053946
 20
128.385294
 30
0.0
  0
VERTEX
  5
408
100
AcDbEntity
  8
水栓
  6
CONTINUOUS
 62
     6
100
AcDbVertex
100
AcDb2dVertex
 10
131.024161
 20
128.407755
 30
0.0
  0
VERTEX
  5
409
100
AcDbEntity
  8
水栓
  6
CONTINUOUS
 62
     6
100
AcDbVertex
100
AcDb2dVertex
 10
130.997321
 20
128.431909
 30
0.0
  0
VERTEX
  5
40A
100
AcDbEntity
  8
水栓
  6
CONTINUOUS
 62
     6
100
AcDbVertex
100
AcDb2dVertex
 10
130.973624
 20
128.457605
 30
0.0
  0
VERTEX
  5
40B
100
AcDbEntity
  8
水栓
  6
CONTINUOUS
 62
     6
100
AcDbVertex
100
AcDb2dVertex
 10
130.953268
 20
128.484613
 30
0.0
  0
VERTEX
  5
40C
100
AcDbEntity
  8
水栓
  6
CONTINUOUS
 62
     6
100
AcDbVertex
100
AcDb2dVertex
 10
130.936392
 20
128.51275
 30
0.0
  0
VERTEX
  5
40D
100
AcDbEntity
  8
水栓
  6
CONTINUOUS
 62
     6
100
AcDbVertex
100
AcDb2dVertex
 10
130.923132
 20
128.541788
 30
0.0
  0
SEQEND
  5
40E
100
AcDbEntity
  8
水栓
  6
CONTINUOUS
 62
     6
  0
POLYLINE
  5
40F
100
AcDbEntity
  8
水栓
  6
CONTINUOUS
 62
     6
100
AcDb2dPolyline
 66
     1
 10
0.0
 20
0.0
 30
0.0
 70
   128
  0
VERTEX
  5
410
100
AcDbEntity
  8
水栓
  6
CONTINUOUS
 62
     6
100
AcDbVertex
100
AcDb2dVertex
 10
130.923132
 20
128.541788
 30
0.0
  0
VERTEX
  5
411
100
AcDbEntity
  8
水栓
  6
CONTINUOUS
 62
     6
100
AcDbVertex
100
AcDb2dVertex
 10
130.913596
 20
128.571527
 30
0.0
  0
VERTEX
  5
412
100
AcDbEntity
  8
水栓
  6
CONTINUOUS
 62
     6
100
AcDbVertex
100
AcDb2dVertex
 10
130.907843
 20
128.601709
 30
0.0
  0
VERTEX
  5
413
100
AcDbEntity
  8
水栓
  6
CONTINUOUS
 62
     6
100
AcDbVertex
100
AcDb2dVertex
 10
130.90592
 20
128.632135
 30
0.0
  0
SEQEND
  5
414
100
AcDbEntity
  8
水栓
  6
CONTINUOUS
 62
     6
  0
LINE
  5
415
100
AcDbEntity
  8
水栓
  6
CONTINUOUS
 62
     6
100
AcDbLine
 10
132.061346
 20
128.981256
 30
0.0
 11
132.061346
 21
128.283044
 31
0.0
  0
ARC
  5
416
100
AcDbEntity
  8
水栓
  6
CONTINUOUS
 62
     6
100
AcDbCircle
 10
131.636343
 20
128.63215
 30
0.0
 40
0.550003
100
AcDbArc
 50
316.656998
 51
320.599655
  0
LINE
  5
417
100
AcDbEntity
  8
水栓
  6
CONTINUOUS
 62
     6
100
AcDbLine
 10
129.808415
 20
128.254648
 30
0.0
 11
132.036337
 21
128.254648
 31
0.0
  0
LINE
  5
418
100
AcDbEntity
  8
水栓
  6
CONTINUOUS
 62
     6
100
AcDbLine
 10
129.46134
 20
128.981256
 30
0.0
 11
129.46134
 21
128.388807
 31
0.0
  0
POLYLINE
  5
419
100
AcDbEntity
  8
水栓
  6
CONTINUOUS
 62
     6
100
AcDb2dPolyline
 66
     1
 10
0.0
 20
0.0
 30
0.0
 70
   128
  0
VERTEX
  5
41A
100
AcDbEntity
  8
水栓
  6
CONTINUOUS
 62
     6
100
AcDbVertex
100
AcDb2dVertex
 10
130.616782
 20
128.632166
 30
0.0
  0
VERTEX
  5
41B
100
AcDbEntity
  8
水栓
  6
CONTINUOUS
 62
     6
100
AcDbVertex
100
AcDb2dVertex
 10
130.614859
 20
128.662592
 30
0.0
  0
VERTEX
  5
41C
100
AcDbEntity
  8
水栓
  6
CONTINUOUS
 62
     6
100
AcDbVertex
100
AcDb2dVertex
 10
130.609091
 20
128.692789
 30
0.0
  0
VERTEX
  5
41D
100
AcDbEntity
  8
水栓
  6
CONTINUOUS
 62
     6
100
AcDbVertex
100
AcDb2dVertex
 10
130.599554
 20
128.722513
 30
0.0
  0
VERTEX
  5
41E
100
AcDbEntity
  8
水栓
  6
CONTINUOUS
 62
     6
100
AcDbVertex
100
AcDb2dVertex
 10
130.586295
 20
128.75155
 30
0.0
  0
VERTEX
  5
41F
100
AcDbEntity
  8
水栓
  6
CONTINUOUS
 62
     6
100
AcDbVertex
100
AcDb2dVertex
 10
130.569418
 20
128.779703
 30
0.0
  0
VERTEX
  5
420
100
AcDbEntity
  8
水栓
  6
CONTINUOUS
 62
     6
100
AcDbVertex
100
AcDb2dVertex
 10
130.549063
 20
128.806711
 30
0.0
  0
VERTEX
  5
421
100
AcDbEntity
  8
水栓
  6
CONTINUOUS
 62
     6
100
AcDbVertex
100
AcDb2dVertex
 10
130.525366
 20
128.832391
 30
0.0
  0
VERTEX
  5
422
100
AcDbEntity
  8
水栓
  6
CONTINUOUS
 62
     6
100
AcDbVertex
100
AcDb2dVertex
 10
130.498526
 20
128.856561
 30
0.0
  0
VERTEX
  5
423
100
AcDbEntity
  8
水栓
  6
CONTINUOUS
 62
     6
100
AcDbVertex
100
AcDb2dVertex
 10
130.468741
 20
128.879007
 30
0.0
  0
VERTEX
  5
424
100
AcDbEntity
  8
水栓
  6
CONTINUOUS
 62
     6
100
AcDbVertex
100
AcDb2dVertex
 10
130.436224
 20
128.899576
 30
0.0
  0
VERTEX
  5
425
100
AcDbEntity
  8
水栓
  6
CONTINUOUS
 62
     6
100
AcDbVertex
100
AcDb2dVertex
 10
130.401251
 20
128.918115
 30
0.0
  0
VERTEX
  5
426
100
AcDbEntity
  8
水栓
  6
CONTINUOUS
 62
     6
100
AcDbVertex
100
AcDb2dVertex
 10
130.36405
 20
128.934473
 30
0.0
  0
VERTEX
  5
427
100
AcDbEntity
  8
水栓
  6
CONTINUOUS
 62
     6
100
AcDbVertex
100
AcDb2dVertex
 10
130.324942
 20
128.948526
 30
0.0
  0
VERTEX
  5
428
100
AcDbEntity
  8
水栓
  6
CONTINUOUS
 62
     6
100
AcDbVertex
100
AcDb2dVertex
 10
130.284201
 20
128.960184
 30
0.0
  0
VERTEX
  5
429
100
AcDbEntity
  8
水栓
  6
CONTINUOUS
 62
     6
100
AcDbVertex
100
AcDb2dVertex
 10
130.242163
 20
128.96937
 30
0.0
  0
VERTEX
  5
42A
100
AcDbEntity
  8
水栓
  6
CONTINUOUS
 62
     6
100
AcDbVertex
100
AcDb2dVertex
 10
130.199118
 20
128.975961
 30
0.0
  0
VERTEX
  5
42B
100
AcDbEntity
  8
水栓
  6
CONTINUOUS
 62
     6
100
AcDbVertex
100
AcDb2dVertex
 10
130.155402
 20
128.979944
 30
0.0
  0
VERTEX
  5
42C
100
AcDbEntity
  8
水栓
  6
CONTINUOUS
 62
     6
100
AcDbVertex
100
AcDb2dVertex
 10
130.111349
 20
128.981271
 30
0.0
  0
VERTEX
  5
42D
100
AcDbEntity
  8
水栓
  6
CONTINUOUS
 62
     6
100
AcDbVertex
100
AcDb2dVertex
 10
130.067297
 20
128.979944
 30
0.0
  0
VERTEX
  5
42E
100
AcDbEntity
  8
水栓
  6
CONTINUOUS
 62
     6
100
AcDbVertex
100
AcDb2dVertex
 10
130.023581
 20
128.975961
 30
0.0
  0
VERTEX
  5
42F
100
AcDbEntity
  8
水栓
  6
CONTINUOUS
 62
     6
100
AcDbVertex
100
AcDb2dVertex
 10
129.980536
 20
128.96937
 30
0.0
  0
VERTEX
  5
430
100
AcDbEntity
  8
水栓
  6
CONTINUOUS
 62
     6
100
AcDbVertex
100
AcDb2dVertex
 10
129.938483
 20
128.960214
 30
0.0
  0
VERTEX
  5
431
100
AcDbEntity
  8
水栓
  6
CONTINUOUS
 62
     6
100
AcDbVertex
100
AcDb2dVertex
 10
129.897742
 20
128.948557
 30
0.0
  0
VERTEX
  5
432
100
AcDbEntity
  8
水栓
  6
CONTINUOUS
 62
     6
100
AcDbVertex
100
AcDb2dVertex
 10
129.858618
 20
128.934473
 30
0.0
  0
VERTEX
  5
433
100
AcDbEntity
  8
水栓
  6
CONTINUOUS
 62
     6
100
AcDbVertex
100
AcDb2dVertex
 10
129.821432
 20
128.9181
 30
0.0
  0
VERTEX
  5
434
100
AcDbEntity
  8
水栓
  6
CONTINUOUS
 62
     6
100
AcDbVertex
100
AcDb2dVertex
 10
129.786444
 20
128.899561
 30
0.0
  0
VERTEX
  5
435
100
AcDbEntity
  8
水栓
  6
CONTINUOUS
 62
     6
100
AcDbVertex
100
AcDb2dVertex
 10
129.753928
 20
128.879007
 30
0.0
  0
VERTEX
  5
436
100
AcDbEntity
  8
水栓
  6
CONTINUOUS
 62
     6
100
AcDbVertex
100
AcDb2dVertex
 10
129.724142
 20
128.856546
 30
0.0
  0
VERTEX
  5
437
100
AcDbEntity
  8
水栓
  6
CONTINUOUS
 62
     6
100
AcDbVertex
100
AcDb2dVertex
 10
129.697302
 20
128.832391
 30
0.0
  0
VERTEX
  5
438
100
AcDbEntity
  8
水栓
  6
CONTINUOUS
 62
     6
100
AcDbVertex
100
AcDb2dVertex
 10
129.673605
 20
128.806711
 30
0.0
  0
VERTEX
  5
439
100
AcDbEntity
  8
水栓
  6
CONTINUOUS
 62
     6
100
AcDbVertex
100
AcDb2dVertex
 10
129.65325
 20
128.779703
 30
0.0
  0
VERTEX
  5
43A
100
AcDbEntity
  8
水栓
  6
CONTINUOUS
 62
     6
100
AcDbVertex
100
AcDb2dVertex
 10
129.636374
 20
128.751566
 30
0.0
  0
VERTEX
  5
43B
100
AcDbEntity
  8
水栓
  6
CONTINUOUS
 62
     6
100
AcDbVertex
100
AcDb2dVertex
 10
129.623114
 20
128.722513
 30
0.0
  0
VERTEX
  5
43C
100
AcDbEntity
  8
水栓
  6
CONTINUOUS
 62
     6
100
AcDbVertex
100
AcDb2dVertex
 10
129.613577
 20
128.692773
 30
0.0
  0
VERTEX
  5
43D
100
AcDbEntity
  8
水栓
  6
CONTINUOUS
 62
     6
100
AcDbVertex
100
AcDb2dVertex
 10
129.607809
 20
128.662592
 30
0.0
  0
VERTEX
  5
43E
100
AcDbEntity
  8
水栓
  6
CONTINUOUS
 62
     6
100
AcDbVertex
100
AcDb2dVertex
 10
129.605902
 20
128.632166
 30
0.0
  0
VERTEX
  5
43F
100
AcDbEntity
  8
水栓
  6
CONTINUOUS
 62
     6
100
AcDbVertex
100
AcDb2dVertex
 10
129.607825
 20
128.60174
 30
0.0
  0
VERTEX
  5
440
100
AcDbEntity
  8
水栓
  6
CONTINUOUS
 62
     6
100
AcDbVertex
100
AcDb2dVertex
 10
129.613593
 20
128.571542
 30
0.0
  0
VERTEX
  5
441
100
AcDbEntity
  8
水栓
  6
CONTINUOUS
 62
     6
100
AcDbVertex
100
AcDb2dVertex
 10
129.623114
 20
128.541788
 30
0.0
  0
VERTEX
  5
442
100
AcDbEntity
  8
水栓
  6
CONTINUOUS
 62
     6
100
AcDbVertex
100
AcDb2dVertex
 10
129.636374
 20
128.51275
 30
0.0
  0
VERTEX
  5
443
100
AcDbEntity
  8
水栓
  6
CONTINUOUS
 62
     6
100
AcDbVertex
100
AcDb2dVertex
 10
129.65325
 20
128.484598
 30
0.0
  0
VERTEX
  5
444
100
AcDbEntity
  8
水栓
  6
CONTINUOUS
 62
     6
100
AcDbVertex
100
AcDb2dVertex
 10
129.673605
 20
128.457605
 30
0.0
  0
VERTEX
  5
445
100
AcDbEntity
  8
水栓
  6
CONTINUOUS
 62
     6
100
AcDbVertex
100
AcDb2dVertex
 10
129.697302
 20
128.431924
 30
0.0
  0
VERTEX
  5
446
100
AcDbEntity
  8
水栓
  6
CONTINUOUS
 62
     6
100
AcDbVertex
100
AcDb2dVertex
 10
129.724142
 20
128.407755
 30
0.0
  0
VERTEX
  5
447
100
AcDbEntity
  8
水栓
  6
CONTINUOUS
 62
     6
100
AcDbVertex
100
AcDb2dVertex
 10
129.753928
 20
128.385294
 30
0.0
  0
VERTEX
  5
448
100
AcDbEntity
  8
水栓
  6
CONTINUOUS
 62
     6
100
AcDbVertex
100
AcDb2dVertex
 10
129.786444
 20
128.364725
 30
0.0
  0
VERTEX
  5
449
100
AcDbEntity
  8
水栓
  6
CONTINUOUS
 62
     6
100
AcDbVertex
100
AcDb2dVertex
 10
129.821417
 20
128.346185
 30
0.0
  0
VERTEX
  5
44A
100
AcDbEntity
  8
水栓
  6
CONTINUOUS
 62
     6
100
AcDbVertex
100
AcDb2dVertex
 10
129.858618
 20
128.329828
 30
0.0
  0
VERTEX
  5
44B
100
AcDbEntity
  8
水栓
  6
CONTINUOUS
 62
     6
100
AcDbVertex
100
AcDb2dVertex
 10
129.897726
 20
128.315775
 30
0.0
  0
VERTEX
  5
44C
100
AcDbEntity
  8
水栓
  6
CONTINUOUS
 62
     6
100
AcDbVertex
100
AcDb2dVertex
 10
129.938467
 20
128.304117
 30
0.0
  0
VERTEX
  5
44D
100
AcDbEntity
  8
水栓
  6
CONTINUOUS
 62
     6
100
AcDbVertex
100
AcDb2dVertex
 10
129.980536
 20
128.294946
 30
0.0
  0
VERTEX
  5
44E
100
AcDbEntity
  8
水栓
  6
CONTINUOUS
 62
     6
100
AcDbVertex
100
AcDb2dVertex
 10
130.023581
 20
128.288355
 30
0.0
  0
VERTEX
  5
44F
100
AcDbEntity
  8
水栓
  6
CONTINUOUS
 62
     6
100
AcDbVertex
100
AcDb2dVertex
 10
130.067313
 20
128.284372
 30
0.0
  0
VERTEX
  5
450
100
AcDbEntity
  8
水栓
  6
CONTINUOUS
 62
     6
100
AcDbVertex
100
AcDb2dVertex
 10
130.111349
 20
128.28306
 30
0.0
  0
VERTEX
  5
451
100
AcDbEntity
  8
水栓
  6
CONTINUOUS
 62
     6
100
AcDbVertex
100
AcDb2dVertex
 10
130.155402
 20
128.284387
 30
0.0
  0
VERTEX
  5
452
100
AcDbEntity
  8
水栓
  6
CONTINUOUS
 62
     6
100
AcDbVertex
100
AcDb2dVertex
 10
130.199118
 20
128.28837
 30
0.0
  0
VERTEX
  5
453
100
AcDbEntity
  8
水栓
  6
CONTINUOUS
 62
     6
100
AcDbVertex
100
AcDb2dVertex
 10
130.242163
 20
128.294946
 30
0.0
  0
VERTEX
  5
454
100
AcDbEntity
  8
水栓
  6
CONTINUOUS
 62
     6
100
AcDbVertex
100
AcDb2dVertex
 10
130.284216
 20
128.304102
 30
0.0
  0
VERTEX
  5
455
100
AcDbEntity
  8
水栓
  6
CONTINUOUS
 62
     6
100
AcDbVertex
100
AcDb2dVertex
 10
130.324957
 20
128.315759
 30
0.0
  0
SEQEND
  5
456
100
AcDbEntity
  8
水栓
  6
CONTINUOUS
 62
     6
  0
POLYLINE
  5
457
100
AcDbEntity
  8
水栓
  6
CONTINUOUS
 62
     6
100
AcDb2dPolyline
 66
     1
 10
0.0
 20
0.0
 30
0.0
 70
   128
  0
VERTEX
  5
458
100
AcDbEntity
  8
水栓
  6
CONTINUOUS
 62
     6
100
AcDbVertex
100
AcDb2dVertex
 10
130.324957
 20
128.315759
 30
0.0
  0
VERTEX
  5
459
100
AcDbEntity
  8
水栓
  6
CONTINUOUS
 62
     6
100
AcDbVertex
100
AcDb2dVertex
 10
130.36405
 20
128.329828
 30
0.0
  0
VERTEX
  5
45A
100
AcDbEntity
  8
水栓
  6
CONTINUOUS
 62
     6
100
AcDbVertex
100
AcDb2dVertex
 10
130.401236
 20
128.346201
 30
0.0
  0
VERTEX
  5
45B
100
AcDbEntity
  8
水栓
  6
CONTINUOUS
 62
     6
100
AcDbVertex
100
AcDb2dVertex
 10
130.436224
 20
128.36474
 30
0.0
  0
VERTEX
  5
45C
100
AcDbEntity
  8
水栓
  6
CONTINUOUS
 62
     6
100
AcDbVertex
100
AcDb2dVertex
 10
130.468741
 20
128.385294
 30
0.0
  0
VERTEX
  5
45D
100
AcDbEntity
  8
水栓
  6
CONTINUOUS
 62
     6
100
AcDbVertex
100
AcDb2dVertex
 10
130.498526
 20
128.407755
 30
0.0
  0
VERTEX
  5
45E
100
AcDbEntity
  8
水栓
  6
CONTINUOUS
 62
     6
100
AcDbVertex
100
AcDb2dVertex
 10
130.525366
 20
128.431909
 30
0.0
  0
VERTEX
  5
45F
100
AcDbEntity
  8
水栓
  6
CONTINUOUS
 62
     6
100
AcDbVertex
100
AcDb2dVertex
 10
130.549063
 20
128.457605
 30
0.0
  0
VERTEX
  5
460
100
AcDbEntity
  8
水栓
  6
CONTINUOUS
 62
     6
100
AcDbVertex
100
AcDb2dVertex
 10
130.569418
 20
128.484613
 30
0.0
  0
VERTEX
  5
461
100
AcDbEntity
  8
水栓
  6
CONTINUOUS
 62
     6
100
AcDbVertex
100
AcDb2dVertex
 10
130.586295
 20
128.51275
 30
0.0
  0
VERTEX
  5
462
100
AcDbEntity
  8
水栓
  6
CONTINUOUS
 62
     6
100
AcDbVertex
100
AcDb2dVertex
 10
130.599554
 20
128.541788
 30
0.0
  0
SEQEND
  5
463
100
AcDbEntity
  8
水栓
  6
CONTINUOUS
 62
     6
  0
POLYLINE
  5
464
100
AcDbEntity
  8
水栓
  6
CONTINUOUS
 62
     6
100
AcDb2dPolyline
 66
     1
 10
0.0
 20
0.0
 30
0.0
 70
   128
  0
VERTEX
  5
465
100
AcDbEntity
  8
水栓
  6
CONTINUOUS
 62
     6
100
AcDbVertex
100
AcDb2dVertex
 10
130.599554
 20
128.541788
 30
0.0
  0
VERTEX
  5
466
100
AcDbEntity
  8
水栓
  6
CONTINUOUS
 62
     6
100
AcDbVertex
100
AcDb2dVertex
 10
130.609091
 20
128.571527
 30
0.0
  0
VERTEX
  5
467
100
AcDbEntity
  8
水栓
  6
CONTINUOUS
 62
     6
100
AcDbVertex
100
AcDb2dVertex
 10
130.614844
 20
128.601709
 30
0.0
  0
VERTEX
  5
468
100
AcDbEntity
  8
水栓
  6
CONTINUOUS
 62
     6
100
AcDbVertex
100
AcDb2dVertex
 10
130.616766
 20
128.632135
 30
0.0
  0
SEQEND
  5
469
100
AcDbEntity
  8
水栓
  6
CONTINUOUS
 62
     6
  0
TEXT
  5
46A
100
AcDbEntity
  8
水栓
  6
CONTINUOUS
 62
     2
100
AcDbText
 10
101.13259
 20
142.050006
 30
0.0
 40
4.0
  1
ＮＬ１－ＭＹ
 41
0.805
  7
EXCADSTD
 72
     5
 11
124.13259
 21
142.050006
 31
0.0
100
AcDbText
  0
LINE
  5
46B
100
AcDbEntity
  8
水栓
  6
CONTINUOUS
 62
     6
100
AcDbLine
 10
101.13259
 20
141.7
 30
0.0
 11
122.5
 21
141.7
 31
0.0
  0
CIRCLE
  5
46C
100
AcDbEntity
  8
水栓
  6
CONTINUOUS
 62
     6
100
AcDbCircle
 10
130.761328
 20
203.879618
 30
0.0
 40
0.550003
  0
CIRCLE
  5
46D
100
AcDbEntity
  8
水栓
  6
CONTINUOUS
 62
     6
100
AcDbCircle
 10
130.761328
 20
203.879618
 30
0.0
 40
0.699997
  0
ARC
  5
46E
100
AcDbEntity
  8
水栓
  6
CONTINUOUS
 62
     6
100
AcDbCircle
 10
130.761328
 20
203.879618
 30
0.0
 40
2.000004
100
AcDbArc
 50
293.535767
 51
335.662216
  0
ARC
  5
46F
100
AcDbEntity
  8
水栓
  6
CONTINUOUS
 62
     6
100
AcDbCircle
 10
130.761343
 20
203.879645
 30
0.0
 40
1.999998
100
AcDbArc
 50
24.336487
 51
95.662903
  0
ARC
  5
470
100
AcDbEntity
  8
水栓
  6
CONTINUOUS
 62
     6
100
AcDbCircle
 10
130.761328
 20
203.879618
 30
0.0
 40
1.999994
100
AcDbArc
 50
144.337341
 51
156.464539
  0
LINE
  5
471
100
AcDbEntity
  8
水栓
  6
CONTINUOUS
 62
     6
100
AcDbLine
 10
129.925423
 20
201.28036
 30
0.0
 11
131.081057
 21
202.382471
 31
0.0
  0
ARC
  5
472
100
AcDbEntity
  8
水栓
  6
CONTINUOUS
 62
     6
100
AcDbCircle
 10
132.461352
 20
200.935139
 30
0.0
 40
2.000003
100
AcDbArc
 50
106.357666
 51
133.641922
  0
LINE
  5
473
100
AcDbEntity
  8
水栓
  6
CONTINUOUS
 62
     6
100
AcDbLine
 10
131.898086
 20
202.854186
 30
0.0
 11
133.430305
 21
203.303906
 31
0.0
  0
ARC
  5
474
100
AcDbEntity
  8
水栓
  6
CONTINUOUS
 62
     6
100
AcDbCircle
 10
133.261333
 20
203.879615
 30
0.0
 40
0.599994
100
AcDbArc
 50
286.357086
 51
73.643311
  0
LINE
  5
475
100
AcDbEntity
  8
水栓
  6
CONTINUOUS
 62
     6
100
AcDbLine
 10
133.430303
 20
204.45533
 30
0.0
 11
131.898065
 21
204.905053
 31
0.0
  0
ARC
  5
476
100
AcDbEntity
  8
水栓
  6
CONTINUOUS
 62
     6
100
AcDbCircle
 10
132.461325
 20
206.824099
 30
0.0
 40
1.999996
100
AcDbArc
 50
226.356094
 51
253.642532
  0
LINE
  5
477
100
AcDbEntity
  8
水栓
  6
CONTINUOUS
 62
     6
100
AcDbLine
 10
131.08098
 20
205.376815
 30
0.0
 11
129.92545
 21
206.478893
 31
0.0
  0
ARC
  5
478
100
AcDbEntity
  8
水栓
  6
CONTINUOUS
 62
     6
100
AcDbCircle
 10
129.511351
 20
206.044704
 30
0.0
 40
0.599999
100
AcDbArc
 50
46.356705
 51
193.641891
  0
LINE
  5
479
100
AcDbEntity
  8
水栓
  6
CONTINUOUS
 62
     6
100
AcDbLine
 10
128.928273
 20
205.903191
 30
0.0
 11
129.30491
 21
204.351321
 31
0.0
  0
ARC
  5
47A
100
AcDbEntity
  8
水栓
  6
CONTINUOUS
 62
     6
100
AcDbCircle
 10
127.361328
 20
203.879622
 30
0.0
 40
2.000002
100
AcDbArc
 50
346.357117
 51
13.641693
  0
LINE
  5
47B
100
AcDbEntity
  8
水栓
  6
CONTINUOUS
 62
     6
100
AcDbLine
 10
129.3049
 20
203.407883
 30
0.0
 11
128.928257
 21
201.856075
 31
0.0
  0
ARC
  5
47C
100
AcDbEntity
  8
水栓
  6
CONTINUOUS
 62
     6
100
AcDbCircle
 10
129.511328
 20
201.714555
 30
0.0
 40
0.6
100
AcDbArc
 50
166.357315
 51
313.6427
  0
LINE
  5
47D
100
AcDbEntity
  8
水栓
  6
CONTINUOUS
 62
     6
100
AcDbLine
 10
124.518014
 20
198.838373
 30
0.0
 11
126.535076
 21
200.855433
 31
0.0
  0
ARC
  5
47E
100
AcDbEntity
  8
水栓
  6
CONTINUOUS
 62
     6
100
AcDbCircle
 10
109.918072
 20
217.472436
 30
0.0
 40
23.5
100
AcDbArc
 50
315.000017
 51
325.591929
  0
ARC
  5
47F
100
AcDbEntity
  8
水栓
  6
CONTINUOUS
 62
     6
100
AcDbCircle
 10
144.354245
 20
183.03643
 30
0.0
 40
23.5
100
AcDbArc
 50
129.638947
 51
135.000046
  0
LINE
  5
480
100
AcDbEntity
  8
水栓
  6
CONTINUOUS
 62
     6
100
AcDbLine
 10
125.720092
 20
197.636283
 30
0.0
 11
127.73724
 21
199.653433
 31
0.0
  0
ARC
  5
481
100
AcDbEntity
  8
水栓
  6
CONTINUOUS
 62
     6
100
AcDbCircle
 10
116.550715
 20
210.069032
 30
0.0
 40
13.499992
100
AcDbArc
 50
315.000034
 51
336.464542
  0
LINE
  5
482
100
AcDbEntity
  8
水栓
  6
CONTINUOUS
 62
     6
100
AcDbLine
 10
124.605284
 20
199.031734
 30
0.0
 11
126.096656
 21
200.5231
 31
0.0
  0
ARC
  5
483
100
AcDbEntity
  8
水栓
  6
CONTINUOUS
 62
     6
100
AcDbCircle
 10
124.817422
 20
198.819609
 30
0.0
 40
0.3
100
AcDbArc
 50
135.001785
 51
203.427322
  0
ARC
  5
484
100
AcDbEntity
  8
水栓
  6
CONTINUOUS
 62
     6
100
AcDbCircle
 10
126.377261
 20
199.495543
 30
0.0
 40
2.000003
100
AcDbArc
 50
203.428574
 51
246.571426
  0
ARC
  5
485
100
AcDbEntity
  8
水栓
  6
CONTINUOUS
 62
     6
100
AcDbCircle
 10
125.701333
 20
197.9357
 30
0.0
 40
0.300006
100
AcDbArc
 50
246.571259
 51
314.998947
  0
LINE
  5
486
100
AcDbEntity
  8
水栓
  6
CONTINUOUS
 62
     6
100
AcDbLine
 10
125.913463
 20
197.723562
 30
0.0
 11
127.404886
 21
199.214986
 31
0.0
  0
ARC
  5
487
100
AcDbEntity
  8
水栓
  6
CONTINUOUS
 62
     6
100
AcDbCircle
 10
136.950827
 20
189.669054
 30
0.0
 40
13.50001
100
AcDbArc
 50
113.535873
 51
135.000046
  0
LEADER
  5
488
100
AcDbEntity
  8
止水栓
  6
CONTINUOUS
 62
     6
100
AcDbLeader
  3
STANDARD
 73
     3
 74
     1
 75
     0
 40
0.0
 76
     2
 10
129.71134
 20
211.88
 30
0.0
 10
124.215903
 20
221.317282
 30
0.0
 77
     6
1001
ACAD
1000
DSTYLE
1002
{
1070
    41
1040
3.5
1070
     5
1000
_EX_NORM
1070
     6
1000
_EX_NORM
1070
     7
1000
_EX_NORM
1070
   341
1005
2C
1002
}
  0
LEADER
  5
489
100
AcDbEntity
  8
止水栓
  6
CONTINUOUS
 62
     6
100
AcDbLeader
  3
STANDARD
 73
     3
 74
     1
 75
     0
 40
0.0
 76
     2
 10
130.126364
 20
108.6
 30
0.0
 10
112.0
 20
102.7
 30
0.0
 77
     6
1001
ACAD
1000
DSTYLE
1002
{
1070
    41
1040
3.5
1070
     5
1000
_EX_NORM
1070
     6
1000
_EX_NORM
1070
     7
1000
_EX_NORM
1070
   341
1005
2C
1002
}
  0
CIRCLE
  5
48A
100
AcDbEntity
  8
止水栓
  6
CONTINUOUS
 62
     6
100
AcDbCircle
 10
130.761359
 20
103.379663
 30
0.0
 40
0.699997
  0
LINE
  5
48B
100
AcDbEntity
  8
止水栓
  6
CONTINUOUS
 62
     6
100
AcDbLine
 10
131.219733
 20
101.989587
 30
0.0
 11
132.771552
 21
101.612939
 31
0.0
  0
ARC
  5
48C
100
AcDbEntity
  8
止水栓
  6
CONTINUOUS
 62
     6
100
AcDbCircle
 10
132.913077
 20
102.196008
 30
0.0
 40
0.599999
100
AcDbArc
 50
256.356689
 51
43.642914
  0
LINE
  5
48D
100
AcDbEntity
  8
止水栓
  6
CONTINUOUS
 62
     6
100
AcDbLine
 10
133.347266
 20
102.610101
 30
0.0
 11
132.245169
 21
103.765695
 31
0.0
  0
ARC
  5
48E
100
AcDbEntity
  8
止水栓
  6
CONTINUOUS
 62
     6
100
AcDbCircle
 10
133.692496
 20
105.146005
 30
0.0
 40
2.000002
100
AcDbArc
 50
196.357086
 51
223.642334
  0
LINE
  5
48F
100
AcDbEntity
  8
止水栓
  6
CONTINUOUS
 62
     6
100
AcDbLine
 10
131.773444
 20
104.582758
 30
0.0
 11
131.323721
 21
106.114984
 31
0.0
  0
ARC
  5
490
100
AcDbEntity
  8
止水栓
  6
CONTINUOUS
 62
     6
100
AcDbCircle
 10
130.748007
 20
105.946008
 30
0.0
 40
0.6
100
AcDbArc
 50
16.3573
 51
163.642685
  0
LINE
  5
491
100
AcDbEntity
  8
止水栓
  6
CONTINUOUS
 62
     6
100
AcDbLine
 10
130.172293
 20
106.114984
 30
0.0
 11
129.722571
 21
104.582758
 31
0.0
  0
ARC
  5
492
100
AcDbEntity
  8
止水栓
  6
CONTINUOUS
 62
     6
100
AcDbCircle
 10
127.803519
 20
105.146005
 30
0.0
 40
2.000003
100
AcDbArc
 50
316.357697
 51
343.642883
  0
LINE
  5
493
100
AcDbEntity
  8
止水栓
  6
CONTINUOUS
 62
     6
100
AcDbLine
 10
129.250845
 20
103.765695
 30
0.0
 11
128.148749
 21
102.610101
 31
0.0
  0
ARC
  5
494
100
AcDbEntity
  8
止水栓
  6
CONTINUOUS
 62
     6
100
AcDbCircle
 10
128.582938
 20
102.196008
 30
0.0
 40
0.599994
100
AcDbArc
 50
136.357117
 51
283.643311
  0
LINE
  5
495
100
AcDbEntity
  8
止水栓
  6
CONTINUOUS
 62
     6
100
AcDbLine
 10
128.724463
 20
101.612939
 30
0.0
 11
130.276282
 21
101.989587
 31
0.0
  0
ARC
  5
496
100
AcDbEntity
  8
止水栓
  6
CONTINUOUS
 62
     6
100
AcDbCircle
 10
130.748007
 20
100.046014
 30
0.0
 40
2.0
100
AcDbArc
 50
76.357468
 51
103.642548
  0
ARC
  5
497
100
AcDbEntity
  8
止水栓
  6
CONTINUOUS
 62
     6
100
AcDbCircle
 10
127.54801
 20
103.446008
 30
0.0
 40
4.499994
100
AcDbArc
 50
8.024372
 51
14.835184
  0
ARC
  5
498
100
AcDbEntity
  8
止水栓
  6
CONTINUOUS
 62
     6
100
AcDbCircle
 10
134.79801
 20
105.366296
 30
0.0
 40
3.0
100
AcDbArc
 50
180.000015
 51
194.835464
  0
LINE
  5
499
100
AcDbEntity
  8
止水栓
  6
CONTINUOUS
 62
     6
100
AcDbLine
 10
131.79801
 20
105.366296
 30
0.0
 11
131.79801
 21
105.846002
 31
0.0
  0
ARC
  5
49A
100
AcDbEntity
  8
止水栓
  6
CONTINUOUS
 62
     6
100
AcDbCircle
 10
133.948004
 20
103.446008
 30
0.0
 40
4.500007
100
AcDbArc
 50
165.164886
 51
171.975677
  0
ARC
  5
49B
100
AcDbEntity
  8
止水栓
  6
CONTINUOUS
 62
     6
100
AcDbCircle
 10
126.698004
 20
105.366296
 30
0.0
 40
2.999993
100
AcDbArc
 50
345.164908
 51
0.0
  0
LINE
  5
49C
100
AcDbEntity
  8
止水栓
  6
CONTINUOUS
 62
     6
100
AcDbLine
 10
129.698004
 20
105.366296
 30
0.0
 11
129.698004
 21
105.846002
 31
0.0
  0
LINE
  5
49D
100
AcDbEntity
  8
止水栓
  6
CONTINUOUS
 62
     6
100
AcDbLine
 10
131.40267
 20
105.846002
 30
0.0
 11
131.844946
 21
105.846002
 31
0.0
  0
ARC
  5
49E
100
AcDbEntity
  8
止水栓
  6
CONTINUOUS
 62
     6
100
AcDbCircle
 10
130.922995
 20
106.446008
 30
0.0
 40
1.1
100
AcDbArc
 50
326.943909
 51
332.420471
  0
LINE
  5
49F
100
AcDbEntity
  8
止水栓
  6
CONTINUOUS
 62
     6
100
AcDbLine
 10
131.898001
 20
105.936731
 30
0.0
 11
131.898001
 21
106.955286
 31
0.0
  0
ARC
  5
4A0
100
AcDbEntity
  8
止水栓
  6
CONTINUOUS
 62
     6
100
AcDbCircle
 10
130.922995
 20
106.446008
 30
0.0
 40
1.1
100
AcDbArc
 50
27.579529
 51
33.056091
  0
LINE
  5
4A1
100
AcDbEntity
  8
止水栓
  6
CONTINUOUS
 62
     6
100
AcDbLine
 10
129.651068
 20
107.046014
 30
0.0
 11
131.844946
 21
107.046014
 31
0.0
  0
ARC
  5
4A2
100
AcDbEntity
  8
止水栓
  6
CONTINUOUS
 62
     6
100
AcDbCircle
 10
130.573019
 20
106.446008
 30
0.0
 40
1.1
100
AcDbArc
 50
146.943909
 51
152.420471
  0
LINE
  5
4A3
100
AcDbEntity
  8
止水栓
  6
CONTINUOUS
 62
     6
100
AcDbLine
 10
129.598013
 20
105.936731
 30
0.0
 11
129.598013
 21
106.955286
 31
0.0
  0
ARC
  5
4A4
100
AcDbEntity
  8
止水栓
  6
CONTINUOUS
 62
     6
100
AcDbCircle
 10
130.573019
 20
106.446008
 30
0.0
 40
1.1
100
AcDbArc
 50
207.579529
 51
213.056091
  0
LINE
  5
4A5
100
AcDbEntity
  8
止水栓
  6
CONTINUOUS
 62
     6
100
AcDbLine
 10
129.651068
 20
105.846002
 30
0.0
 11
130.093344
 21
105.846002
 31
0.0
  0
POLYLINE
  5
4A6
100
AcDbEntity
  8
止水栓
  6
CONTINUOUS
 62
     6
100
AcDb2dPolyline
 66
     1
 10
0.0
 20
0.0
 30
0.0
 70
   128
  0
VERTEX
  5
4A7
100
AcDbEntity
  8
止水栓
  6
CONTINUOUS
 62
     6
100
AcDbVertex
100
AcDb2dVertex
 10
131.806006
 20
106.446008
 30
0.0
  0
VERTEX
  5
4A8
100
AcDbEntity
  8
止水栓
  6
CONTINUOUS
 62
     6
100
AcDbVertex
100
AcDb2dVertex
 10
131.80416
 20
106.39808
 30
0.0
  0
VERTEX
  5
4A9
100
AcDbEntity
  8
止水栓
  6
CONTINUOUS
 62
     6
100
AcDbVertex
100
AcDb2dVertex
 10
131.798666
 20
106.350504
 30
0.0
  0
VERTEX
  5
4AA
100
AcDbEntity
  8
止水栓
  6
CONTINUOUS
 62
     6
100
AcDbVertex
100
AcDb2dVertex
 10
131.789557
 20
106.303674
 30
0.0
  0
VERTEX
  5
4AB
100
AcDbEntity
  8
止水栓
  6
CONTINUOUS
 62
     6
100
AcDbVertex
100
AcDb2dVertex
 10
131.776892
 20
106.257913
 30
0.0
  0
VERTEX
  5
4AC
100
AcDbEntity
  8
止水栓
  6
CONTINUOUS
 62
     6
100
AcDbVertex
100
AcDb2dVertex
 10
131.760764
 20
106.213586
 30
0.0
  0
VERTEX
  5
4AD
100
AcDbEntity
  8
止水栓
  6
CONTINUOUS
 62
     6
100
AcDbVertex
100
AcDb2dVertex
 10
131.741339
 20
106.171014
 30
0.0
  0
VERTEX
  5
4AE
100
AcDbEntity
  8
止水栓
  6
CONTINUOUS
 62
     6
100
AcDbVertex
100
AcDb2dVertex
 10
131.71871
 20
106.130548
 30
0.0
  0
VERTEX
  5
4AF
100
AcDbEntity
  8
止水栓
  6
CONTINUOUS
 62
     6
100
AcDbVertex
100
AcDb2dVertex
 10
131.693076
 20
106.092493
 30
0.0
  0
VERTEX
  5
4B0
100
AcDbEntity
  8
止水栓
  6
CONTINUOUS
 62
     6
100
AcDbVertex
100
AcDb2dVertex
 10
131.664618
 20
106.057108
 30
0.0
  0
VERTEX
  5
4B1
100
AcDbEntity
  8
止水栓
  6
CONTINUOUS
 62
     6
100
AcDbVertex
100
AcDb2dVertex
 10
131.633566
 20
106.024698
 30
0.0
  0
VERTEX
  5
4B2
100
AcDbEntity
  8
止水栓
  6
CONTINUOUS
 62
     6
100
AcDbVertex
100
AcDb2dVertex
 10
131.60015
 20
105.995493
 30
0.0
  0
VERTEX
  5
4B3
100
AcDbEntity
  8
止水栓
  6
CONTINUOUS
 62
     6
100
AcDbVertex
100
AcDb2dVertex
 10
131.564642
 20
105.96969
 30
0.0
  0
VERTEX
  5
4B4
100
AcDbEntity
  8
止水栓
  6
CONTINUOUS
 62
     6
100
AcDbVertex
100
AcDb2dVertex
 10
131.527289
 20
105.947534
 30
0.0
  0
VERTEX
  5
4B5
100
AcDbEntity
  8
止水栓
  6
CONTINUOUS
 62
     6
100
AcDbVertex
100
AcDb2dVertex
 10
131.488379
 20
105.929178
 30
0.0
  0
VERTEX
  5
4B6
100
AcDbEntity
  8
止水栓
  6
CONTINUOUS
 62
     6
100
AcDbVertex
100
AcDb2dVertex
 10
131.448218
 20
105.914743
 30
0.0
  0
VERTEX
  5
4B7
100
AcDbEntity
  8
止水栓
  6
CONTINUOUS
 62
     6
100
AcDbVertex
100
AcDb2dVertex
 10
131.427863
 20
105.909067
 30
0.0
  0
VERTEX
  5
4B8
100
AcDbEntity
  8
止水栓
  6
CONTINUOUS
 62
     6
100
AcDbVertex
100
AcDb2dVertex
 10
131.407324
 20
105.904413
 30
0.0
  0
VERTEX
  5
4B9
100
AcDbEntity
  8
止水栓
  6
CONTINUOUS
 62
     6
100
AcDbVertex
100
AcDb2dVertex
 10
131.386618
 20
105.900766
 30
0.0
  0
SEQEND
  5
4BA
100
AcDbEntity
  8
止水栓
  6
CONTINUOUS
 62
     6
  0
POLYLINE
  5
4BB
100
AcDbEntity
  8
止水栓
  6
CONTINUOUS
 62
     6
100
AcDb2dPolyline
 66
     1
 10
0.0
 20
0.0
 30
0.0
 70
   128
  0
VERTEX
  5
4BC
100
AcDbEntity
  8
止水栓
  6
CONTINUOUS
 62
     6
100
AcDbVertex
100
AcDb2dVertex
 10
131.806006
 20
106.446008
 30
0.0
  0
VERTEX
  5
4BD
100
AcDbEntity
  8
止水栓
  6
CONTINUOUS
 62
     6
100
AcDbVertex
100
AcDb2dVertex
 10
131.80416
 20
106.493936
 30
0.0
  0
VERTEX
  5
4BE
100
AcDbEntity
  8
止水栓
  6
CONTINUOUS
 62
     6
100
AcDbVertex
100
AcDb2dVertex
 10
131.798666
 20
106.541513
 30
0.0
  0
VERTEX
  5
4BF
100
AcDbEntity
  8
止水栓
  6
CONTINUOUS
 62
     6
100
AcDbVertex
100
AcDb2dVertex
 10
131.789557
 20
106.588358
 30
0.0
  0
VERTEX
  5
4C0
100
AcDbEntity
  8
止水栓
  6
CONTINUOUS
 62
     6
100
AcDbVertex
100
AcDb2dVertex
 10
131.776892
 20
106.634119
 30
0.0
  0
VERTEX
  5
4C1
100
AcDbEntity
  8
止水栓
  6
CONTINUOUS
 62
     6
100
AcDbVertex
100
AcDb2dVertex
 10
131.760764
 20
106.678445
 30
0.0
  0
VERTEX
  5
4C2
100
AcDbEntity
  8
止水栓
  6
CONTINUOUS
 62
     6
100
AcDbVertex
100
AcDb2dVertex
 10
131.741339
 20
106.721017
 30
0.0
  0
VERTEX
  5
4C3
100
AcDbEntity
  8
止水栓
  6
CONTINUOUS
 62
     6
100
AcDbVertex
100
AcDb2dVertex
 10
131.71871
 20
106.761484
 30
0.0
  0
VERTEX
  5
4C4
100
AcDbEntity
  8
止水栓
  6
CONTINUOUS
 62
     6
100
AcDbVertex
100
AcDb2dVertex
 10
131.693076
 20
106.799539
 30
0.0
  0
VERTEX
  5
4C5
100
AcDbEntity
  8
止水栓
  6
CONTINUOUS
 62
     6
100
AcDbVertex
100
AcDb2dVertex
 10
131.664618
 20
106.834924
 30
0.0
  0
VERTEX
  5
4C6
100
AcDbEntity
  8
止水栓
  6
CONTINUOUS
 62
     6
100
AcDbVertex
100
AcDb2dVertex
 10
131.633566
 20
106.867334
 30
0.0
  0
VERTEX
  5
4C7
100
AcDbEntity
  8
止水栓
  6
CONTINUOUS
 62
     6
100
AcDbVertex
100
AcDb2dVertex
 10
131.60015
 20
106.896539
 30
0.0
  0
VERTEX
  5
4C8
100
AcDbEntity
  8
止水栓
  6
CONTINUOUS
 62
     6
100
AcDbVertex
100
AcDb2dVertex
 10
131.564642
 20
106.922327
 30
0.0
  0
VERTEX
  5
4C9
100
AcDbEntity
  8
止水栓
  6
CONTINUOUS
 62
     6
100
AcDbVertex
100
AcDb2dVertex
 10
131.527289
 20
106.944482
 30
0.0
  0
VERTEX
  5
4CA
100
AcDbEntity
  8
止水栓
  6
CONTINUOUS
 62
     6
100
AcDbVertex
100
AcDb2dVertex
 10
131.488379
 20
106.962839
 30
0.0
  0
VERTEX
  5
4CB
100
AcDbEntity
  8
止水栓
  6
CONTINUOUS
 62
     6
100
AcDbVertex
100
AcDb2dVertex
 10
131.448218
 20
106.977274
 30
0.0
  0
VERTEX
  5
4CC
100
AcDbEntity
  8
止水栓
  6
CONTINUOUS
 62
     6
100
AcDbVertex
100
AcDb2dVertex
 10
131.407095
 20
106.98765
 30
0.0
  0
VERTEX
  5
4CD
100
AcDbEntity
  8
止水栓
  6
CONTINUOUS
 62
     6
100
AcDbVertex
100
AcDb2dVertex
 10
131.365347
 20
106.993921
 30
0.0
  0
VERTEX
  5
4CE
100
AcDbEntity
  8
止水栓
  6
CONTINUOUS
 62
     6
100
AcDbVertex
100
AcDb2dVertex
 10
131.323264
 20
106.996011
 30
0.0
  0
VERTEX
  5
4CF
100
AcDbEntity
  8
止水栓
  6
CONTINUOUS
 62
     6
100
AcDbVertex
100
AcDb2dVertex
 10
131.281195
 20
106.993921
 30
0.0
  0
VERTEX
  5
4D0
100
AcDbEntity
  8
止水栓
  6
CONTINUOUS
 62
     6
100
AcDbVertex
100
AcDb2dVertex
 10
131.239432
 20
106.98765
 30
0.0
  0
VERTEX
  5
4D1
100
AcDbEntity
  8
止水栓
  6
CONTINUOUS
 62
     6
100
AcDbVertex
100
AcDb2dVertex
 10
131.198309
 20
106.977274
 30
0.0
  0
VERTEX
  5
4D2
100
AcDbEntity
  8
止水栓
  6
CONTINUOUS
 62
     6
100
AcDbVertex
100
AcDb2dVertex
 10
131.158148
 20
106.962839
 30
0.0
  0
VERTEX
  5
4D3
100
AcDbEntity
  8
止水栓
  6
CONTINUOUS
 62
     6
100
AcDbVertex
100
AcDb2dVertex
 10
131.119238
 20
106.944482
 30
0.0
  0
VERTEX
  5
4D4
100
AcDbEntity
  8
止水栓
  6
CONTINUOUS
 62
     6
100
AcDbVertex
100
AcDb2dVertex
 10
131.081885
 20
106.922327
 30
0.0
  0
VERTEX
  5
4D5
100
AcDbEntity
  8
止水栓
  6
CONTINUOUS
 62
     6
100
AcDbVertex
100
AcDb2dVertex
 10
131.046362
 20
106.896539
 30
0.0
  0
VERTEX
  5
4D6
100
AcDbEntity
  8
止水栓
  6
CONTINUOUS
 62
     6
100
AcDbVertex
100
AcDb2dVertex
 10
131.012961
 20
106.867319
 30
0.0
  0
VERTEX
  5
4D7
100
AcDbEntity
  8
止水栓
  6
CONTINUOUS
 62
     6
100
AcDbVertex
100
AcDb2dVertex
 10
130.981894
 20
106.834924
 30
0.0
  0
VERTEX
  5
4D8
100
AcDbEntity
  8
止水栓
  6
CONTINUOUS
 62
     6
100
AcDbVertex
100
AcDb2dVertex
 10
130.953452
 20
106.799539
 30
0.0
  0
VERTEX
  5
4D9
100
AcDbEntity
  8
止水栓
  6
CONTINUOUS
 62
     6
100
AcDbVertex
100
AcDb2dVertex
 10
130.927802
 20
106.761484
 30
0.0
  0
VERTEX
  5
4DA
100
AcDbEntity
  8
止水栓
  6
CONTINUOUS
 62
     6
100
AcDbVertex
100
AcDb2dVertex
 10
130.905188
 20
106.721017
 30
0.0
  0
VERTEX
  5
4DB
100
AcDbEntity
  8
止水栓
  6
CONTINUOUS
 62
     6
100
AcDbVertex
100
AcDb2dVertex
 10
130.885748
 20
106.678461
 30
0.0
  0
VERTEX
  5
4DC
100
AcDbEntity
  8
止水栓
  6
CONTINUOUS
 62
     6
100
AcDbVertex
100
AcDb2dVertex
 10
130.869635
 20
106.634119
 30
0.0
  0
VERTEX
  5
4DD
100
AcDbEntity
  8
止水栓
  6
CONTINUOUS
 62
     6
100
AcDbVertex
100
AcDb2dVertex
 10
130.856955
 20
106.588358
 30
0.0
  0
VERTEX
  5
4DE
100
AcDbEntity
  8
止水栓
  6
CONTINUOUS
 62
     6
100
AcDbVertex
100
AcDb2dVertex
 10
130.853262
 20
106.571603
 30
0.0
  0
VERTEX
  5
4DF
100
AcDbEntity
  8
止水栓
  6
CONTINUOUS
 62
     6
100
AcDbVertex
100
AcDb2dVertex
 10
130.850027
 20
106.554727
 30
0.0
  0
VERTEX
  5
4E0
100
AcDbEntity
  8
止水栓
  6
CONTINUOUS
 62
     6
100
AcDbVertex
100
AcDb2dVertex
 10
130.847266
 20
106.537744
 30
0.0
  0
SEQEND
  5
4E1
100
AcDbEntity
  8
止水栓
  6
CONTINUOUS
 62
     6
  0
POLYLINE
  5
4E2
100
AcDbEntity
  8
止水栓
  6
CONTINUOUS
 62
     6
100
AcDb2dPolyline
 66
     1
 10
0.0
 20
0.0
 30
0.0
 70
   128
  0
VERTEX
  5
4E3
100
AcDbEntity
  8
止水栓
  6
CONTINUOUS
 62
     6
100
AcDbVertex
100
AcDb2dVertex
 10
130.648749
 20
106.537744
 30
0.0
  0
VERTEX
  5
4E4
100
AcDbEntity
  8
止水栓
  6
CONTINUOUS
 62
     6
100
AcDbVertex
100
AcDb2dVertex
 10
130.645987
 20
106.554727
 30
0.0
  0
VERTEX
  5
4E5
100
AcDbEntity
  8
止水栓
  6
CONTINUOUS
 62
     6
100
AcDbVertex
100
AcDb2dVertex
 10
130.642752
 20
106.571603
 30
0.0
  0
VERTEX
  5
4E6
100
AcDbEntity
  8
止水栓
  6
CONTINUOUS
 62
     6
100
AcDbVertex
100
AcDb2dVertex
 10
130.639059
 20
106.588358
 30
0.0
  0
VERTEX
  5
4E7
100
AcDbEntity
  8
止水栓
  6
CONTINUOUS
 62
     6
100
AcDbVertex
100
AcDb2dVertex
 10
130.626395
 20
106.634119
 30
0.0
  0
VERTEX
  5
4E8
100
AcDbEntity
  8
止水栓
  6
CONTINUOUS
 62
     6
100
AcDbVertex
100
AcDb2dVertex
 10
130.610281
 20
106.678445
 30
0.0
  0
VERTEX
  5
4E9
100
AcDbEntity
  8
止水栓
  6
CONTINUOUS
 62
     6
100
AcDbVertex
100
AcDb2dVertex
 10
130.590842
 20
106.721017
 30
0.0
  0
VERTEX
  5
4EA
100
AcDbEntity
  8
止水栓
  6
CONTINUOUS
 62
     6
100
AcDbVertex
100
AcDb2dVertex
 10
130.568213
 20
106.761484
 30
0.0
  0
VERTEX
  5
4EB
100
AcDbEntity
  8
止水栓
  6
CONTINUOUS
 62
     6
100
AcDbVertex
100
AcDb2dVertex
 10
130.542578
 20
106.799539
 30
0.0
  0
VERTEX
  5
4EC
100
AcDbEntity
  8
止水栓
  6
CONTINUOUS
 62
     6
100
AcDbVertex
100
AcDb2dVertex
 10
130.51412
 20
106.834924
 30
0.0
  0
VERTEX
  5
4ED
100
AcDbEntity
  8
止水栓
  6
CONTINUOUS
 62
     6
100
AcDbVertex
100
AcDb2dVertex
 10
130.483069
 20
106.867334
 30
0.0
  0
VERTEX
  5
4EE
100
AcDbEntity
  8
止水栓
  6
CONTINUOUS
 62
     6
100
AcDbVertex
100
AcDb2dVertex
 10
130.449652
 20
106.896539
 30
0.0
  0
VERTEX
  5
4EF
100
AcDbEntity
  8
止水栓
  6
CONTINUOUS
 62
     6
100
AcDbVertex
100
AcDb2dVertex
 10
130.414145
 20
106.922327
 30
0.0
  0
VERTEX
  5
4F0
100
AcDbEntity
  8
止水栓
  6
CONTINUOUS
 62
     6
100
AcDbVertex
100
AcDb2dVertex
 10
130.376791
 20
106.944482
 30
0.0
  0
VERTEX
  5
4F1
100
AcDbEntity
  8
止水栓
  6
CONTINUOUS
 62
     6
100
AcDbVertex
100
AcDb2dVertex
 10
130.337881
 20
106.962839
 30
0.0
  0
VERTEX
  5
4F2
100
AcDbEntity
  8
止水栓
  6
CONTINUOUS
 62
     6
100
AcDbVertex
100
AcDb2dVertex
 10
130.29772
 20
106.977274
 30
0.0
  0
VERTEX
  5
4F3
100
AcDbEntity
  8
止水栓
  6
CONTINUOUS
 62
     6
100
AcDbVertex
100
AcDb2dVertex
 10
130.256598
 20
106.98765
 30
0.0
  0
VERTEX
  5
4F4
100
AcDbEntity
  8
止水栓
  6
CONTINUOUS
 62
     6
100
AcDbVertex
100
AcDb2dVertex
 10
130.21485
 20
106.993921
 30
0.0
  0
VERTEX
  5
4F5
100
AcDbEntity
  8
止水栓
  6
CONTINUOUS
 62
     6
100
AcDbVertex
100
AcDb2dVertex
 10
130.172766
 20
106.996011
 30
0.0
  0
VERTEX
  5
4F6
100
AcDbEntity
  8
止水栓
  6
CONTINUOUS
 62
     6
100
AcDbVertex
100
AcDb2dVertex
 10
130.130698
 20
106.993921
 30
0.0
  0
VERTEX
  5
4F7
100
AcDbEntity
  8
止水栓
  6
CONTINUOUS
 62
     6
100
AcDbVertex
100
AcDb2dVertex
 10
130.088934
 20
106.98765
 30
0.0
  0
VERTEX
  5
4F8
100
AcDbEntity
  8
止水栓
  6
CONTINUOUS
 62
     6
100
AcDbVertex
100
AcDb2dVertex
 10
130.047812
 20
106.977274
 30
0.0
  0
VERTEX
  5
4F9
100
AcDbEntity
  8
止水栓
  6
CONTINUOUS
 62
     6
100
AcDbVertex
100
AcDb2dVertex
 10
130.007651
 20
106.962839
 30
0.0
  0
VERTEX
  5
4FA
100
AcDbEntity
  8
止水栓
  6
CONTINUOUS
 62
     6
100
AcDbVertex
100
AcDb2dVertex
 10
129.968741
 20
106.944482
 30
0.0
  0
VERTEX
  5
4FB
100
AcDbEntity
  8
止水栓
  6
CONTINUOUS
 62
     6
100
AcDbVertex
100
AcDb2dVertex
 10
129.931387
 20
106.922327
 30
0.0
  0
VERTEX
  5
4FC
100
AcDbEntity
  8
止水栓
  6
CONTINUOUS
 62
     6
100
AcDbVertex
100
AcDb2dVertex
 10
129.895865
 20
106.896539
 30
0.0
  0
VERTEX
  5
4FD
100
AcDbEntity
  8
止水栓
  6
CONTINUOUS
 62
     6
100
AcDbVertex
100
AcDb2dVertex
 10
129.862463
 20
106.867319
 30
0.0
  0
VERTEX
  5
4FE
100
AcDbEntity
  8
止水栓
  6
CONTINUOUS
 62
     6
100
AcDbVertex
100
AcDb2dVertex
 10
129.831396
 20
106.834924
 30
0.0
  0
VERTEX
  5
4FF
100
AcDbEntity
  8
止水栓
  6
CONTINUOUS
 62
     6
100
AcDbVertex
100
AcDb2dVertex
 10
129.802954
 20
106.799539
 30
0.0
  0
VERTEX
  5
500
100
AcDbEntity
  8
止水栓
  6
CONTINUOUS
 62
     6
100
AcDbVertex
100
AcDb2dVertex
 10
129.777319
 20
106.761484
 30
0.0
  0
VERTEX
  5
501
100
AcDbEntity
  8
止水栓
  6
CONTINUOUS
 62
     6
100
AcDbVertex
100
AcDb2dVertex
 10
129.754691
 20
106.721017
 30
0.0
  0
VERTEX
  5
502
100
AcDbEntity
  8
止水栓
  6
CONTINUOUS
 62
     6
100
AcDbVertex
100
AcDb2dVertex
 10
129.735251
 20
106.678461
 30
0.0
  0
VERTEX
  5
503
100
AcDbEntity
  8
止水栓
  6
CONTINUOUS
 62
     6
100
AcDbVertex
100
AcDb2dVertex
 10
129.719138
 20
106.634119
 30
0.0
  0
VERTEX
  5
504
100
AcDbEntity
  8
止水栓
  6
CONTINUOUS
 62
     6
100
AcDbVertex
100
AcDb2dVertex
 10
129.706458
 20
106.588358
 30
0.0
  0
VERTEX
  5
505
100
AcDbEntity
  8
止水栓
  6
CONTINUOUS
 62
     6
100
AcDbVertex
100
AcDb2dVertex
 10
129.697348
 20
106.541513
 30
0.0
  0
VERTEX
  5
506
100
AcDbEntity
  8
止水栓
  6
CONTINUOUS
 62
     6
100
AcDbVertex
100
AcDb2dVertex
 10
129.691855
 20
106.493936
 30
0.0
  0
VERTEX
  5
507
100
AcDbEntity
  8
止水栓
  6
CONTINUOUS
 62
     6
100
AcDbVertex
100
AcDb2dVertex
 10
129.690009
 20
106.446008
 30
0.0
  0
VERTEX
  5
508
100
AcDbEntity
  8
止水栓
  6
CONTINUOUS
 62
     6
100
AcDbVertex
100
AcDb2dVertex
 10
129.691855
 20
106.39808
 30
0.0
  0
VERTEX
  5
509
100
AcDbEntity
  8
止水栓
  6
CONTINUOUS
 62
     6
100
AcDbVertex
100
AcDb2dVertex
 10
129.697348
 20
106.350504
 30
0.0
  0
VERTEX
  5
50A
100
AcDbEntity
  8
止水栓
  6
CONTINUOUS
 62
     6
100
AcDbVertex
100
AcDb2dVertex
 10
129.706458
 20
106.303674
 30
0.0
  0
VERTEX
  5
50B
100
AcDbEntity
  8
止水栓
  6
CONTINUOUS
 62
     6
100
AcDbVertex
100
AcDb2dVertex
 10
129.719122
 20
106.257913
 30
0.0
  0
VERTEX
  5
50C
100
AcDbEntity
  8
止水栓
  6
CONTINUOUS
 62
     6
100
AcDbVertex
100
AcDb2dVertex
 10
129.735251
 20
106.213586
 30
0.0
  0
VERTEX
  5
50D
100
AcDbEntity
  8
止水栓
  6
CONTINUOUS
 62
     6
100
AcDbVertex
100
AcDb2dVertex
 10
129.754691
 20
106.171014
 30
0.0
  0
VERTEX
  5
50E
100
AcDbEntity
  8
止水栓
  6
CONTINUOUS
 62
     6
100
AcDbVertex
100
AcDb2dVertex
 10
129.777319
 20
106.130548
 30
0.0
  0
VERTEX
  5
50F
100
AcDbEntity
  8
止水栓
  6
CONTINUOUS
 62
     6
100
AcDbVertex
100
AcDb2dVertex
 10
129.802954
 20
106.092493
 30
0.0
  0
VERTEX
  5
510
100
AcDbEntity
  8
止水栓
  6
CONTINUOUS
 62
     6
100
AcDbVertex
100
AcDb2dVertex
 10
129.831396
 20
106.057108
 30
0.0
  0
VERTEX
  5
511
100
AcDbEntity
  8
止水栓
  6
CONTINUOUS
 62
     6
100
AcDbVertex
100
AcDb2dVertex
 10
129.862448
 20
106.024698
 30
0.0
  0
VERTEX
  5
512
100
AcDbEntity
  8
止水栓
  6
CONTINUOUS
 62
     6
100
AcDbVertex
100
AcDb2dVertex
 10
129.895865
 20
105.995493
 30
0.0
  0
VERTEX
  5
513
100
AcDbEntity
  8
止水栓
  6
CONTINUOUS
 62
     6
100
AcDbVertex
100
AcDb2dVertex
 10
129.931387
 20
105.969705
 30
0.0
  0
VERTEX
  5
514
100
AcDbEntity
  8
止水栓
  6
CONTINUOUS
 62
     6
100
AcDbVertex
100
AcDb2dVertex
 10
129.968741
 20
105.947549
 30
0.0
  0
VERTEX
  5
515
100
AcDbEntity
  8
止水栓
  6
CONTINUOUS
 62
     6
100
AcDbVertex
100
AcDb2dVertex
 10
130.007651
 20
105.929193
 30
0.0
  0
VERTEX
  5
516
100
AcDbEntity
  8
止水栓
  6
CONTINUOUS
 62
     6
100
AcDbVertex
100
AcDb2dVertex
 10
130.047812
 20
105.914743
 30
0.0
  0
VERTEX
  5
517
100
AcDbEntity
  8
止水栓
  6
CONTINUOUS
 62
     6
100
AcDbVertex
100
AcDb2dVertex
 10
130.068167
 20
105.909067
 30
0.0
  0
VERTEX
  5
518
100
AcDbEntity
  8
止水栓
  6
CONTINUOUS
 62
     6
100
AcDbVertex
100
AcDb2dVertex
 10
130.088705
 20
105.904413
 30
0.0
  0
VERTEX
  5
519
100
AcDbEntity
  8
止水栓
  6
CONTINUOUS
 62
     6
100
AcDbVertex
100
AcDb2dVertex
 10
130.109412
 20
105.900766
 30
0.0
  0
SEQEND
  5
51A
100
AcDbEntity
  8
止水栓
  6
CONTINUOUS
 62
     6
  0
ARC
  5
51B
100
AcDbEntity
  8
止水栓
  6
CONTINUOUS
 62
     6
100
AcDbCircle
 10
130.761359
 20
103.379663
 30
0.0
 40
2.749994
100
AcDbArc
 50
115.026443
 51
196.72908
  0
ARC
  5
51C
100
AcDbEntity
  8
止水栓
  6
CONTINUOUS
 62
     6
100
AcDbCircle
 10
130.761359
 20
103.379663
 30
0.0
 40
2.750006
100
AcDbArc
 50
220.361603
 51
319.491608
  0
ARC
  5
51D
100
AcDbEntity
  8
止水栓
  6
CONTINUOUS
 62
     6
100
AcDbCircle
 10
130.761359
 20
103.379663
 30
0.0
 40
2.749995
100
AcDbArc
 50
342.808853
 51
65.58609
  0
LINE
  5
51E
100
AcDbEntity
  8
止水栓
  6
CONTINUOUS
 62
     6
100
AcDbLine
 10
131.396353
 20
115.753854
 30
0.0
 11
131.396353
 21
107.046014
 31
0.0
  0
LINE
  5
51F
100
AcDbEntity
  8
止水栓
  6
CONTINUOUS
 62
     6
100
AcDbLine
 10
130.126364
 20
114.618219
 30
0.0
 11
130.126364
 21
107.046014
 31
0.0
  0
LINE
  5
520
100
AcDbEntity
  8
止水栓
  6
CONTINUOUS
 62
     6
100
AcDbLine
 10
130.761359
 20
112.326151
 30
0.0
 11
130.761359
 21
116.287119
 31
0.0
  0
LINE
  5
521
100
AcDbEntity
  8
止水栓
  6
CONTINUOUS
 62
     6
100
AcDbLine
 10
130.761359
 20
92.8
 30
0.0
 11
130.761359
 21
109.326151
 31
0.0
  0
LINE
  5
522
100
AcDbEntity
  8
止水栓
  6
CONTINUOUS
 62
     6
100
AcDbLine
 10
130.761359
 20
110.326151
 30
0.0
 11
130.761359
 21
111.326151
 31
0.0
  0
LINE
  5
523
100
AcDbEntity
  8
止水栓
  6
CONTINUOUS
 62
     6
100
AcDbLine
 10
131.811346
 20
212.029654
 30
0.0
 11
131.811346
 21
211.179648
 31
0.0
  0
LINE
  5
524
100
AcDbEntity
  8
止水栓
  6
CONTINUOUS
 62
     6
100
AcDbLine
 10
131.691336
 20
212.029654
 30
0.0
 11
131.691336
 21
211.179648
 31
0.0
  0
LINE
  5
525
100
AcDbEntity
  8
止水栓
  6
CONTINUOUS
 62
     6
100
AcDbLine
 10
129.831351
 20
212.029654
 30
0.0
 11
129.831351
 21
211.179648
 31
0.0
  0
LINE
  5
526
100
AcDbEntity
  8
止水栓
  6
CONTINUOUS
 62
     6
100
AcDbLine
 10
129.71134
 20
212.029654
 30
0.0
 11
129.71134
 21
211.179648
 31
0.0
  0
LINE
  5
527
100
AcDbEntity
  8
止水栓
  6
CONTINUOUS
 62
     6
100
AcDbLine
 10
129.71134
 20
212.029654
 30
0.0
 11
131.811346
 21
212.029654
 31
0.0
  0
LINE
  5
528
100
AcDbEntity
  8
止水栓
  6
CONTINUOUS
 62
     6
100
AcDbLine
 10
115.0
 20
221.317282
 30
0.0
 11
124.215903
 21
221.317282
 31
0.0
  0
TEXT
  5
529
100
AcDbEntity
  8
止水栓
  6
CONTINUOUS
 62
     6
100
AcDbText
 10
119.045706
 20
221.667288
 30
0.0
 40
4.0
  1
／ 
 41
0.94164
  7
EXCADSTD
 72
     5
 11
122.632906
 21
221.667288
 31
0.0
100
AcDbText
  0
TEXT
  5
52A
100
AcDbEntity
  8
止水栓
  6
CONTINUOUS
 62
     2
100
AcDbText
 10
121.595322
 20
221.534445
 30
0.0
 40
2.5
  1
２
 41
0.911904
  7
EXCADSTD
 72
     5
 11
123.766522
 21
221.534445
 31
0.0
100
AcDbText
  0
TEXT
  5
52B
100
AcDbEntity
  8
止水栓
  6
CONTINUOUS
 62
     2
100
AcDbText
 10
118.203873
 20
223.229407
 30
0.0
 40
2.5
  1
１
 41
0.911904
  7
EXCADSTD
 72
     5
 11
120.375073
 21
223.229407
 31
0.0
100
AcDbText
  0
TEXT
  5
52C
100
AcDbEntity
  8
止水栓
  6
CONTINUOUS
 62
     2
100
AcDbText
 10
114.858179
 20
221.667288
 30
0.0
 40
4.0
  1
Ｒ
 41
0.94164
  7
EXCADSTD
 72
     5
 11
118.445379
 21
221.667288
 31
0.0
100
AcDbText
  0
TEXT
  5
52D
100
AcDbEntity
  8
止水栓
  6
CONTINUOUS
 62
     2
100
AcDbText
 10
97.3
 20
103.050006
 30
0.0
 40
4.0
  1
ＮＬ２Ｙ
 41
0.819
  7
EXCADSTD
 72
     5
 11
112.9
 21
103.050006
 31
0.0
100
AcDbText
  0
LINE
  5
52E
100
AcDbEntity
  8
止水栓
  6
CONTINUOUS
 62
     6
100
AcDbLine
 10
97.2
 20
102.7
 30
0.0
 11
112.0
 21
102.7
 31
0.0
  0
LEADER
  5
52F
100
AcDbEntity
  8
トラップ
  6
CONTINUOUS
 62
     6
100
AcDbLeader
  3
STANDARD
 73
     3
 74
     1
 75
     0
 40
0.0
 76
     2
 10
120.291397
 20
92.14
 30
0.0
 10
113.000002
 20
87.24
 30
0.0
 77
     6
1001
ACAD
1000
DSTYLE
1002
{
1070
    41
1040
3.5
1070
     5
1000
_EX_NORM
1070
     6
1000
_EX_NORM
1070
     7
1000
_EX_NORM
1070
   341
1005
2C
1002
}
  0
POLYLINE
  5
530
100
AcDbEntity
  8
トラップ
  6
CONTINUOUS
 62
     6
100
AcDb2dPolyline
 66
     1
 10
0.0
 20
0.0
 30
0.0
 70
   128
  0
VERTEX
  5
531
100
AcDbEntity
  8
トラップ
  6
CONTINUOUS
 62
     6
100
AcDbVertex
100
AcDb2dVertex
 10
120.311362
 20
212.679657
 30
0.0
  0
VERTEX
  5
532
100
AcDbEntity
  8
トラップ
  6
CONTINUOUS
 62
     6
100
AcDbVertex
100
AcDb2dVertex
 10
114.7
 20
216.1
 30
0.0
  0
SEQEND
  5
533
100
AcDbEntity
  8
トラップ
  6
CONTINUOUS
 62
     6
  0
LINE
  5
534
100
AcDbEntity
  8
トラップ
  6
CONTINUOUS
 62
     6
100
AcDbLine
 10
117.019178
 20
214.003214
 30
0.0
 11
120.311362
 21
212.679657
 31
0.0
  0
LINE
  5
535
100
AcDbEntity
  8
トラップ
  6
CONTINUOUS
 62
     6
100
AcDbLine
 10
120.311362
 20
212.679657
 30
0.0
 11
117.626395
 21
214.999406
 31
0.0
  0
LINE
  5
536
100
AcDbEntity
  8
トラップ
  6
CONTINUOUS
 62
     6
100
AcDbLine
 10
118.911337
 20
109.562006
 30
0.0
 11
124.211325
 21
109.562006
 31
0.0
  0
LINE
  5
537
100
AcDbEntity
  8
トラップ
  6
CONTINUOUS
 62
     6
100
AcDbLine
 10
124.211325
 20
109.761957
 30
0.0
 11
124.211325
 21
109.562006
 31
0.0
  0
LINE
  5
538
100
AcDbEntity
  8
トラップ
  6
CONTINUOUS
 62
     6
100
AcDbLine
 10
118.911337
 20
109.761957
 30
0.0
 11
118.911337
 21
109.562006
 31
0.0
  0
LINE
  5
539
100
AcDbEntity
  8
トラップ
  6
CONTINUOUS
 62
     6
100
AcDbLine
 10
124.115073
 20
110.161859
 30
0.0
 11
124.461401
 21
109.961908
 31
0.0
  0
LINE
  5
53A
100
AcDbEntity
  8
トラップ
  6
CONTINUOUS
 62
     6
100
AcDbLine
 10
119.007635
 20
110.161859
 30
0.0
 11
118.661307
 21
109.961908
 31
0.0
  0
LINE
  5
53B
100
AcDbEntity
  8
トラップ
  6
CONTINUOUS
 62
     6
100
AcDbLine
 10
118.661337
 20
109.961908
 30
0.0
 11
124.461325
 21
109.961908
 31
0.0
  0
LINE
  5
53C
100
AcDbEntity
  8
トラップ
  6
CONTINUOUS
 62
     6
100
AcDbLine
 10
118.661337
 20
109.761957
 30
0.0
 11
124.461325
 21
109.761957
 31
0.0
  0
LINE
  5
53D
100
AcDbEntity
  8
トラップ
  6
CONTINUOUS
 62
     6
100
AcDbLine
 10
124.461325
 20
109.961908
 30
0.0
 11
124.461325
 21
109.761957
 31
0.0
  0
LINE
  5
53E
100
AcDbEntity
  8
トラップ
  6
CONTINUOUS
 62
     6
100
AcDbLine
 10
118.661337
 20
109.961908
 30
0.0
 11
118.661337
 21
109.761957
 31
0.0
  0
LINE
  5
53F
100
AcDbEntity
  8
トラップ
  6
CONTINUOUS
 62
     6
100
AcDbLine
 10
123.311331
 20
108.862054
 30
0.0
 11
123.561331
 21
109.011957
 31
0.0
  0
LINE
  5
540
100
AcDbEntity
  8
トラップ
  6
CONTINUOUS
 62
     6
100
AcDbLine
 10
119.561331
 20
109.011957
 30
0.0
 11
119.811331
 21
108.862054
 31
0.0
  0
LINE
  5
541
100
AcDbEntity
  8
トラップ
  6
CONTINUOUS
 62
     6
100
AcDbLine
 10
119.811331
 20
108.862054
 30
0.0
 11
123.311331
 21
108.862054
 31
0.0
  0
LINE
  5
542
100
AcDbEntity
  8
トラップ
  6
CONTINUOUS
 62
     6
100
AcDbLine
 10
123.561331
 20
109.562006
 30
0.0
 11
123.561331
 21
109.011957
 31
0.0
  0
LINE
  5
543
100
AcDbEntity
  8
トラップ
  6
CONTINUOUS
 62
     6
100
AcDbLine
 10
119.561331
 20
109.562006
 30
0.0
 11
119.561331
 21
109.011957
 31
0.0
  0
ARC
  5
544
100
AcDbEntity
  8
トラップ
  6
CONTINUOUS
 62
     6
100
AcDbCircle
 10
119.959204
 20
109.770502
 30
0.0
 40
0.848393
100
AcDbArc
 50
243.392502
 51
296.606125
  0
ARC
  5
545
100
AcDbEntity
  8
トラップ
  6
CONTINUOUS
 62
     6
100
AcDbCircle
 10
121.561346
 20
112.178949
 30
0.0
 40
3.256771
100
AcDbArc
 50
256.510895
 51
283.489105
  0
ARC
  5
546
100
AcDbEntity
  8
トラップ
  6
CONTINUOUS
 62
     6
100
AcDbCircle
 10
123.163504
 20
109.770502
 30
0.0
 40
0.848366
100
AcDbArc
 50
243.393875
 51
296.606125
  0
LINE
  5
547
100
AcDbEntity
  8
トラップ
  6
CONTINUOUS
 62
     6
100
AcDbLine
 10
120.339163
 20
109.011957
 30
0.0
 11
120.801657
 21
109.011957
 31
0.0
  0
LINE
  5
548
100
AcDbEntity
  8
トラップ
  6
CONTINUOUS
 62
     6
100
AcDbLine
 10
122.321036
 20
109.011957
 30
0.0
 11
122.783545
 21
109.011957
 31
0.0
  0
LINE
  5
549
100
AcDbEntity
  8
トラップ
  6
CONTINUOUS
 62
     6
100
AcDbLine
 10
122.783545
 20
109.562006
 30
0.0
 11
122.783545
 21
109.011957
 31
0.0
  0
LINE
  5
54A
100
AcDbEntity
  8
トラップ
  6
CONTINUOUS
 62
     6
100
AcDbLine
 10
122.321036
 20
109.562006
 30
0.0
 11
122.321036
 21
109.011957
 31
0.0
  0
LINE
  5
54B
100
AcDbEntity
  8
トラップ
  6
CONTINUOUS
 62
     6
100
AcDbLine
 10
120.801657
 20
109.562006
 30
0.0
 11
120.801657
 21
109.011957
 31
0.0
  0
LINE
  5
54C
100
AcDbEntity
  8
トラップ
  6
CONTINUOUS
 62
     6
100
AcDbLine
 10
120.339163
 20
109.562006
 30
0.0
 11
120.339163
 21
109.011957
 31
0.0
  0
LINE
  5
54D
100
AcDbEntity
  8
トラップ
  6
CONTINUOUS
 62
     6
100
AcDbLine
 10
119.811331
 20
108.211908
 30
0.0
 11
123.311331
 21
108.211908
 31
0.0
  0
POLYLINE
  5
54E
100
AcDbEntity
  8
トラップ
  6
CONTINUOUS
 62
     6
100
AcDb2dPolyline
 66
     1
 10
0.0
 20
0.0
 30
0.0
 70
   128
  0
VERTEX
  5
54F
100
AcDbEntity
  8
トラップ
  6
CONTINUOUS
 62
     6
100
AcDbVertex
100
AcDb2dVertex
 10
120.3776
 20
107.661859
 30
0.0
  0
VERTEX
  5
550
100
AcDbEntity
  8
トラップ
  6
CONTINUOUS
 62
     6
100
AcDbVertex
100
AcDb2dVertex
 10
120.376166
 20
107.704095
 30
0.0
  0
VERTEX
  5
551
100
AcDbEntity
  8
トラップ
  6
CONTINUOUS
 62
     6
100
AcDbVertex
100
AcDb2dVertex
 10
120.371893
 20
107.745844
 30
0.0
  0
VERTEX
  5
552
100
AcDbEntity
  8
トラップ
  6
CONTINUOUS
 62
     6
100
AcDbVertex
100
AcDb2dVertex
 10
120.364844
 20
107.787103
 30
0.0
  0
VERTEX
  5
553
100
AcDbEntity
  8
トラップ
  6
CONTINUOUS
 62
     6
100
AcDbVertex
100
AcDb2dVertex
 10
120.355002
 20
107.827386
 30
0.0
  0
VERTEX
  5
554
100
AcDbEntity
  8
トラップ
  6
CONTINUOUS
 62
     6
100
AcDbVertex
100
AcDb2dVertex
 10
120.34249
 20
107.866449
 30
0.0
  0
VERTEX
  5
555
100
AcDbEntity
  8
トラップ
  6
CONTINUOUS
 62
     6
100
AcDbVertex
100
AcDb2dVertex
 10
120.327368
 20
107.904047
 30
0.0
  0
VERTEX
  5
556
100
AcDbEntity
  8
トラップ
  6
CONTINUOUS
 62
     6
100
AcDbVertex
100
AcDb2dVertex
 10
120.30979
 20
107.939691
 30
0.0
  0
VERTEX
  5
557
100
AcDbEntity
  8
トラップ
  6
CONTINUOUS
 62
     6
100
AcDbVertex
100
AcDb2dVertex
 10
120.289877
 20
107.973138
 30
0.0
  0
VERTEX
  5
558
100
AcDbEntity
  8
トラップ
  6
CONTINUOUS
 62
     6
100
AcDbVertex
100
AcDb2dVertex
 10
120.267767
 20
108.004144
 30
0.0
  0
VERTEX
  5
559
100
AcDbEntity
  8
トラップ
  6
CONTINUOUS
 62
     6
100
AcDbVertex
100
AcDb2dVertex
 10
120.243643
 20
108.032709
 30
0.0
  0
VERTEX
  5
55A
100
AcDbEntity
  8
トラップ
  6
CONTINUOUS
 62
     6
100
AcDbVertex
100
AcDb2dVertex
 10
120.217688
 20
108.058344
 30
0.0
  0
VERTEX
  5
55B
100
AcDbEntity
  8
トラップ
  6
CONTINUOUS
 62
     6
100
AcDbVertex
100
AcDb2dVertex
 10
120.19007
 20
108.081049
 30
0.0
  0
VERTEX
  5
55C
100
AcDbEntity
  8
トラップ
  6
CONTINUOUS
 62
     6
100
AcDbVertex
100
AcDb2dVertex
 10
120.161047
 20
108.10058
 30
0.0
  0
VERTEX
  5
55D
100
AcDbEntity
  8
トラップ
  6
CONTINUOUS
 62
     6
100
AcDbVertex
100
AcDb2dVertex
 10
120.130804
 20
108.116693
 30
0.0
  0
VERTEX
  5
55E
100
AcDbEntity
  8
トラップ
  6
CONTINUOUS
 62
     6
100
AcDbVertex
100
AcDb2dVertex
 10
120.099615
 20
108.129388
 30
0.0
  0
VERTEX
  5
55F
100
AcDbEntity
  8
トラップ
  6
CONTINUOUS
 62
     6
100
AcDbVertex
100
AcDb2dVertex
 10
120.067664
 20
108.138422
 30
0.0
  0
VERTEX
  5
560
100
AcDbEntity
  8
トラップ
  6
CONTINUOUS
 62
     6
100
AcDbVertex
100
AcDb2dVertex
 10
120.035223
 20
108.144037
 30
0.0
  0
VERTEX
  5
561
100
AcDbEntity
  8
トラップ
  6
CONTINUOUS
 62
     6
100
AcDbVertex
100
AcDb2dVertex
 10
120.002539
 20
108.14599
 30
0.0
  0
VERTEX
  5
562
100
AcDbEntity
  8
トラップ
  6
CONTINUOUS
 62
     6
100
AcDbVertex
100
AcDb2dVertex
 10
119.969839
 20
108.144037
 30
0.0
  0
VERTEX
  5
563
100
AcDbEntity
  8
トラップ
  6
CONTINUOUS
 62
     6
100
AcDbVertex
100
AcDb2dVertex
 10
119.937399
 20
108.138666
 30
0.0
  0
VERTEX
  5
564
100
AcDbEntity
  8
トラップ
  6
CONTINUOUS
 62
     6
100
AcDbVertex
100
AcDb2dVertex
 10
119.905463
 20
108.129388
 30
0.0
  0
VERTEX
  5
565
100
AcDbEntity
  8
トラップ
  6
CONTINUOUS
 62
     6
100
AcDbVertex
100
AcDb2dVertex
 10
119.874258
 20
108.116693
 30
0.0
  0
VERTEX
  5
566
100
AcDbEntity
  8
トラップ
  6
CONTINUOUS
 62
     6
100
AcDbVertex
100
AcDb2dVertex
 10
119.844016
 20
108.10058
 30
0.0
  0
VERTEX
  5
567
100
AcDbEntity
  8
トラップ
  6
CONTINUOUS
 62
     6
100
AcDbVertex
100
AcDb2dVertex
 10
119.815009
 20
108.081049
 30
0.0
  0
VERTEX
  5
568
100
AcDbEntity
  8
トラップ
  6
CONTINUOUS
 62
     6
100
AcDbVertex
100
AcDb2dVertex
 10
119.787405
 20
108.058344
 30
0.0
  0
VERTEX
  5
569
100
AcDbEntity
  8
トラップ
  6
CONTINUOUS
 62
     6
100
AcDbVertex
100
AcDb2dVertex
 10
119.761435
 20
108.032465
 30
0.0
  0
VERTEX
  5
56A
100
AcDbEntity
  8
トラップ
  6
CONTINUOUS
 62
     6
100
AcDbVertex
100
AcDb2dVertex
 10
119.737372
 20
108.004144
 30
0.0
  0
VERTEX
  5
56B
100
AcDbEntity
  8
トラップ
  6
CONTINUOUS
 62
     6
100
AcDbVertex
100
AcDb2dVertex
 10
119.715277
 20
107.973138
 30
0.0
  0
VERTEX
  5
56C
100
AcDbEntity
  8
トラップ
  6
CONTINUOUS
 62
     6
100
AcDbVertex
100
AcDb2dVertex
 10
119.69538
 20
107.939447
 30
0.0
  0
VERTEX
  5
56D
100
AcDbEntity
  8
トラップ
  6
CONTINUOUS
 62
     6
100
AcDbVertex
100
AcDb2dVertex
 10
119.677771
 20
107.904047
 30
0.0
  0
VERTEX
  5
56E
100
AcDbEntity
  8
トラップ
  6
CONTINUOUS
 62
     6
100
AcDbVertex
100
AcDb2dVertex
 10
119.662665
 20
107.866693
 30
0.0
  0
VERTEX
  5
56F
100
AcDbEntity
  8
トラップ
  6
CONTINUOUS
 62
     6
100
AcDbVertex
100
AcDb2dVertex
 10
119.650168
 20
107.827631
 30
0.0
  0
VERTEX
  5
570
100
AcDbEntity
  8
トラップ
  6
CONTINUOUS
 62
     6
100
AcDbVertex
100
AcDb2dVertex
 10
119.640295
 20
107.787103
 30
0.0
  0
VERTEX
  5
571
100
AcDbEntity
  8
トラップ
  6
CONTINUOUS
 62
     6
100
AcDbVertex
100
AcDb2dVertex
 10
119.633215
 20
107.745844
 30
0.0
  0
VERTEX
  5
572
100
AcDbEntity
  8
トラップ
  6
CONTINUOUS
 62
     6
100
AcDbVertex
100
AcDb2dVertex
 10
119.628958
 20
107.703851
 30
0.0
  0
VERTEX
  5
573
100
AcDbEntity
  8
トラップ
  6
CONTINUOUS
 62
     6
100
AcDbVertex
100
AcDb2dVertex
 10
119.627478
 20
107.661859
 30
0.0
  0
VERTEX
  5
574
100
AcDbEntity
  8
トラップ
  6
CONTINUOUS
 62
     6
100
AcDbVertex
100
AcDb2dVertex
 10
119.628897
 20
107.619623
 30
0.0
  0
VERTEX
  5
575
100
AcDbEntity
  8
トラップ
  6
CONTINUOUS
 62
     6
100
AcDbVertex
100
AcDb2dVertex
 10
119.633154
 20
107.577875
 30
0.0
  0
VERTEX
  5
576
100
AcDbEntity
  8
トラップ
  6
CONTINUOUS
 62
     6
100
AcDbVertex
100
AcDb2dVertex
 10
119.640295
 20
107.536615
 30
0.0
  0
VERTEX
  5
577
100
AcDbEntity
  8
トラップ
  6
CONTINUOUS
 62
     6
100
AcDbVertex
100
AcDb2dVertex
 10
119.650137
 20
107.496332
 30
0.0
  0
VERTEX
  5
578
100
AcDbEntity
  8
トラップ
  6
CONTINUOUS
 62
     6
100
AcDbVertex
100
AcDb2dVertex
 10
119.66268
 20
107.457269
 30
0.0
  0
VERTEX
  5
579
100
AcDbEntity
  8
トラップ
  6
CONTINUOUS
 62
     6
100
AcDbVertex
100
AcDb2dVertex
 10
119.677771
 20
107.419916
 30
0.0
  0
VERTEX
  5
57A
100
AcDbEntity
  8
トラップ
  6
CONTINUOUS
 62
     6
100
AcDbVertex
100
AcDb2dVertex
 10
119.695364
 20
107.384271
 30
0.0
  0
VERTEX
  5
57B
100
AcDbEntity
  8
トラップ
  6
CONTINUOUS
 62
     6
100
AcDbVertex
100
AcDb2dVertex
 10
119.715292
 20
107.350824
 30
0.0
  0
VERTEX
  5
57C
100
AcDbEntity
  8
トラップ
  6
CONTINUOUS
 62
     6
100
AcDbVertex
100
AcDb2dVertex
 10
119.737372
 20
107.319574
 30
0.0
  0
VERTEX
  5
57D
100
AcDbEntity
  8
トラップ
  6
CONTINUOUS
 62
     6
100
AcDbVertex
100
AcDb2dVertex
 10
119.761496
 20
107.29101
 30
0.0
  0
VERTEX
  5
57E
100
AcDbEntity
  8
トラップ
  6
CONTINUOUS
 62
     6
100
AcDbVertex
100
AcDb2dVertex
 10
119.787482
 20
107.265375
 30
0.0
  0
VERTEX
  5
57F
100
AcDbEntity
  8
トラップ
  6
CONTINUOUS
 62
     6
100
AcDbVertex
100
AcDb2dVertex
 10
119.815009
 20
107.24267
 30
0.0
  0
VERTEX
  5
580
100
AcDbEntity
  8
トラップ
  6
CONTINUOUS
 62
     6
100
AcDbVertex
100
AcDb2dVertex
 10
119.844031
 20
107.223138
 30
0.0
  0
VERTEX
  5
581
100
AcDbEntity
  8
トラップ
  6
CONTINUOUS
 62
     6
100
AcDbVertex
100
AcDb2dVertex
 10
119.874243
 20
107.207025
 30
0.0
  0
VERTEX
  5
582
100
AcDbEntity
  8
トラップ
  6
CONTINUOUS
 62
     6
100
AcDbVertex
100
AcDb2dVertex
 10
119.905463
 20
107.19433
 30
0.0
  0
VERTEX
  5
583
100
AcDbEntity
  8
トラップ
  6
CONTINUOUS
 62
     6
100
AcDbVertex
100
AcDb2dVertex
 10
119.937399
 20
107.185297
 30
0.0
  0
VERTEX
  5
584
100
AcDbEntity
  8
トラップ
  6
CONTINUOUS
 62
     6
100
AcDbVertex
100
AcDb2dVertex
 10
119.969824
 20
107.179681
 30
0.0
  0
VERTEX
  5
585
100
AcDbEntity
  8
トラップ
  6
CONTINUOUS
 62
     6
100
AcDbVertex
100
AcDb2dVertex
 10
120.002539
 20
107.177728
 30
0.0
  0
VERTEX
  5
586
100
AcDbEntity
  8
トラップ
  6
CONTINUOUS
 62
     6
100
AcDbVertex
100
AcDb2dVertex
 10
120.035223
 20
107.179681
 30
0.0
  0
VERTEX
  5
587
100
AcDbEntity
  8
トラップ
  6
CONTINUOUS
 62
     6
100
AcDbVertex
100
AcDb2dVertex
 10
120.067648
 20
107.185052
 30
0.0
  0
VERTEX
  5
588
100
AcDbEntity
  8
トラップ
  6
CONTINUOUS
 62
     6
100
AcDbVertex
100
AcDb2dVertex
 10
120.099615
 20
107.19433
 30
0.0
  0
VERTEX
  5
589
100
AcDbEntity
  8
トラップ
  6
CONTINUOUS
 62
     6
100
AcDbVertex
100
AcDb2dVertex
 10
120.13082
 20
107.207025
 30
0.0
  0
VERTEX
  5
58A
100
AcDbEntity
  8
トラップ
  6
CONTINUOUS
 62
     6
100
AcDbVertex
100
AcDb2dVertex
 10
120.161032
 20
107.223138
 30
0.0
  0
SEQEND
  5
58B
100
AcDbEntity
  8
トラップ
  6
CONTINUOUS
 62
     6
  0
POLYLINE
  5
58C
100
AcDbEntity
  8
トラップ
  6
CONTINUOUS
 62
     6
100
AcDb2dPolyline
 66
     1
 10
0.0
 20
0.0
 30
0.0
 70
   128
  0
VERTEX
  5
58D
100
AcDbEntity
  8
トラップ
  6
CONTINUOUS
 62
     6
100
AcDbVertex
100
AcDb2dVertex
 10
120.161032
 20
107.223138
 30
0.0
  0
VERTEX
  5
58E
100
AcDbEntity
  8
トラップ
  6
CONTINUOUS
 62
     6
100
AcDbVertex
100
AcDb2dVertex
 10
120.19007
 20
107.24267
 30
0.0
  0
VERTEX
  5
58F
100
AcDbEntity
  8
トラップ
  6
CONTINUOUS
 62
     6
100
AcDbVertex
100
AcDb2dVertex
 10
120.217657
 20
107.265375
 30
0.0
  0
VERTEX
  5
590
100
AcDbEntity
  8
トラップ
  6
CONTINUOUS
 62
     6
100
AcDbVertex
100
AcDb2dVertex
 10
120.243613
 20
107.291254
 30
0.0
  0
VERTEX
  5
591
100
AcDbEntity
  8
トラップ
  6
CONTINUOUS
 62
     6
100
AcDbVertex
100
AcDb2dVertex
 10
120.267767
 20
107.319574
 30
0.0
  0
VERTEX
  5
592
100
AcDbEntity
  8
トラップ
  6
CONTINUOUS
 62
     6
100
AcDbVertex
100
AcDb2dVertex
 10
120.289877
 20
107.35058
 30
0.0
  0
VERTEX
  5
593
100
AcDbEntity
  8
トラップ
  6
CONTINUOUS
 62
     6
100
AcDbVertex
100
AcDb2dVertex
 10
120.30979
 20
107.384271
 30
0.0
  0
VERTEX
  5
594
100
AcDbEntity
  8
トラップ
  6
CONTINUOUS
 62
     6
100
AcDbVertex
100
AcDb2dVertex
 10
120.327368
 20
107.419916
 30
0.0
  0
VERTEX
  5
595
100
AcDbEntity
  8
トラップ
  6
CONTINUOUS
 62
     6
100
AcDbVertex
100
AcDb2dVertex
 10
120.342474
 20
107.457269
 30
0.0
  0
VERTEX
  5
596
100
AcDbEntity
  8
トラップ
  6
CONTINUOUS
 62
     6
100
AcDbVertex
100
AcDb2dVertex
 10
120.355002
 20
107.496332
 30
0.0
  0
VERTEX
  5
597
100
AcDbEntity
  8
トラップ
  6
CONTINUOUS
 62
     6
100
AcDbVertex
100
AcDb2dVertex
 10
120.364844
 20
107.536615
 30
0.0
  0
SEQEND
  5
598
100
AcDbEntity
  8
トラップ
  6
CONTINUOUS
 62
     6
  0
POLYLINE
  5
599
100
AcDbEntity
  8
トラップ
  6
CONTINUOUS
 62
     6
100
AcDb2dPolyline
 66
     1
 10
0.0
 20
0.0
 30
0.0
 70
   128
  0
VERTEX
  5
59A
100
AcDbEntity
  8
トラップ
  6
CONTINUOUS
 62
     6
100
AcDbVertex
100
AcDb2dVertex
 10
120.364844
 20
107.536615
 30
0.0
  0
VERTEX
  5
59B
100
AcDbEntity
  8
トラップ
  6
CONTINUOUS
 62
     6
100
AcDbVertex
100
AcDb2dVertex
 10
120.371924
 20
107.577875
 30
0.0
  0
VERTEX
  5
59C
100
AcDbEntity
  8
トラップ
  6
CONTINUOUS
 62
     6
100
AcDbVertex
100
AcDb2dVertex
 10
120.376196
 20
107.619867
 30
0.0
  0
VERTEX
  5
59D
100
AcDbEntity
  8
トラップ
  6
CONTINUOUS
 62
     6
100
AcDbVertex
100
AcDb2dVertex
 10
120.377646
 20
107.662103
 30
0.0
  0
SEQEND
  5
59E
100
AcDbEntity
  8
トラップ
  6
CONTINUOUS
 62
     6
  0
ARC
  5
59F
100
AcDbEntity
  8
トラップ
  6
CONTINUOUS
 62
     6
100
AcDbCircle
 10
120.467734
 20
107.661859
 30
0.0
 40
0.856398
100
AcDbArc
 50
140.037827
 51
219.962143
  0
POLYLINE
  5
5A0
100
AcDbEntity
  8
トラップ
  6
CONTINUOUS
 62
     6
100
AcDb2dPolyline
 66
     1
 10
0.0
 20
0.0
 30
0.0
 70
   128
  0
VERTEX
  5
5A1
100
AcDbEntity
  8
トラップ
  6
CONTINUOUS
 62
     6
100
AcDbVertex
100
AcDb2dVertex
 10
122.31124
 20
107.661859
 30
0.0
  0
VERTEX
  5
5A2
100
AcDbEntity
  8
トラップ
  6
CONTINUOUS
 62
     6
100
AcDbVertex
100
AcDb2dVertex
 10
122.308386
 20
107.704095
 30
0.0
  0
VERTEX
  5
5A3
100
AcDbEntity
  8
トラップ
  6
CONTINUOUS
 62
     6
100
AcDbVertex
100
AcDb2dVertex
 10
122.299841
 20
107.745844
 30
0.0
  0
VERTEX
  5
5A4
100
AcDbEntity
  8
トラップ
  6
CONTINUOUS
 62
     6
100
AcDbVertex
100
AcDb2dVertex
 10
122.285666
 20
107.787103
 30
0.0
  0
VERTEX
  5
5A5
100
AcDbEntity
  8
トラップ
  6
CONTINUOUS
 62
     6
100
AcDbVertex
100
AcDb2dVertex
 10
122.265982
 20
107.827386
 30
0.0
  0
VERTEX
  5
5A6
100
AcDbEntity
  8
トラップ
  6
CONTINUOUS
 62
     6
100
AcDbVertex
100
AcDb2dVertex
 10
122.240927
 20
107.866449
 30
0.0
  0
VERTEX
  5
5A7
100
AcDbEntity
  8
トラップ
  6
CONTINUOUS
 62
     6
100
AcDbVertex
100
AcDb2dVertex
 10
122.210776
 20
107.904047
 30
0.0
  0
VERTEX
  5
5A8
100
AcDbEntity
  8
トラップ
  6
CONTINUOUS
 62
     6
100
AcDbVertex
100
AcDb2dVertex
 10
122.17562
 20
107.939691
 30
0.0
  0
VERTEX
  5
5A9
100
AcDbEntity
  8
トラップ
  6
CONTINUOUS
 62
     6
100
AcDbVertex
100
AcDb2dVertex
 10
122.135809
 20
107.973138
 30
0.0
  0
VERTEX
  5
5AA
100
AcDbEntity
  8
トラップ
  6
CONTINUOUS
 62
     6
100
AcDbVertex
100
AcDb2dVertex
 10
122.091605
 20
108.004144
 30
0.0
  0
VERTEX
  5
5AB
100
AcDbEntity
  8
トラップ
  6
CONTINUOUS
 62
     6
100
AcDbVertex
100
AcDb2dVertex
 10
122.043372
 20
108.032709
 30
0.0
  0
VERTEX
  5
5AC
100
AcDbEntity
  8
トラップ
  6
CONTINUOUS
 62
     6
100
AcDbVertex
100
AcDb2dVertex
 10
121.991476
 20
108.058344
 30
0.0
  0
VERTEX
  5
5AD
100
AcDbEntity
  8
トラップ
  6
CONTINUOUS
 62
     6
100
AcDbVertex
100
AcDb2dVertex
 10
121.936285
 20
108.081049
 30
0.0
  0
VERTEX
  5
5AE
100
AcDbEntity
  8
トラップ
  6
CONTINUOUS
 62
     6
100
AcDbVertex
100
AcDb2dVertex
 10
121.878256
 20
108.10058
 30
0.0
  0
VERTEX
  5
5AF
100
AcDbEntity
  8
トラップ
  6
CONTINUOUS
 62
     6
100
AcDbVertex
100
AcDb2dVertex
 10
121.817831
 20
108.116693
 30
0.0
  0
VERTEX
  5
5B0
100
AcDbEntity
  8
トラップ
  6
CONTINUOUS
 62
     6
100
AcDbVertex
100
AcDb2dVertex
 10
121.755423
 20
108.129388
 30
0.0
  0
VERTEX
  5
5B1
100
AcDbEntity
  8
トラップ
  6
CONTINUOUS
 62
     6
100
AcDbVertex
100
AcDb2dVertex
 10
121.69155
 20
108.138422
 30
0.0
  0
VERTEX
  5
5B2
100
AcDbEntity
  8
トラップ
  6
CONTINUOUS
 62
     6
100
AcDbVertex
100
AcDb2dVertex
 10
121.626669
 20
108.144037
 30
0.0
  0
VERTEX
  5
5B3
100
AcDbEntity
  8
トラップ
  6
CONTINUOUS
 62
     6
100
AcDbVertex
100
AcDb2dVertex
 10
121.561362
 20
108.14599
 30
0.0
  0
VERTEX
  5
5B4
100
AcDbEntity
  8
トラップ
  6
CONTINUOUS
 62
     6
100
AcDbVertex
100
AcDb2dVertex
 10
121.496008
 20
108.144037
 30
0.0
  0
VERTEX
  5
5B5
100
AcDbEntity
  8
トラップ
  6
CONTINUOUS
 62
     6
100
AcDbVertex
100
AcDb2dVertex
 10
121.431143
 20
108.138666
 30
0.0
  0
VERTEX
  5
5B6
100
AcDbEntity
  8
トラップ
  6
CONTINUOUS
 62
     6
100
AcDbVertex
100
AcDb2dVertex
 10
121.367285
 20
108.129388
 30
0.0
  0
VERTEX
  5
5B7
100
AcDbEntity
  8
トラップ
  6
CONTINUOUS
 62
     6
100
AcDbVertex
100
AcDb2dVertex
 10
121.304907
 20
108.116693
 30
0.0
  0
VERTEX
  5
5B8
100
AcDbEntity
  8
トラップ
  6
CONTINUOUS
 62
     6
100
AcDbVertex
100
AcDb2dVertex
 10
121.244482
 20
108.10058
 30
0.0
  0
VERTEX
  5
5B9
100
AcDbEntity
  8
トラップ
  6
CONTINUOUS
 62
     6
100
AcDbVertex
100
AcDb2dVertex
 10
121.186423
 20
108.081049
 30
0.0
  0
VERTEX
  5
5BA
100
AcDbEntity
  8
トラップ
  6
CONTINUOUS
 62
     6
100
AcDbVertex
100
AcDb2dVertex
 10
121.131262
 20
108.058344
 30
0.0
  0
VERTEX
  5
5BB
100
AcDbEntity
  8
トラップ
  6
CONTINUOUS
 62
     6
100
AcDbVertex
100
AcDb2dVertex
 10
121.079352
 20
108.032465
 30
0.0
  0
VERTEX
  5
5BC
100
AcDbEntity
  8
トラップ
  6
CONTINUOUS
 62
     6
100
AcDbVertex
100
AcDb2dVertex
 10
121.031104
 20
108.004144
 30
0.0
  0
VERTEX
  5
5BD
100
AcDbEntity
  8
トラップ
  6
CONTINUOUS
 62
     6
100
AcDbVertex
100
AcDb2dVertex
 10
120.986914
 20
107.973138
 30
0.0
  0
VERTEX
  5
5BE
100
AcDbEntity
  8
トラップ
  6
CONTINUOUS
 62
     6
100
AcDbVertex
100
AcDb2dVertex
 10
120.947089
 20
107.939447
 30
0.0
  0
VERTEX
  5
5BF
100
AcDbEntity
  8
トラップ
  6
CONTINUOUS
 62
     6
100
AcDbVertex
100
AcDb2dVertex
 10
120.911932
 20
107.904047
 30
0.0
  0
VERTEX
  5
5C0
100
AcDbEntity
  8
トラップ
  6
CONTINUOUS
 62
     6
100
AcDbVertex
100
AcDb2dVertex
 10
120.881735
 20
107.866693
 30
0.0
  0
VERTEX
  5
5C1
100
AcDbEntity
  8
トラップ
  6
CONTINUOUS
 62
     6
100
AcDbVertex
100
AcDb2dVertex
 10
120.85668
 20
107.827631
 30
0.0
  0
VERTEX
  5
5C2
100
AcDbEntity
  8
トラップ
  6
CONTINUOUS
 62
     6
100
AcDbVertex
100
AcDb2dVertex
 10
120.837042
 20
107.787103
 30
0.0
  0
VERTEX
  5
5C3
100
AcDbEntity
  8
トラップ
  6
CONTINUOUS
 62
     6
100
AcDbVertex
100
AcDb2dVertex
 10
120.822897
 20
107.745844
 30
0.0
  0
VERTEX
  5
5C4
100
AcDbEntity
  8
トラップ
  6
CONTINUOUS
 62
     6
100
AcDbVertex
100
AcDb2dVertex
 10
120.814368
 20
107.703851
 30
0.0
  0
VERTEX
  5
5C5
100
AcDbEntity
  8
トラップ
  6
CONTINUOUS
 62
     6
100
AcDbVertex
100
AcDb2dVertex
 10
120.811468
 20
107.661859
 30
0.0
  0
VERTEX
  5
5C6
100
AcDbEntity
  8
トラップ
  6
CONTINUOUS
 62
     6
100
AcDbVertex
100
AcDb2dVertex
 10
120.814322
 20
107.619623
 30
0.0
  0
VERTEX
  5
5C7
100
AcDbEntity
  8
トラップ
  6
CONTINUOUS
 62
     6
100
AcDbVertex
100
AcDb2dVertex
 10
120.822867
 20
107.577875
 30
0.0
  0
VERTEX
  5
5C8
100
AcDbEntity
  8
トラップ
  6
CONTINUOUS
 62
     6
100
AcDbVertex
100
AcDb2dVertex
 10
120.837042
 20
107.536615
 30
0.0
  0
VERTEX
  5
5C9
100
AcDbEntity
  8
トラップ
  6
CONTINUOUS
 62
     6
100
AcDbVertex
100
AcDb2dVertex
 10
120.856726
 20
107.496332
 30
0.0
  0
VERTEX
  5
5CA
100
AcDbEntity
  8
トラップ
  6
CONTINUOUS
 62
     6
100
AcDbVertex
100
AcDb2dVertex
 10
120.881781
 20
107.457269
 30
0.0
  0
VERTEX
  5
5CB
100
AcDbEntity
  8
トラップ
  6
CONTINUOUS
 62
     6
100
AcDbVertex
100
AcDb2dVertex
 10
120.911932
 20
107.419916
 30
0.0
  0
VERTEX
  5
5CC
100
AcDbEntity
  8
トラップ
  6
CONTINUOUS
 62
     6
100
AcDbVertex
100
AcDb2dVertex
 10
120.947089
 20
107.384271
 30
0.0
  0
VERTEX
  5
5CD
100
AcDbEntity
  8
トラップ
  6
CONTINUOUS
 62
     6
100
AcDbVertex
100
AcDb2dVertex
 10
120.986899
 20
107.350824
 30
0.0
  0
VERTEX
  5
5CE
100
AcDbEntity
  8
トラップ
  6
CONTINUOUS
 62
     6
100
AcDbVertex
100
AcDb2dVertex
 10
121.031104
 20
107.319574
 30
0.0
  0
VERTEX
  5
5CF
100
AcDbEntity
  8
トラップ
  6
CONTINUOUS
 62
     6
100
AcDbVertex
100
AcDb2dVertex
 10
121.079337
 20
107.29101
 30
0.0
  0
VERTEX
  5
5D0
100
AcDbEntity
  8
トラップ
  6
CONTINUOUS
 62
     6
100
AcDbVertex
100
AcDb2dVertex
 10
121.131232
 20
107.265375
 30
0.0
  0
VERTEX
  5
5D1
100
AcDbEntity
  8
トラップ
  6
CONTINUOUS
 62
     6
100
AcDbVertex
100
AcDb2dVertex
 10
121.186423
 20
107.24267
 30
0.0
  0
VERTEX
  5
5D2
100
AcDbEntity
  8
トラップ
  6
CONTINUOUS
 62
     6
100
AcDbVertex
100
AcDb2dVertex
 10
121.244452
 20
107.223138
 30
0.0
  0
VERTEX
  5
5D3
100
AcDbEntity
  8
トラップ
  6
CONTINUOUS
 62
     6
100
AcDbVertex
100
AcDb2dVertex
 10
121.304877
 20
107.207025
 30
0.0
  0
VERTEX
  5
5D4
100
AcDbEntity
  8
トラップ
  6
CONTINUOUS
 62
     6
100
AcDbVertex
100
AcDb2dVertex
 10
121.367285
 20
107.19433
 30
0.0
  0
VERTEX
  5
5D5
100
AcDbEntity
  8
トラップ
  6
CONTINUOUS
 62
     6
100
AcDbVertex
100
AcDb2dVertex
 10
121.431158
 20
107.185297
 30
0.0
  0
VERTEX
  5
5D6
100
AcDbEntity
  8
トラップ
  6
CONTINUOUS
 62
     6
100
AcDbVertex
100
AcDb2dVertex
 10
121.496039
 20
107.179681
 30
0.0
  0
VERTEX
  5
5D7
100
AcDbEntity
  8
トラップ
  6
CONTINUOUS
 62
     6
100
AcDbVertex
100
AcDb2dVertex
 10
121.561362
 20
107.177728
 30
0.0
  0
VERTEX
  5
5D8
100
AcDbEntity
  8
トラップ
  6
CONTINUOUS
 62
     6
100
AcDbVertex
100
AcDb2dVertex
 10
121.626715
 20
107.179681
 30
0.0
  0
VERTEX
  5
5D9
100
AcDbEntity
  8
トラップ
  6
CONTINUOUS
 62
     6
100
AcDbVertex
100
AcDb2dVertex
 10
121.69158
 20
107.185052
 30
0.0
  0
VERTEX
  5
5DA
100
AcDbEntity
  8
トラップ
  6
CONTINUOUS
 62
     6
100
AcDbVertex
100
AcDb2dVertex
 10
121.755423
 20
107.19433
 30
0.0
  0
VERTEX
  5
5DB
100
AcDbEntity
  8
トラップ
  6
CONTINUOUS
 62
     6
100
AcDbVertex
100
AcDb2dVertex
 10
121.817801
 20
107.207025
 30
0.0
  0
VERTEX
  5
5DC
100
AcDbEntity
  8
トラップ
  6
CONTINUOUS
 62
     6
100
AcDbVertex
100
AcDb2dVertex
 10
121.878226
 20
107.223138
 30
0.0
  0
SEQEND
  5
5DD
100
AcDbEntity
  8
トラップ
  6
CONTINUOUS
 62
     6
  0
POLYLINE
  5
5DE
100
AcDbEntity
  8
トラップ
  6
CONTINUOUS
 62
     6
100
AcDb2dPolyline
 66
     1
 10
0.0
 20
0.0
 30
0.0
 70
   128
  0
VERTEX
  5
5DF
100
AcDbEntity
  8
トラップ
  6
CONTINUOUS
 62
     6
100
AcDbVertex
100
AcDb2dVertex
 10
121.878226
 20
107.223138
 30
0.0
  0
VERTEX
  5
5E0
100
AcDbEntity
  8
トラップ
  6
CONTINUOUS
 62
     6
100
AcDbVertex
100
AcDb2dVertex
 10
121.936285
 20
107.24267
 30
0.0
  0
VERTEX
  5
5E1
100
AcDbEntity
  8
トラップ
  6
CONTINUOUS
 62
     6
100
AcDbVertex
100
AcDb2dVertex
 10
121.991446
 20
107.265375
 30
0.0
  0
VERTEX
  5
5E2
100
AcDbEntity
  8
トラップ
  6
CONTINUOUS
 62
     6
100
AcDbVertex
100
AcDb2dVertex
 10
122.043356
 20
107.291254
 30
0.0
  0
VERTEX
  5
5E3
100
AcDbEntity
  8
トラップ
  6
CONTINUOUS
 62
     6
100
AcDbVertex
100
AcDb2dVertex
 10
122.091605
 20
107.319574
 30
0.0
  0
VERTEX
  5
5E4
100
AcDbEntity
  8
トラップ
  6
CONTINUOUS
 62
     6
100
AcDbVertex
100
AcDb2dVertex
 10
122.135794
 20
107.35058
 30
0.0
  0
VERTEX
  5
5E5
100
AcDbEntity
  8
トラップ
  6
CONTINUOUS
 62
     6
100
AcDbVertex
100
AcDb2dVertex
 10
122.17562
 20
107.384271
 30
0.0
  0
VERTEX
  5
5E6
100
AcDbEntity
  8
トラップ
  6
CONTINUOUS
 62
     6
100
AcDbVertex
100
AcDb2dVertex
 10
122.210776
 20
107.419916
 30
0.0
  0
VERTEX
  5
5E7
100
AcDbEntity
  8
トラップ
  6
CONTINUOUS
 62
     6
100
AcDbVertex
100
AcDb2dVertex
 10
122.240973
 20
107.457269
 30
0.0
  0
VERTEX
  5
5E8
100
AcDbEntity
  8
トラップ
  6
CONTINUOUS
 62
     6
100
AcDbVertex
100
AcDb2dVertex
 10
122.266028
 20
107.496332
 30
0.0
  0
VERTEX
  5
5E9
100
AcDbEntity
  8
トラップ
  6
CONTINUOUS
 62
     6
100
AcDbVertex
100
AcDb2dVertex
 10
122.285666
 20
107.536615
 30
0.0
  0
SEQEND
  5
5EA
100
AcDbEntity
  8
トラップ
  6
CONTINUOUS
 62
     6
  0
POLYLINE
  5
5EB
100
AcDbEntity
  8
トラップ
  6
CONTINUOUS
 62
     6
100
AcDb2dPolyline
 66
     1
 10
0.0
 20
0.0
 30
0.0
 70
   128
  0
VERTEX
  5
5EC
100
AcDbEntity
  8
トラップ
  6
CONTINUOUS
 62
     6
100
AcDbVertex
100
AcDb2dVertex
 10
122.285666
 20
107.536615
 30
0.0
  0
VERTEX
  5
5ED
100
AcDbEntity
  8
トラップ
  6
CONTINUOUS
 62
     6
100
AcDbVertex
100
AcDb2dVertex
 10
122.299811
 20
107.577875
 30
0.0
  0
VERTEX
  5
5EE
100
AcDbEntity
  8
トラップ
  6
CONTINUOUS
 62
     6
100
AcDbVertex
100
AcDb2dVertex
 10
122.30834
 20
107.619867
 30
0.0
  0
VERTEX
  5
5EF
100
AcDbEntity
  8
トラップ
  6
CONTINUOUS
 62
     6
100
AcDbVertex
100
AcDb2dVertex
 10
122.311179
 20
107.662103
 30
0.0
  0
SEQEND
  5
5F0
100
AcDbEntity
  8
トラップ
  6
CONTINUOUS
 62
     6
  0
POLYLINE
  5
5F1
100
AcDbEntity
  8
トラップ
  6
CONTINUOUS
 62
     6
100
AcDb2dPolyline
 66
     1
 10
0.0
 20
0.0
 30
0.0
 70
   128
  0
VERTEX
  5
5F2
100
AcDbEntity
  8
トラップ
  6
CONTINUOUS
 62
     6
100
AcDbVertex
100
AcDb2dVertex
 10
123.495184
 20
107.661859
 30
0.0
  0
VERTEX
  5
5F3
100
AcDbEntity
  8
トラップ
  6
CONTINUOUS
 62
     6
100
AcDbVertex
100
AcDb2dVertex
 10
123.49375
 20
107.704095
 30
0.0
  0
VERTEX
  5
5F4
100
AcDbEntity
  8
トラップ
  6
CONTINUOUS
 62
     6
100
AcDbVertex
100
AcDb2dVertex
 10
123.489462
 20
107.745844
 30
0.0
  0
VERTEX
  5
5F5
100
AcDbEntity
  8
トラップ
  6
CONTINUOUS
 62
     6
100
AcDbVertex
100
AcDb2dVertex
 10
123.482428
 20
107.787103
 30
0.0
  0
VERTEX
  5
5F6
100
AcDbEntity
  8
トラップ
  6
CONTINUOUS
 62
     6
100
AcDbVertex
100
AcDb2dVertex
 10
123.472586
 20
107.827386
 30
0.0
  0
VERTEX
  5
5F7
100
AcDbEntity
  8
トラップ
  6
CONTINUOUS
 62
     6
100
AcDbVertex
100
AcDb2dVertex
 10
123.460059
 20
107.866449
 30
0.0
  0
VERTEX
  5
5F8
100
AcDbEntity
  8
トラップ
  6
CONTINUOUS
 62
     6
100
AcDbVertex
100
AcDb2dVertex
 10
123.444952
 20
107.904047
 30
0.0
  0
VERTEX
  5
5F9
100
AcDbEntity
  8
トラップ
  6
CONTINUOUS
 62
     6
100
AcDbVertex
100
AcDb2dVertex
 10
123.427359
 20
107.939691
 30
0.0
  0
VERTEX
  5
5FA
100
AcDbEntity
  8
トラップ
  6
CONTINUOUS
 62
     6
100
AcDbVertex
100
AcDb2dVertex
 10
123.407431
 20
107.973138
 30
0.0
  0
VERTEX
  5
5FB
100
AcDbEntity
  8
トラップ
  6
CONTINUOUS
 62
     6
100
AcDbVertex
100
AcDb2dVertex
 10
123.385352
 20
108.004144
 30
0.0
  0
VERTEX
  5
5FC
100
AcDbEntity
  8
トラップ
  6
CONTINUOUS
 62
     6
100
AcDbVertex
100
AcDb2dVertex
 10
123.361227
 20
108.032709
 30
0.0
  0
VERTEX
  5
5FD
100
AcDbEntity
  8
トラップ
  6
CONTINUOUS
 62
     6
100
AcDbVertex
100
AcDb2dVertex
 10
123.335242
 20
108.058344
 30
0.0
  0
VERTEX
  5
5FE
100
AcDbEntity
  8
トラップ
  6
CONTINUOUS
 62
     6
100
AcDbVertex
100
AcDb2dVertex
 10
123.307715
 20
108.081049
 30
0.0
  0
VERTEX
  5
5FF
100
AcDbEntity
  8
トラップ
  6
CONTINUOUS
 62
     6
100
AcDbVertex
100
AcDb2dVertex
 10
123.278693
 20
108.10058
 30
0.0
  0
VERTEX
  5
600
100
AcDbEntity
  8
トラップ
  6
CONTINUOUS
 62
     6
100
AcDbVertex
100
AcDb2dVertex
 10
123.24848
 20
108.116693
 30
0.0
  0
VERTEX
  5
601
100
AcDbEntity
  8
トラップ
  6
CONTINUOUS
 62
     6
100
AcDbVertex
100
AcDb2dVertex
 10
123.217245
 20
108.129388
 30
0.0
  0
VERTEX
  5
602
100
AcDbEntity
  8
トラップ
  6
CONTINUOUS
 62
     6
100
AcDbVertex
100
AcDb2dVertex
 10
123.185309
 20
108.138422
 30
0.0
  0
VERTEX
  5
603
100
AcDbEntity
  8
トラップ
  6
CONTINUOUS
 62
     6
100
AcDbVertex
100
AcDb2dVertex
 10
123.152884
 20
108.144037
 30
0.0
  0
VERTEX
  5
604
100
AcDbEntity
  8
トラップ
  6
CONTINUOUS
 62
     6
100
AcDbVertex
100
AcDb2dVertex
 10
123.120169
 20
108.14599
 30
0.0
  0
VERTEX
  5
605
100
AcDbEntity
  8
トラップ
  6
CONTINUOUS
 62
     6
100
AcDbVertex
100
AcDb2dVertex
 10
123.087485
 20
108.144037
 30
0.0
  0
VERTEX
  5
606
100
AcDbEntity
  8
トラップ
  6
CONTINUOUS
 62
     6
100
AcDbVertex
100
AcDb2dVertex
 10
123.05506
 20
108.138666
 30
0.0
  0
VERTEX
  5
607
100
AcDbEntity
  8
トラップ
  6
CONTINUOUS
 62
     6
100
AcDbVertex
100
AcDb2dVertex
 10
123.023108
 20
108.129388
 30
0.0
  0
VERTEX
  5
608
100
AcDbEntity
  8
トラップ
  6
CONTINUOUS
 62
     6
100
AcDbVertex
100
AcDb2dVertex
 10
122.991904
 20
108.116693
 30
0.0
  0
VERTEX
  5
609
100
AcDbEntity
  8
トラップ
  6
CONTINUOUS
 62
     6
100
AcDbVertex
100
AcDb2dVertex
 10
122.961691
 20
108.10058
 30
0.0
  0
VERTEX
  5
60A
100
AcDbEntity
  8
トラップ
  6
CONTINUOUS
 62
     6
100
AcDbVertex
100
AcDb2dVertex
 10
122.932654
 20
108.081049
 30
0.0
  0
VERTEX
  5
60B
100
AcDbEntity
  8
トラップ
  6
CONTINUOUS
 62
     6
100
AcDbVertex
100
AcDb2dVertex
 10
122.905066
 20
108.058344
 30
0.0
  0
VERTEX
  5
60C
100
AcDbEntity
  8
トラップ
  6
CONTINUOUS
 62
     6
100
AcDbVertex
100
AcDb2dVertex
 10
122.879111
 20
108.032465
 30
0.0
  0
VERTEX
  5
60D
100
AcDbEntity
  8
トラップ
  6
CONTINUOUS
 62
     6
100
AcDbVertex
100
AcDb2dVertex
 10
122.854971
 20
108.004144
 30
0.0
  0
VERTEX
  5
60E
100
AcDbEntity
  8
トラップ
  6
CONTINUOUS
 62
     6
100
AcDbVertex
100
AcDb2dVertex
 10
122.832861
 20
107.973138
 30
0.0
  0
VERTEX
  5
60F
100
AcDbEntity
  8
トラップ
  6
CONTINUOUS
 62
     6
100
AcDbVertex
100
AcDb2dVertex
 10
122.812933
 20
107.939447
 30
0.0
  0
VERTEX
  5
610
100
AcDbEntity
  8
トラップ
  6
CONTINUOUS
 62
     6
100
AcDbVertex
100
AcDb2dVertex
 10
122.79537
 20
107.904047
 30
0.0
  0
VERTEX
  5
611
100
AcDbEntity
  8
トラップ
  6
CONTINUOUS
 62
     6
100
AcDbVertex
100
AcDb2dVertex
 10
122.780264
 20
107.866693
 30
0.0
  0
VERTEX
  5
612
100
AcDbEntity
  8
トラップ
  6
CONTINUOUS
 62
     6
100
AcDbVertex
100
AcDb2dVertex
 10
122.767737
 20
107.827631
 30
0.0
  0
VERTEX
  5
613
100
AcDbEntity
  8
トラップ
  6
CONTINUOUS
 62
     6
100
AcDbVertex
100
AcDb2dVertex
 10
122.75791
 20
107.787103
 30
0.0
  0
VERTEX
  5
614
100
AcDbEntity
  8
トラップ
  6
CONTINUOUS
 62
     6
100
AcDbVertex
100
AcDb2dVertex
 10
122.75083
 20
107.745844
 30
0.0
  0
VERTEX
  5
615
100
AcDbEntity
  8
トラップ
  6
CONTINUOUS
 62
     6
100
AcDbVertex
100
AcDb2dVertex
 10
122.746542
 20
107.703851
 30
0.0
  0
VERTEX
  5
616
100
AcDbEntity
  8
トラップ
  6
CONTINUOUS
 62
     6
100
AcDbVertex
100
AcDb2dVertex
 10
122.745139
 20
107.661859
 30
0.0
  0
VERTEX
  5
617
100
AcDbEntity
  8
トラップ
  6
CONTINUOUS
 62
     6
100
AcDbVertex
100
AcDb2dVertex
 10
122.746573
 20
107.619623
 30
0.0
  0
VERTEX
  5
618
100
AcDbEntity
  8
トラップ
  6
CONTINUOUS
 62
     6
100
AcDbVertex
100
AcDb2dVertex
 10
122.75083
 20
107.577875
 30
0.0
  0
VERTEX
  5
619
100
AcDbEntity
  8
トラップ
  6
CONTINUOUS
 62
     6
100
AcDbVertex
100
AcDb2dVertex
 10
122.75791
 20
107.536615
 30
0.0
  0
VERTEX
  5
61A
100
AcDbEntity
  8
トラップ
  6
CONTINUOUS
 62
     6
100
AcDbVertex
100
AcDb2dVertex
 10
122.767752
 20
107.496332
 30
0.0
  0
VERTEX
  5
61B
100
AcDbEntity
  8
トラップ
  6
CONTINUOUS
 62
     6
100
AcDbVertex
100
AcDb2dVertex
 10
122.780249
 20
107.457269
 30
0.0
  0
VERTEX
  5
61C
100
AcDbEntity
  8
トラップ
  6
CONTINUOUS
 62
     6
100
AcDbVertex
100
AcDb2dVertex
 10
122.79537
 20
107.419916
 30
0.0
  0
VERTEX
  5
61D
100
AcDbEntity
  8
トラップ
  6
CONTINUOUS
 62
     6
100
AcDbVertex
100
AcDb2dVertex
 10
122.812949
 20
107.384271
 30
0.0
  0
VERTEX
  5
61E
100
AcDbEntity
  8
トラップ
  6
CONTINUOUS
 62
     6
100
AcDbVertex
100
AcDb2dVertex
 10
122.832861
 20
107.350824
 30
0.0
  0
VERTEX
  5
61F
100
AcDbEntity
  8
トラップ
  6
CONTINUOUS
 62
     6
100
AcDbVertex
100
AcDb2dVertex
 10
122.854971
 20
107.319574
 30
0.0
  0
VERTEX
  5
620
100
AcDbEntity
  8
トラップ
  6
CONTINUOUS
 62
     6
100
AcDbVertex
100
AcDb2dVertex
 10
122.879095
 20
107.29101
 30
0.0
  0
VERTEX
  5
621
100
AcDbEntity
  8
トラップ
  6
CONTINUOUS
 62
     6
100
AcDbVertex
100
AcDb2dVertex
 10
122.905035
 20
107.265375
 30
0.0
  0
VERTEX
  5
622
100
AcDbEntity
  8
トラップ
  6
CONTINUOUS
 62
     6
100
AcDbVertex
100
AcDb2dVertex
 10
122.932654
 20
107.24267
 30
0.0
  0
VERTEX
  5
623
100
AcDbEntity
  8
トラップ
  6
CONTINUOUS
 62
     6
100
AcDbVertex
100
AcDb2dVertex
 10
122.961676
 20
107.223138
 30
0.0
  0
VERTEX
  5
624
100
AcDbEntity
  8
トラップ
  6
CONTINUOUS
 62
     6
100
AcDbVertex
100
AcDb2dVertex
 10
122.991904
 20
107.207025
 30
0.0
  0
VERTEX
  5
625
100
AcDbEntity
  8
トラップ
  6
CONTINUOUS
 62
     6
100
AcDbVertex
100
AcDb2dVertex
 10
123.023108
 20
107.19433
 30
0.0
  0
VERTEX
  5
626
100
AcDbEntity
  8
トラップ
  6
CONTINUOUS
 62
     6
100
AcDbVertex
100
AcDb2dVertex
 10
123.05506
 20
107.185297
 30
0.0
  0
VERTEX
  5
627
100
AcDbEntity
  8
トラップ
  6
CONTINUOUS
 62
     6
100
AcDbVertex
100
AcDb2dVertex
 10
123.0875
 20
107.179681
 30
0.0
  0
VERTEX
  5
628
100
AcDbEntity
  8
トラップ
  6
CONTINUOUS
 62
     6
100
AcDbVertex
100
AcDb2dVertex
 10
123.120184
 20
107.177728
 30
0.0
  0
VERTEX
  5
629
100
AcDbEntity
  8
トラップ
  6
CONTINUOUS
 62
     6
100
AcDbVertex
100
AcDb2dVertex
 10
123.152869
 20
107.179681
 30
0.0
  0
VERTEX
  5
62A
100
AcDbEntity
  8
トラップ
  6
CONTINUOUS
 62
     6
100
AcDbVertex
100
AcDb2dVertex
 10
123.185324
 20
107.185052
 30
0.0
  0
VERTEX
  5
62B
100
AcDbEntity
  8
トラップ
  6
CONTINUOUS
 62
     6
100
AcDbVertex
100
AcDb2dVertex
 10
123.217245
 20
107.19433
 30
0.0
  0
VERTEX
  5
62C
100
AcDbEntity
  8
トラップ
  6
CONTINUOUS
 62
     6
100
AcDbVertex
100
AcDb2dVertex
 10
123.24845
 20
107.207025
 30
0.0
  0
VERTEX
  5
62D
100
AcDbEntity
  8
トラップ
  6
CONTINUOUS
 62
     6
100
AcDbVertex
100
AcDb2dVertex
 10
123.278693
 20
107.223138
 30
0.0
  0
SEQEND
  5
62E
100
AcDbEntity
  8
トラップ
  6
CONTINUOUS
 62
     6
  0
POLYLINE
  5
62F
100
AcDbEntity
  8
トラップ
  6
CONTINUOUS
 62
     6
100
AcDb2dPolyline
 66
     1
 10
0.0
 20
0.0
 30
0.0
 70
   128
  0
VERTEX
  5
630
100
AcDbEntity
  8
トラップ
  6
CONTINUOUS
 62
     6
100
AcDbVertex
100
AcDb2dVertex
 10
123.278693
 20
107.223138
 30
0.0
  0
VERTEX
  5
631
100
AcDbEntity
  8
トラップ
  6
CONTINUOUS
 62
     6
100
AcDbVertex
100
AcDb2dVertex
 10
123.307715
 20
107.24267
 30
0.0
  0
VERTEX
  5
632
100
AcDbEntity
  8
トラップ
  6
CONTINUOUS
 62
     6
100
AcDbVertex
100
AcDb2dVertex
 10
123.335318
 20
107.265375
 30
0.0
  0
VERTEX
  5
633
100
AcDbEntity
  8
トラップ
  6
CONTINUOUS
 62
     6
100
AcDbVertex
100
AcDb2dVertex
 10
123.361288
 20
107.291254
 30
0.0
  0
VERTEX
  5
634
100
AcDbEntity
  8
トラップ
  6
CONTINUOUS
 62
     6
100
AcDbVertex
100
AcDb2dVertex
 10
123.385352
 20
107.319574
 30
0.0
  0
VERTEX
  5
635
100
AcDbEntity
  8
トラップ
  6
CONTINUOUS
 62
     6
100
AcDbVertex
100
AcDb2dVertex
 10
123.407446
 20
107.35058
 30
0.0
  0
VERTEX
  5
636
100
AcDbEntity
  8
トラップ
  6
CONTINUOUS
 62
     6
100
AcDbVertex
100
AcDb2dVertex
 10
123.427344
 20
107.384271
 30
0.0
  0
VERTEX
  5
637
100
AcDbEntity
  8
トラップ
  6
CONTINUOUS
 62
     6
100
AcDbVertex
100
AcDb2dVertex
 10
123.444952
 20
107.419916
 30
0.0
  0
VERTEX
  5
638
100
AcDbEntity
  8
トラップ
  6
CONTINUOUS
 62
     6
100
AcDbVertex
100
AcDb2dVertex
 10
123.460043
 20
107.457269
 30
0.0
  0
VERTEX
  5
639
100
AcDbEntity
  8
トラップ
  6
CONTINUOUS
 62
     6
100
AcDbVertex
100
AcDb2dVertex
 10
123.472556
 20
107.496332
 30
0.0
  0
VERTEX
  5
63A
100
AcDbEntity
  8
トラップ
  6
CONTINUOUS
 62
     6
100
AcDbVertex
100
AcDb2dVertex
 10
123.482428
 20
107.536615
 30
0.0
  0
SEQEND
  5
63B
100
AcDbEntity
  8
トラップ
  6
CONTINUOUS
 62
     6
  0
POLYLINE
  5
63C
100
AcDbEntity
  8
トラップ
  6
CONTINUOUS
 62
     6
100
AcDb2dPolyline
 66
     1
 10
0.0
 20
0.0
 30
0.0
 70
   128
  0
VERTEX
  5
63D
100
AcDbEntity
  8
トラップ
  6
CONTINUOUS
 62
     6
100
AcDbVertex
100
AcDb2dVertex
 10
123.482428
 20
107.536615
 30
0.0
  0
VERTEX
  5
63E
100
AcDbEntity
  8
トラップ
  6
CONTINUOUS
 62
     6
100
AcDbVertex
100
AcDb2dVertex
 10
123.489508
 20
107.577875
 30
0.0
  0
VERTEX
  5
63F
100
AcDbEntity
  8
トラップ
  6
CONTINUOUS
 62
     6
100
AcDbVertex
100
AcDb2dVertex
 10
123.493765
 20
107.619867
 30
0.0
  0
VERTEX
  5
640
100
AcDbEntity
  8
トラップ
  6
CONTINUOUS
 62
     6
100
AcDbVertex
100
AcDb2dVertex
 10
123.495169
 20
107.662103
 30
0.0
  0
SEQEND
  5
641
100
AcDbEntity
  8
トラップ
  6
CONTINUOUS
 62
     6
  0
LINE
  5
642
100
AcDbEntity
  8
トラップ
  6
CONTINUOUS
 62
     6
100
AcDbLine
 10
119.811331
 20
107.11181
 30
0.0
 11
123.311331
 21
107.11181
 31
0.0
  0
ARC
  5
643
100
AcDbEntity
  8
トラップ
  6
CONTINUOUS
 62
     6
100
AcDbCircle
 10
122.654929
 20
107.661859
 30
0.0
 40
0.856398
100
AcDbArc
 50
320.037842
 51
39.962158
  0
LINE
  5
644
100
AcDbEntity
  8
トラップ
  6
CONTINUOUS
 62
     6
100
AcDbLine
 10
123.161337
 20
108.862054
 30
0.0
 11
123.161337
 21
108.211908
 31
0.0
  0
LINE
  5
645
100
AcDbEntity
  8
トラップ
  6
CONTINUOUS
 62
     6
100
AcDbLine
 10
119.961325
 20
108.862054
 30
0.0
 11
119.961325
 21
108.211908
 31
0.0
  0
ARC
  5
646
100
AcDbEntity
  8
トラップ
  6
CONTINUOUS
 62
     6
100
AcDbCircle
 10
120.467734
 20
102.529565
 30
0.0
 40
0.856398
100
AcDbArc
 50
140.037827
 51
219.962143
  0
LINE
  5
647
100
AcDbEntity
  8
トラップ
  6
CONTINUOUS
 62
     6
100
AcDbLine
 10
119.811331
 20
101.979517
 30
0.0
 11
123.311331
 21
101.979517
 31
0.0
  0
ARC
  5
648
100
AcDbEntity
  8
トラップ
  6
CONTINUOUS
 62
     6
100
AcDbCircle
 10
122.654929
 20
102.529565
 30
0.0
 40
0.856398
100
AcDbArc
 50
320.037842
 51
39.962158
  0
LINE
  5
649
100
AcDbEntity
  8
トラップ
  6
CONTINUOUS
 62
     6
100
AcDbLine
 10
119.811331
 20
103.079614
 30
0.0
 11
123.311331
 21
103.079614
 31
0.0
  0
POLYLINE
  5
64A
100
AcDbEntity
  8
トラップ
  6
CONTINUOUS
 62
     6
100
AcDb2dPolyline
 66
     1
 10
0.0
 20
0.0
 30
0.0
 70
   128
  0
VERTEX
  5
64B
100
AcDbEntity
  8
トラップ
  6
CONTINUOUS
 62
     6
100
AcDbVertex
100
AcDb2dVertex
 10
120.3776
 20
102.529565
 30
0.0
  0
VERTEX
  5
64C
100
AcDbEntity
  8
トラップ
  6
CONTINUOUS
 62
     6
100
AcDbVertex
100
AcDb2dVertex
 10
120.376166
 20
102.571802
 30
0.0
  0
VERTEX
  5
64D
100
AcDbEntity
  8
トラップ
  6
CONTINUOUS
 62
     6
100
AcDbVertex
100
AcDb2dVertex
 10
120.371893
 20
102.61355
 30
0.0
  0
VERTEX
  5
64E
100
AcDbEntity
  8
トラップ
  6
CONTINUOUS
 62
     6
100
AcDbVertex
100
AcDb2dVertex
 10
120.364844
 20
102.65481
 30
0.0
  0
VERTEX
  5
64F
100
AcDbEntity
  8
トラップ
  6
CONTINUOUS
 62
     6
100
AcDbVertex
100
AcDb2dVertex
 10
120.355002
 20
102.695093
 30
0.0
  0
VERTEX
  5
650
100
AcDbEntity
  8
トラップ
  6
CONTINUOUS
 62
     6
100
AcDbVertex
100
AcDb2dVertex
 10
120.34249
 20
102.734155
 30
0.0
  0
VERTEX
  5
651
100
AcDbEntity
  8
トラップ
  6
CONTINUOUS
 62
     6
100
AcDbVertex
100
AcDb2dVertex
 10
120.327368
 20
102.771753
 30
0.0
  0
VERTEX
  5
652
100
AcDbEntity
  8
トラップ
  6
CONTINUOUS
 62
     6
100
AcDbVertex
100
AcDb2dVertex
 10
120.30979
 20
102.807397
 30
0.0
  0
VERTEX
  5
653
100
AcDbEntity
  8
トラップ
  6
CONTINUOUS
 62
     6
100
AcDbVertex
100
AcDb2dVertex
 10
120.289877
 20
102.840845
 30
0.0
  0
VERTEX
  5
654
100
AcDbEntity
  8
トラップ
  6
CONTINUOUS
 62
     6
100
AcDbVertex
100
AcDb2dVertex
 10
120.267767
 20
102.871851
 30
0.0
  0
VERTEX
  5
655
100
AcDbEntity
  8
トラップ
  6
CONTINUOUS
 62
     6
100
AcDbVertex
100
AcDb2dVertex
 10
120.243643
 20
102.900415
 30
0.0
  0
VERTEX
  5
656
100
AcDbEntity
  8
トラップ
  6
CONTINUOUS
 62
     6
100
AcDbVertex
100
AcDb2dVertex
 10
120.217688
 20
102.92605
 30
0.0
  0
VERTEX
  5
657
100
AcDbEntity
  8
トラップ
  6
CONTINUOUS
 62
     6
100
AcDbVertex
100
AcDb2dVertex
 10
120.19007
 20
102.948755
 30
0.0
  0
VERTEX
  5
658
100
AcDbEntity
  8
トラップ
  6
CONTINUOUS
 62
     6
100
AcDbVertex
100
AcDb2dVertex
 10
120.161047
 20
102.968286
 30
0.0
  0
VERTEX
  5
659
100
AcDbEntity
  8
トラップ
  6
CONTINUOUS
 62
     6
100
AcDbVertex
100
AcDb2dVertex
 10
120.130804
 20
102.984399
 30
0.0
  0
VERTEX
  5
65A
100
AcDbEntity
  8
トラップ
  6
CONTINUOUS
 62
     6
100
AcDbVertex
100
AcDb2dVertex
 10
120.099615
 20
102.997095
 30
0.0
  0
VERTEX
  5
65B
100
AcDbEntity
  8
トラップ
  6
CONTINUOUS
 62
     6
100
AcDbVertex
100
AcDb2dVertex
 10
120.067664
 20
103.006128
 30
0.0
  0
VERTEX
  5
65C
100
AcDbEntity
  8
トラップ
  6
CONTINUOUS
 62
     6
100
AcDbVertex
100
AcDb2dVertex
 10
120.035223
 20
103.011743
 30
0.0
  0
VERTEX
  5
65D
100
AcDbEntity
  8
トラップ
  6
CONTINUOUS
 62
     6
100
AcDbVertex
100
AcDb2dVertex
 10
120.002539
 20
103.013696
 30
0.0
  0
VERTEX
  5
65E
100
AcDbEntity
  8
トラップ
  6
CONTINUOUS
 62
     6
100
AcDbVertex
100
AcDb2dVertex
 10
119.969839
 20
103.011743
 30
0.0
  0
VERTEX
  5
65F
100
AcDbEntity
  8
トラップ
  6
CONTINUOUS
 62
     6
100
AcDbVertex
100
AcDb2dVertex
 10
119.937399
 20
103.006372
 30
0.0
  0
VERTEX
  5
660
100
AcDbEntity
  8
トラップ
  6
CONTINUOUS
 62
     6
100
AcDbVertex
100
AcDb2dVertex
 10
119.905463
 20
102.997095
 30
0.0
  0
VERTEX
  5
661
100
AcDbEntity
  8
トラップ
  6
CONTINUOUS
 62
     6
100
AcDbVertex
100
AcDb2dVertex
 10
119.874258
 20
102.984399
 30
0.0
  0
VERTEX
  5
662
100
AcDbEntity
  8
トラップ
  6
CONTINUOUS
 62
     6
100
AcDbVertex
100
AcDb2dVertex
 10
119.844016
 20
102.968286
 30
0.0
  0
VERTEX
  5
663
100
AcDbEntity
  8
トラップ
  6
CONTINUOUS
 62
     6
100
AcDbVertex
100
AcDb2dVertex
 10
119.815009
 20
102.948755
 30
0.0
  0
VERTEX
  5
664
100
AcDbEntity
  8
トラップ
  6
CONTINUOUS
 62
     6
100
AcDbVertex
100
AcDb2dVertex
 10
119.787405
 20
102.92605
 30
0.0
  0
VERTEX
  5
665
100
AcDbEntity
  8
トラップ
  6
CONTINUOUS
 62
     6
100
AcDbVertex
100
AcDb2dVertex
 10
119.761435
 20
102.900171
 30
0.0
  0
VERTEX
  5
666
100
AcDbEntity
  8
トラップ
  6
CONTINUOUS
 62
     6
100
AcDbVertex
100
AcDb2dVertex
 10
119.737372
 20
102.871851
 30
0.0
  0
VERTEX
  5
667
100
AcDbEntity
  8
トラップ
  6
CONTINUOUS
 62
     6
100
AcDbVertex
100
AcDb2dVertex
 10
119.715277
 20
102.840845
 30
0.0
  0
VERTEX
  5
668
100
AcDbEntity
  8
トラップ
  6
CONTINUOUS
 62
     6
100
AcDbVertex
100
AcDb2dVertex
 10
119.69538
 20
102.807153
 30
0.0
  0
VERTEX
  5
669
100
AcDbEntity
  8
トラップ
  6
CONTINUOUS
 62
     6
100
AcDbVertex
100
AcDb2dVertex
 10
119.677771
 20
102.771753
 30
0.0
  0
VERTEX
  5
66A
100
AcDbEntity
  8
トラップ
  6
CONTINUOUS
 62
     6
100
AcDbVertex
100
AcDb2dVertex
 10
119.662665
 20
102.734399
 30
0.0
  0
VERTEX
  5
66B
100
AcDbEntity
  8
トラップ
  6
CONTINUOUS
 62
     6
100
AcDbVertex
100
AcDb2dVertex
 10
119.650168
 20
102.695337
 30
0.0
  0
VERTEX
  5
66C
100
AcDbEntity
  8
トラップ
  6
CONTINUOUS
 62
     6
100
AcDbVertex
100
AcDb2dVertex
 10
119.640295
 20
102.65481
 30
0.0
  0
VERTEX
  5
66D
100
AcDbEntity
  8
トラップ
  6
CONTINUOUS
 62
     6
100
AcDbVertex
100
AcDb2dVertex
 10
119.633215
 20
102.61355
 30
0.0
  0
VERTEX
  5
66E
100
AcDbEntity
  8
トラップ
  6
CONTINUOUS
 62
     6
100
AcDbVertex
100
AcDb2dVertex
 10
119.628958
 20
102.571558
 30
0.0
  0
VERTEX
  5
66F
100
AcDbEntity
  8
トラップ
  6
CONTINUOUS
 62
     6
100
AcDbVertex
100
AcDb2dVertex
 10
119.627478
 20
102.529565
 30
0.0
  0
VERTEX
  5
670
100
AcDbEntity
  8
トラップ
  6
CONTINUOUS
 62
     6
100
AcDbVertex
100
AcDb2dVertex
 10
119.628897
 20
102.487329
 30
0.0
  0
VERTEX
  5
671
100
AcDbEntity
  8
トラップ
  6
CONTINUOUS
 62
     6
100
AcDbVertex
100
AcDb2dVertex
 10
119.633154
 20
102.445581
 30
0.0
  0
VERTEX
  5
672
100
AcDbEntity
  8
トラップ
  6
CONTINUOUS
 62
     6
100
AcDbVertex
100
AcDb2dVertex
 10
119.640295
 20
102.404321
 30
0.0
  0
VERTEX
  5
673
100
AcDbEntity
  8
トラップ
  6
CONTINUOUS
 62
     6
100
AcDbVertex
100
AcDb2dVertex
 10
119.650137
 20
102.364038
 30
0.0
  0
VERTEX
  5
674
100
AcDbEntity
  8
トラップ
  6
CONTINUOUS
 62
     6
100
AcDbVertex
100
AcDb2dVertex
 10
119.66268
 20
102.324976
 30
0.0
  0
VERTEX
  5
675
100
AcDbEntity
  8
トラップ
  6
CONTINUOUS
 62
     6
100
AcDbVertex
100
AcDb2dVertex
 10
119.677771
 20
102.287622
 30
0.0
  0
VERTEX
  5
676
100
AcDbEntity
  8
トラップ
  6
CONTINUOUS
 62
     6
100
AcDbVertex
100
AcDb2dVertex
 10
119.695364
 20
102.251978
 30
0.0
  0
VERTEX
  5
677
100
AcDbEntity
  8
トラップ
  6
CONTINUOUS
 62
     6
100
AcDbVertex
100
AcDb2dVertex
 10
119.715292
 20
102.21853
 30
0.0
  0
VERTEX
  5
678
100
AcDbEntity
  8
トラップ
  6
CONTINUOUS
 62
     6
100
AcDbVertex
100
AcDb2dVertex
 10
119.737372
 20
102.18728
 30
0.0
  0
VERTEX
  5
679
100
AcDbEntity
  8
トラップ
  6
CONTINUOUS
 62
     6
100
AcDbVertex
100
AcDb2dVertex
 10
119.761496
 20
102.158716
 30
0.0
  0
VERTEX
  5
67A
100
AcDbEntity
  8
トラップ
  6
CONTINUOUS
 62
     6
100
AcDbVertex
100
AcDb2dVertex
 10
119.787482
 20
102.133081
 30
0.0
  0
VERTEX
  5
67B
100
AcDbEntity
  8
トラップ
  6
CONTINUOUS
 62
     6
100
AcDbVertex
100
AcDb2dVertex
 10
119.815009
 20
102.110376
 30
0.0
  0
VERTEX
  5
67C
100
AcDbEntity
  8
トラップ
  6
CONTINUOUS
 62
     6
100
AcDbVertex
100
AcDb2dVertex
 10
119.844031
 20
102.090845
 30
0.0
  0
VERTEX
  5
67D
100
AcDbEntity
  8
トラップ
  6
CONTINUOUS
 62
     6
100
AcDbVertex
100
AcDb2dVertex
 10
119.874243
 20
102.074731
 30
0.0
  0
VERTEX
  5
67E
100
AcDbEntity
  8
トラップ
  6
CONTINUOUS
 62
     6
100
AcDbVertex
100
AcDb2dVertex
 10
119.905463
 20
102.062036
 30
0.0
  0
VERTEX
  5
67F
100
AcDbEntity
  8
トラップ
  6
CONTINUOUS
 62
     6
100
AcDbVertex
100
AcDb2dVertex
 10
119.937399
 20
102.053003
 30
0.0
  0
VERTEX
  5
680
100
AcDbEntity
  8
トラップ
  6
CONTINUOUS
 62
     6
100
AcDbVertex
100
AcDb2dVertex
 10
119.969824
 20
102.047388
 30
0.0
  0
VERTEX
  5
681
100
AcDbEntity
  8
トラップ
  6
CONTINUOUS
 62
     6
100
AcDbVertex
100
AcDb2dVertex
 10
120.002539
 20
102.045435
 30
0.0
  0
VERTEX
  5
682
100
AcDbEntity
  8
トラップ
  6
CONTINUOUS
 62
     6
100
AcDbVertex
100
AcDb2dVertex
 10
120.035223
 20
102.047388
 30
0.0
  0
VERTEX
  5
683
100
AcDbEntity
  8
トラップ
  6
CONTINUOUS
 62
     6
100
AcDbVertex
100
AcDb2dVertex
 10
120.067648
 20
102.052759
 30
0.0
  0
VERTEX
  5
684
100
AcDbEntity
  8
トラップ
  6
CONTINUOUS
 62
     6
100
AcDbVertex
100
AcDb2dVertex
 10
120.099615
 20
102.062036
 30
0.0
  0
VERTEX
  5
685
100
AcDbEntity
  8
トラップ
  6
CONTINUOUS
 62
     6
100
AcDbVertex
100
AcDb2dVertex
 10
120.13082
 20
102.074731
 30
0.0
  0
VERTEX
  5
686
100
AcDbEntity
  8
トラップ
  6
CONTINUOUS
 62
     6
100
AcDbVertex
100
AcDb2dVertex
 10
120.161032
 20
102.090845
 30
0.0
  0
SEQEND
  5
687
100
AcDbEntity
  8
トラップ
  6
CONTINUOUS
 62
     6
  0
POLYLINE
  5
688
100
AcDbEntity
  8
トラップ
  6
CONTINUOUS
 62
     6
100
AcDb2dPolyline
 66
     1
 10
0.0
 20
0.0
 30
0.0
 70
   128
  0
VERTEX
  5
689
100
AcDbEntity
  8
トラップ
  6
CONTINUOUS
 62
     6
100
AcDbVertex
100
AcDb2dVertex
 10
120.161032
 20
102.090845
 30
0.0
  0
VERTEX
  5
68A
100
AcDbEntity
  8
トラップ
  6
CONTINUOUS
 62
     6
100
AcDbVertex
100
AcDb2dVertex
 10
120.19007
 20
102.110376
 30
0.0
  0
VERTEX
  5
68B
100
AcDbEntity
  8
トラップ
  6
CONTINUOUS
 62
     6
100
AcDbVertex
100
AcDb2dVertex
 10
120.217657
 20
102.133081
 30
0.0
  0
VERTEX
  5
68C
100
AcDbEntity
  8
トラップ
  6
CONTINUOUS
 62
     6
100
AcDbVertex
100
AcDb2dVertex
 10
120.243613
 20
102.15896
 30
0.0
  0
VERTEX
  5
68D
100
AcDbEntity
  8
トラップ
  6
CONTINUOUS
 62
     6
100
AcDbVertex
100
AcDb2dVertex
 10
120.267767
 20
102.18728
 30
0.0
  0
VERTEX
  5
68E
100
AcDbEntity
  8
トラップ
  6
CONTINUOUS
 62
     6
100
AcDbVertex
100
AcDb2dVertex
 10
120.289877
 20
102.218286
 30
0.0
  0
VERTEX
  5
68F
100
AcDbEntity
  8
トラップ
  6
CONTINUOUS
 62
     6
100
AcDbVertex
100
AcDb2dVertex
 10
120.30979
 20
102.251978
 30
0.0
  0
VERTEX
  5
690
100
AcDbEntity
  8
トラップ
  6
CONTINUOUS
 62
     6
100
AcDbVertex
100
AcDb2dVertex
 10
120.327368
 20
102.287622
 30
0.0
  0
VERTEX
  5
691
100
AcDbEntity
  8
トラップ
  6
CONTINUOUS
 62
     6
100
AcDbVertex
100
AcDb2dVertex
 10
120.342474
 20
102.324976
 30
0.0
  0
VERTEX
  5
692
100
AcDbEntity
  8
トラップ
  6
CONTINUOUS
 62
     6
100
AcDbVertex
100
AcDb2dVertex
 10
120.355002
 20
102.364038
 30
0.0
  0
VERTEX
  5
693
100
AcDbEntity
  8
トラップ
  6
CONTINUOUS
 62
     6
100
AcDbVertex
100
AcDb2dVertex
 10
120.364844
 20
102.404321
 30
0.0
  0
SEQEND
  5
694
100
AcDbEntity
  8
トラップ
  6
CONTINUOUS
 62
     6
  0
POLYLINE
  5
695
100
AcDbEntity
  8
トラップ
  6
CONTINUOUS
 62
     6
100
AcDb2dPolyline
 66
     1
 10
0.0
 20
0.0
 30
0.0
 70
   128
  0
VERTEX
  5
696
100
AcDbEntity
  8
トラップ
  6
CONTINUOUS
 62
     6
100
AcDbVertex
100
AcDb2dVertex
 10
120.364844
 20
102.404321
 30
0.0
  0
VERTEX
  5
697
100
AcDbEntity
  8
トラップ
  6
CONTINUOUS
 62
     6
100
AcDbVertex
100
AcDb2dVertex
 10
120.371924
 20
102.445581
 30
0.0
  0
VERTEX
  5
698
100
AcDbEntity
  8
トラップ
  6
CONTINUOUS
 62
     6
100
AcDbVertex
100
AcDb2dVertex
 10
120.376196
 20
102.487573
 30
0.0
  0
VERTEX
  5
699
100
AcDbEntity
  8
トラップ
  6
CONTINUOUS
 62
     6
100
AcDbVertex
100
AcDb2dVertex
 10
120.377646
 20
102.52981
 30
0.0
  0
SEQEND
  5
69A
100
AcDbEntity
  8
トラップ
  6
CONTINUOUS
 62
     6
  0
POLYLINE
  5
69B
100
AcDbEntity
  8
トラップ
  6
CONTINUOUS
 62
     6
100
AcDb2dPolyline
 66
     1
 10
0.0
 20
0.0
 30
0.0
 70
   128
  0
VERTEX
  5
69C
100
AcDbEntity
  8
トラップ
  6
CONTINUOUS
 62
     6
100
AcDbVertex
100
AcDb2dVertex
 10
122.31124
 20
102.529565
 30
0.0
  0
VERTEX
  5
69D
100
AcDbEntity
  8
トラップ
  6
CONTINUOUS
 62
     6
100
AcDbVertex
100
AcDb2dVertex
 10
122.308386
 20
102.571802
 30
0.0
  0
VERTEX
  5
69E
100
AcDbEntity
  8
トラップ
  6
CONTINUOUS
 62
     6
100
AcDbVertex
100
AcDb2dVertex
 10
122.299841
 20
102.61355
 30
0.0
  0
VERTEX
  5
69F
100
AcDbEntity
  8
トラップ
  6
CONTINUOUS
 62
     6
100
AcDbVertex
100
AcDb2dVertex
 10
122.285666
 20
102.65481
 30
0.0
  0
VERTEX
  5
6A0
100
AcDbEntity
  8
トラップ
  6
CONTINUOUS
 62
     6
100
AcDbVertex
100
AcDb2dVertex
 10
122.265982
 20
102.695093
 30
0.0
  0
VERTEX
  5
6A1
100
AcDbEntity
  8
トラップ
  6
CONTINUOUS
 62
     6
100
AcDbVertex
100
AcDb2dVertex
 10
122.240927
 20
102.734155
 30
0.0
  0
VERTEX
  5
6A2
100
AcDbEntity
  8
トラップ
  6
CONTINUOUS
 62
     6
100
AcDbVertex
100
AcDb2dVertex
 10
122.210776
 20
102.771753
 30
0.0
  0
VERTEX
  5
6A3
100
AcDbEntity
  8
トラップ
  6
CONTINUOUS
 62
     6
100
AcDbVertex
100
AcDb2dVertex
 10
122.17562
 20
102.807397
 30
0.0
  0
VERTEX
  5
6A4
100
AcDbEntity
  8
トラップ
  6
CONTINUOUS
 62
     6
100
AcDbVertex
100
AcDb2dVertex
 10
122.135809
 20
102.840845
 30
0.0
  0
VERTEX
  5
6A5
100
AcDbEntity
  8
トラップ
  6
CONTINUOUS
 62
     6
100
AcDbVertex
100
AcDb2dVertex
 10
122.091605
 20
102.871851
 30
0.0
  0
VERTEX
  5
6A6
100
AcDbEntity
  8
トラップ
  6
CONTINUOUS
 62
     6
100
AcDbVertex
100
AcDb2dVertex
 10
122.043372
 20
102.900415
 30
0.0
  0
VERTEX
  5
6A7
100
AcDbEntity
  8
トラップ
  6
CONTINUOUS
 62
     6
100
AcDbVertex
100
AcDb2dVertex
 10
121.991476
 20
102.92605
 30
0.0
  0
VERTEX
  5
6A8
100
AcDbEntity
  8
トラップ
  6
CONTINUOUS
 62
     6
100
AcDbVertex
100
AcDb2dVertex
 10
121.936285
 20
102.948755
 30
0.0
  0
VERTEX
  5
6A9
100
AcDbEntity
  8
トラップ
  6
CONTINUOUS
 62
     6
100
AcDbVertex
100
AcDb2dVertex
 10
121.878256
 20
102.968286
 30
0.0
  0
VERTEX
  5
6AA
100
AcDbEntity
  8
トラップ
  6
CONTINUOUS
 62
     6
100
AcDbVertex
100
AcDb2dVertex
 10
121.817831
 20
102.984399
 30
0.0
  0
VERTEX
  5
6AB
100
AcDbEntity
  8
トラップ
  6
CONTINUOUS
 62
     6
100
AcDbVertex
100
AcDb2dVertex
 10
121.755423
 20
102.997095
 30
0.0
  0
VERTEX
  5
6AC
100
AcDbEntity
  8
トラップ
  6
CONTINUOUS
 62
     6
100
AcDbVertex
100
AcDb2dVertex
 10
121.69155
 20
103.006128
 30
0.0
  0
VERTEX
  5
6AD
100
AcDbEntity
  8
トラップ
  6
CONTINUOUS
 62
     6
100
AcDbVertex
100
AcDb2dVertex
 10
121.626669
 20
103.011743
 30
0.0
  0
VERTEX
  5
6AE
100
AcDbEntity
  8
トラップ
  6
CONTINUOUS
 62
     6
100
AcDbVertex
100
AcDb2dVertex
 10
121.561362
 20
103.013696
 30
0.0
  0
VERTEX
  5
6AF
100
AcDbEntity
  8
トラップ
  6
CONTINUOUS
 62
     6
100
AcDbVertex
100
AcDb2dVertex
 10
121.496008
 20
103.011743
 30
0.0
  0
VERTEX
  5
6B0
100
AcDbEntity
  8
トラップ
  6
CONTINUOUS
 62
     6
100
AcDbVertex
100
AcDb2dVertex
 10
121.431143
 20
103.006372
 30
0.0
  0
VERTEX
  5
6B1
100
AcDbEntity
  8
トラップ
  6
CONTINUOUS
 62
     6
100
AcDbVertex
100
AcDb2dVertex
 10
121.367285
 20
102.997095
 30
0.0
  0
VERTEX
  5
6B2
100
AcDbEntity
  8
トラップ
  6
CONTINUOUS
 62
     6
100
AcDbVertex
100
AcDb2dVertex
 10
121.304907
 20
102.984399
 30
0.0
  0
VERTEX
  5
6B3
100
AcDbEntity
  8
トラップ
  6
CONTINUOUS
 62
     6
100
AcDbVertex
100
AcDb2dVertex
 10
121.244482
 20
102.968286
 30
0.0
  0
VERTEX
  5
6B4
100
AcDbEntity
  8
トラップ
  6
CONTINUOUS
 62
     6
100
AcDbVertex
100
AcDb2dVertex
 10
121.186423
 20
102.948755
 30
0.0
  0
VERTEX
  5
6B5
100
AcDbEntity
  8
トラップ
  6
CONTINUOUS
 62
     6
100
AcDbVertex
100
AcDb2dVertex
 10
121.131262
 20
102.92605
 30
0.0
  0
VERTEX
  5
6B6
100
AcDbEntity
  8
トラップ
  6
CONTINUOUS
 62
     6
100
AcDbVertex
100
AcDb2dVertex
 10
121.079352
 20
102.900171
 30
0.0
  0
VERTEX
  5
6B7
100
AcDbEntity
  8
トラップ
  6
CONTINUOUS
 62
     6
100
AcDbVertex
100
AcDb2dVertex
 10
121.031104
 20
102.871851
 30
0.0
  0
VERTEX
  5
6B8
100
AcDbEntity
  8
トラップ
  6
CONTINUOUS
 62
     6
100
AcDbVertex
100
AcDb2dVertex
 10
120.986914
 20
102.840845
 30
0.0
  0
VERTEX
  5
6B9
100
AcDbEntity
  8
トラップ
  6
CONTINUOUS
 62
     6
100
AcDbVertex
100
AcDb2dVertex
 10
120.947089
 20
102.807153
 30
0.0
  0
VERTEX
  5
6BA
100
AcDbEntity
  8
トラップ
  6
CONTINUOUS
 62
     6
100
AcDbVertex
100
AcDb2dVertex
 10
120.911932
 20
102.771753
 30
0.0
  0
VERTEX
  5
6BB
100
AcDbEntity
  8
トラップ
  6
CONTINUOUS
 62
     6
100
AcDbVertex
100
AcDb2dVertex
 10
120.881735
 20
102.734399
 30
0.0
  0
VERTEX
  5
6BC
100
AcDbEntity
  8
トラップ
  6
CONTINUOUS
 62
     6
100
AcDbVertex
100
AcDb2dVertex
 10
120.85668
 20
102.695337
 30
0.0
  0
VERTEX
  5
6BD
100
AcDbEntity
  8
トラップ
  6
CONTINUOUS
 62
     6
100
AcDbVertex
100
AcDb2dVertex
 10
120.837042
 20
102.65481
 30
0.0
  0
VERTEX
  5
6BE
100
AcDbEntity
  8
トラップ
  6
CONTINUOUS
 62
     6
100
AcDbVertex
100
AcDb2dVertex
 10
120.822897
 20
102.61355
 30
0.0
  0
VERTEX
  5
6BF
100
AcDbEntity
  8
トラップ
  6
CONTINUOUS
 62
     6
100
AcDbVertex
100
AcDb2dVertex
 10
120.814368
 20
102.571558
 30
0.0
  0
VERTEX
  5
6C0
100
AcDbEntity
  8
トラップ
  6
CONTINUOUS
 62
     6
100
AcDbVertex
100
AcDb2dVertex
 10
120.811468
 20
102.529565
 30
0.0
  0
VERTEX
  5
6C1
100
AcDbEntity
  8
トラップ
  6
CONTINUOUS
 62
     6
100
AcDbVertex
100
AcDb2dVertex
 10
120.814322
 20
102.487329
 30
0.0
  0
VERTEX
  5
6C2
100
AcDbEntity
  8
トラップ
  6
CONTINUOUS
 62
     6
100
AcDbVertex
100
AcDb2dVertex
 10
120.822867
 20
102.445581
 30
0.0
  0
VERTEX
  5
6C3
100
AcDbEntity
  8
トラップ
  6
CONTINUOUS
 62
     6
100
AcDbVertex
100
AcDb2dVertex
 10
120.837042
 20
102.404321
 30
0.0
  0
VERTEX
  5
6C4
100
AcDbEntity
  8
トラップ
  6
CONTINUOUS
 62
     6
100
AcDbVertex
100
AcDb2dVertex
 10
120.856726
 20
102.364038
 30
0.0
  0
VERTEX
  5
6C5
100
AcDbEntity
  8
トラップ
  6
CONTINUOUS
 62
     6
100
AcDbVertex
100
AcDb2dVertex
 10
120.881781
 20
102.324976
 30
0.0
  0
VERTEX
  5
6C6
100
AcDbEntity
  8
トラップ
  6
CONTINUOUS
 62
     6
100
AcDbVertex
100
AcDb2dVertex
 10
120.911932
 20
102.287622
 30
0.0
  0
VERTEX
  5
6C7
100
AcDbEntity
  8
トラップ
  6
CONTINUOUS
 62
     6
100
AcDbVertex
100
AcDb2dVertex
 10
120.947089
 20
102.251978
 30
0.0
  0
VERTEX
  5
6C8
100
AcDbEntity
  8
トラップ
  6
CONTINUOUS
 62
     6
100
AcDbVertex
100
AcDb2dVertex
 10
120.986899
 20
102.21853
 30
0.0
  0
VERTEX
  5
6C9
100
AcDbEntity
  8
トラップ
  6
CONTINUOUS
 62
     6
100
AcDbVertex
100
AcDb2dVertex
 10
121.031104
 20
102.18728
 30
0.0
  0
VERTEX
  5
6CA
100
AcDbEntity
  8
トラップ
  6
CONTINUOUS
 62
     6
100
AcDbVertex
100
AcDb2dVertex
 10
121.079337
 20
102.158716
 30
0.0
  0
VERTEX
  5
6CB
100
AcDbEntity
  8
トラップ
  6
CONTINUOUS
 62
     6
100
AcDbVertex
100
AcDb2dVertex
 10
121.131232
 20
102.133081
 30
0.0
  0
VERTEX
  5
6CC
100
AcDbEntity
  8
トラップ
  6
CONTINUOUS
 62
     6
100
AcDbVertex
100
AcDb2dVertex
 10
121.186423
 20
102.110376
 30
0.0
  0
VERTEX
  5
6CD
100
AcDbEntity
  8
トラップ
  6
CONTINUOUS
 62
     6
100
AcDbVertex
100
AcDb2dVertex
 10
121.244452
 20
102.090845
 30
0.0
  0
VERTEX
  5
6CE
100
AcDbEntity
  8
トラップ
  6
CONTINUOUS
 62
     6
100
AcDbVertex
100
AcDb2dVertex
 10
121.304877
 20
102.074731
 30
0.0
  0
VERTEX
  5
6CF
100
AcDbEntity
  8
トラップ
  6
CONTINUOUS
 62
     6
100
AcDbVertex
100
AcDb2dVertex
 10
121.367285
 20
102.062036
 30
0.0
  0
VERTEX
  5
6D0
100
AcDbEntity
  8
トラップ
  6
CONTINUOUS
 62
     6
100
AcDbVertex
100
AcDb2dVertex
 10
121.431158
 20
102.053003
 30
0.0
  0
VERTEX
  5
6D1
100
AcDbEntity
  8
トラップ
  6
CONTINUOUS
 62
     6
100
AcDbVertex
100
AcDb2dVertex
 10
121.496039
 20
102.047388
 30
0.0
  0
VERTEX
  5
6D2
100
AcDbEntity
  8
トラップ
  6
CONTINUOUS
 62
     6
100
AcDbVertex
100
AcDb2dVertex
 10
121.561362
 20
102.045435
 30
0.0
  0
VERTEX
  5
6D3
100
AcDbEntity
  8
トラップ
  6
CONTINUOUS
 62
     6
100
AcDbVertex
100
AcDb2dVertex
 10
121.626715
 20
102.047388
 30
0.0
  0
VERTEX
  5
6D4
100
AcDbEntity
  8
トラップ
  6
CONTINUOUS
 62
     6
100
AcDbVertex
100
AcDb2dVertex
 10
121.69158
 20
102.052759
 30
0.0
  0
VERTEX
  5
6D5
100
AcDbEntity
  8
トラップ
  6
CONTINUOUS
 62
     6
100
AcDbVertex
100
AcDb2dVertex
 10
121.755423
 20
102.062036
 30
0.0
  0
VERTEX
  5
6D6
100
AcDbEntity
  8
トラップ
  6
CONTINUOUS
 62
     6
100
AcDbVertex
100
AcDb2dVertex
 10
121.817801
 20
102.074731
 30
0.0
  0
VERTEX
  5
6D7
100
AcDbEntity
  8
トラップ
  6
CONTINUOUS
 62
     6
100
AcDbVertex
100
AcDb2dVertex
 10
121.878226
 20
102.090845
 30
0.0
  0
SEQEND
  5
6D8
100
AcDbEntity
  8
トラップ
  6
CONTINUOUS
 62
     6
  0
POLYLINE
  5
6D9
100
AcDbEntity
  8
トラップ
  6
CONTINUOUS
 62
     6
100
AcDb2dPolyline
 66
     1
 10
0.0
 20
0.0
 30
0.0
 70
   128
  0
VERTEX
  5
6DA
100
AcDbEntity
  8
トラップ
  6
CONTINUOUS
 62
     6
100
AcDbVertex
100
AcDb2dVertex
 10
121.878226
 20
102.090845
 30
0.0
  0
VERTEX
  5
6DB
100
AcDbEntity
  8
トラップ
  6
CONTINUOUS
 62
     6
100
AcDbVertex
100
AcDb2dVertex
 10
121.936285
 20
102.110376
 30
0.0
  0
VERTEX
  5
6DC
100
AcDbEntity
  8
トラップ
  6
CONTINUOUS
 62
     6
100
AcDbVertex
100
AcDb2dVertex
 10
121.991446
 20
102.133081
 30
0.0
  0
VERTEX
  5
6DD
100
AcDbEntity
  8
トラップ
  6
CONTINUOUS
 62
     6
100
AcDbVertex
100
AcDb2dVertex
 10
122.043356
 20
102.15896
 30
0.0
  0
VERTEX
  5
6DE
100
AcDbEntity
  8
トラップ
  6
CONTINUOUS
 62
     6
100
AcDbVertex
100
AcDb2dVertex
 10
122.091605
 20
102.18728
 30
0.0
  0
VERTEX
  5
6DF
100
AcDbEntity
  8
トラップ
  6
CONTINUOUS
 62
     6
100
AcDbVertex
100
AcDb2dVertex
 10
122.135794
 20
102.218286
 30
0.0
  0
VERTEX
  5
6E0
100
AcDbEntity
  8
トラップ
  6
CONTINUOUS
 62
     6
100
AcDbVertex
100
AcDb2dVertex
 10
122.17562
 20
102.251978
 30
0.0
  0
VERTEX
  5
6E1
100
AcDbEntity
  8
トラップ
  6
CONTINUOUS
 62
     6
100
AcDbVertex
100
AcDb2dVertex
 10
122.210776
 20
102.287622
 30
0.0
  0
VERTEX
  5
6E2
100
AcDbEntity
  8
トラップ
  6
CONTINUOUS
 62
     6
100
AcDbVertex
100
AcDb2dVertex
 10
122.240973
 20
102.324976
 30
0.0
  0
VERTEX
  5
6E3
100
AcDbEntity
  8
トラップ
  6
CONTINUOUS
 62
     6
100
AcDbVertex
100
AcDb2dVertex
 10
122.266028
 20
102.364038
 30
0.0
  0
VERTEX
  5
6E4
100
AcDbEntity
  8
トラップ
  6
CONTINUOUS
 62
     6
100
AcDbVertex
100
AcDb2dVertex
 10
122.285666
 20
102.404321
 30
0.0
  0
SEQEND
  5
6E5
100
AcDbEntity
  8
トラップ
  6
CONTINUOUS
 62
     6
  0
POLYLINE
  5
6E6
100
AcDbEntity
  8
トラップ
  6
CONTINUOUS
 62
     6
100
AcDb2dPolyline
 66
     1
 10
0.0
 20
0.0
 30
0.0
 70
   128
  0
VERTEX
  5
6E7
100
AcDbEntity
  8
トラップ
  6
CONTINUOUS
 62
     6
100
AcDbVertex
100
AcDb2dVertex
 10
122.285666
 20
102.404321
 30
0.0
  0
VERTEX
  5
6E8
100
AcDbEntity
  8
トラップ
  6
CONTINUOUS
 62
     6
100
AcDbVertex
100
AcDb2dVertex
 10
122.299811
 20
102.445581
 30
0.0
  0
VERTEX
  5
6E9
100
AcDbEntity
  8
トラップ
  6
CONTINUOUS
 62
     6
100
AcDbVertex
100
AcDb2dVertex
 10
122.30834
 20
102.487573
 30
0.0
  0
VERTEX
  5
6EA
100
AcDbEntity
  8
トラップ
  6
CONTINUOUS
 62
     6
100
AcDbVertex
100
AcDb2dVertex
 10
122.311179
 20
102.52981
 30
0.0
  0
SEQEND
  5
6EB
100
AcDbEntity
  8
トラップ
  6
CONTINUOUS
 62
     6
  0
POLYLINE
  5
6EC
100
AcDbEntity
  8
トラップ
  6
CONTINUOUS
 62
     6
100
AcDb2dPolyline
 66
     1
 10
0.0
 20
0.0
 30
0.0
 70
   128
  0
VERTEX
  5
6ED
100
AcDbEntity
  8
トラップ
  6
CONTINUOUS
 62
     6
100
AcDbVertex
100
AcDb2dVertex
 10
123.495184
 20
102.529565
 30
0.0
  0
VERTEX
  5
6EE
100
AcDbEntity
  8
トラップ
  6
CONTINUOUS
 62
     6
100
AcDbVertex
100
AcDb2dVertex
 10
123.49375
 20
102.571802
 30
0.0
  0
VERTEX
  5
6EF
100
AcDbEntity
  8
トラップ
  6
CONTINUOUS
 62
     6
100
AcDbVertex
100
AcDb2dVertex
 10
123.489462
 20
102.61355
 30
0.0
  0
VERTEX
  5
6F0
100
AcDbEntity
  8
トラップ
  6
CONTINUOUS
 62
     6
100
AcDbVertex
100
AcDb2dVertex
 10
123.482428
 20
102.65481
 30
0.0
  0
VERTEX
  5
6F1
100
AcDbEntity
  8
トラップ
  6
CONTINUOUS
 62
     6
100
AcDbVertex
100
AcDb2dVertex
 10
123.472586
 20
102.695093
 30
0.0
  0
VERTEX
  5
6F2
100
AcDbEntity
  8
トラップ
  6
CONTINUOUS
 62
     6
100
AcDbVertex
100
AcDb2dVertex
 10
123.460059
 20
102.734155
 30
0.0
  0
VERTEX
  5
6F3
100
AcDbEntity
  8
トラップ
  6
CONTINUOUS
 62
     6
100
AcDbVertex
100
AcDb2dVertex
 10
123.444952
 20
102.771753
 30
0.0
  0
VERTEX
  5
6F4
100
AcDbEntity
  8
トラップ
  6
CONTINUOUS
 62
     6
100
AcDbVertex
100
AcDb2dVertex
 10
123.427359
 20
102.807397
 30
0.0
  0
VERTEX
  5
6F5
100
AcDbEntity
  8
トラップ
  6
CONTINUOUS
 62
     6
100
AcDbVertex
100
AcDb2dVertex
 10
123.407431
 20
102.840845
 30
0.0
  0
VERTEX
  5
6F6
100
AcDbEntity
  8
トラップ
  6
CONTINUOUS
 62
     6
100
AcDbVertex
100
AcDb2dVertex
 10
123.385352
 20
102.871851
 30
0.0
  0
VERTEX
  5
6F7
100
AcDbEntity
  8
トラップ
  6
CONTINUOUS
 62
     6
100
AcDbVertex
100
AcDb2dVertex
 10
123.361227
 20
102.900415
 30
0.0
  0
VERTEX
  5
6F8
100
AcDbEntity
  8
トラップ
  6
CONTINUOUS
 62
     6
100
AcDbVertex
100
AcDb2dVertex
 10
123.335242
 20
102.92605
 30
0.0
  0
VERTEX
  5
6F9
100
AcDbEntity
  8
トラップ
  6
CONTINUOUS
 62
     6
100
AcDbVertex
100
AcDb2dVertex
 10
123.307715
 20
102.948755
 30
0.0
  0
VERTEX
  5
6FA
100
AcDbEntity
  8
トラップ
  6
CONTINUOUS
 62
     6
100
AcDbVertex
100
AcDb2dVertex
 10
123.278693
 20
102.968286
 30
0.0
  0
VERTEX
  5
6FB
100
AcDbEntity
  8
トラップ
  6
CONTINUOUS
 62
     6
100
AcDbVertex
100
AcDb2dVertex
 10
123.24848
 20
102.984399
 30
0.0
  0
VERTEX
  5
6FC
100
AcDbEntity
  8
トラップ
  6
CONTINUOUS
 62
     6
100
AcDbVertex
100
AcDb2dVertex
 10
123.217245
 20
102.997095
 30
0.0
  0
VERTEX
  5
6FD
100
AcDbEntity
  8
トラップ
  6
CONTINUOUS
 62
     6
100
AcDbVertex
100
AcDb2dVertex
 10
123.185309
 20
103.006128
 30
0.0
  0
VERTEX
  5
6FE
100
AcDbEntity
  8
トラップ
  6
CONTINUOUS
 62
     6
100
AcDbVertex
100
AcDb2dVertex
 10
123.152884
 20
103.011743
 30
0.0
  0
VERTEX
  5
6FF
100
AcDbEntity
  8
トラップ
  6
CONTINUOUS
 62
     6
100
AcDbVertex
100
AcDb2dVertex
 10
123.120169
 20
103.013696
 30
0.0
  0
VERTEX
  5
700
100
AcDbEntity
  8
トラップ
  6
CONTINUOUS
 62
     6
100
AcDbVertex
100
AcDb2dVertex
 10
123.087485
 20
103.011743
 30
0.0
  0
VERTEX
  5
701
100
AcDbEntity
  8
トラップ
  6
CONTINUOUS
 62
     6
100
AcDbVertex
100
AcDb2dVertex
 10
123.05506
 20
103.006372
 30
0.0
  0
VERTEX
  5
702
100
AcDbEntity
  8
トラップ
  6
CONTINUOUS
 62
     6
100
AcDbVertex
100
AcDb2dVertex
 10
123.023108
 20
102.997095
 30
0.0
  0
VERTEX
  5
703
100
AcDbEntity
  8
トラップ
  6
CONTINUOUS
 62
     6
100
AcDbVertex
100
AcDb2dVertex
 10
122.991904
 20
102.984399
 30
0.0
  0
VERTEX
  5
704
100
AcDbEntity
  8
トラップ
  6
CONTINUOUS
 62
     6
100
AcDbVertex
100
AcDb2dVertex
 10
122.961691
 20
102.968286
 30
0.0
  0
VERTEX
  5
705
100
AcDbEntity
  8
トラップ
  6
CONTINUOUS
 62
     6
100
AcDbVertex
100
AcDb2dVertex
 10
122.932654
 20
102.948755
 30
0.0
  0
VERTEX
  5
706
100
AcDbEntity
  8
トラップ
  6
CONTINUOUS
 62
     6
100
AcDbVertex
100
AcDb2dVertex
 10
122.905066
 20
102.92605
 30
0.0
  0
VERTEX
  5
707
100
AcDbEntity
  8
トラップ
  6
CONTINUOUS
 62
     6
100
AcDbVertex
100
AcDb2dVertex
 10
122.879111
 20
102.900171
 30
0.0
  0
VERTEX
  5
708
100
AcDbEntity
  8
トラップ
  6
CONTINUOUS
 62
     6
100
AcDbVertex
100
AcDb2dVertex
 10
122.854971
 20
102.871851
 30
0.0
  0
VERTEX
  5
709
100
AcDbEntity
  8
トラップ
  6
CONTINUOUS
 62
     6
100
AcDbVertex
100
AcDb2dVertex
 10
122.832861
 20
102.840845
 30
0.0
  0
VERTEX
  5
70A
100
AcDbEntity
  8
トラップ
  6
CONTINUOUS
 62
     6
100
AcDbVertex
100
AcDb2dVertex
 10
122.812933
 20
102.807153
 30
0.0
  0
VERTEX
  5
70B
100
AcDbEntity
  8
トラップ
  6
CONTINUOUS
 62
     6
100
AcDbVertex
100
AcDb2dVertex
 10
122.79537
 20
102.771753
 30
0.0
  0
VERTEX
  5
70C
100
AcDbEntity
  8
トラップ
  6
CONTINUOUS
 62
     6
100
AcDbVertex
100
AcDb2dVertex
 10
122.780264
 20
102.734399
 30
0.0
  0
VERTEX
  5
70D
100
AcDbEntity
  8
トラップ
  6
CONTINUOUS
 62
     6
100
AcDbVertex
100
AcDb2dVertex
 10
122.767737
 20
102.695337
 30
0.0
  0
VERTEX
  5
70E
100
AcDbEntity
  8
トラップ
  6
CONTINUOUS
 62
     6
100
AcDbVertex
100
AcDb2dVertex
 10
122.75791
 20
102.65481
 30
0.0
  0
VERTEX
  5
70F
100
AcDbEntity
  8
トラップ
  6
CONTINUOUS
 62
     6
100
AcDbVertex
100
AcDb2dVertex
 10
122.75083
 20
102.61355
 30
0.0
  0
VERTEX
  5
710
100
AcDbEntity
  8
トラップ
  6
CONTINUOUS
 62
     6
100
AcDbVertex
100
AcDb2dVertex
 10
122.746542
 20
102.571558
 30
0.0
  0
VERTEX
  5
711
100
AcDbEntity
  8
トラップ
  6
CONTINUOUS
 62
     6
100
AcDbVertex
100
AcDb2dVertex
 10
122.745139
 20
102.529565
 30
0.0
  0
VERTEX
  5
712
100
AcDbEntity
  8
トラップ
  6
CONTINUOUS
 62
     6
100
AcDbVertex
100
AcDb2dVertex
 10
122.746573
 20
102.487329
 30
0.0
  0
VERTEX
  5
713
100
AcDbEntity
  8
トラップ
  6
CONTINUOUS
 62
     6
100
AcDbVertex
100
AcDb2dVertex
 10
122.75083
 20
102.445581
 30
0.0
  0
VERTEX
  5
714
100
AcDbEntity
  8
トラップ
  6
CONTINUOUS
 62
     6
100
AcDbVertex
100
AcDb2dVertex
 10
122.75791
 20
102.404321
 30
0.0
  0
VERTEX
  5
715
100
AcDbEntity
  8
トラップ
  6
CONTINUOUS
 62
     6
100
AcDbVertex
100
AcDb2dVertex
 10
122.767752
 20
102.364038
 30
0.0
  0
VERTEX
  5
716
100
AcDbEntity
  8
トラップ
  6
CONTINUOUS
 62
     6
100
AcDbVertex
100
AcDb2dVertex
 10
122.780249
 20
102.324976
 30
0.0
  0
VERTEX
  5
717
100
AcDbEntity
  8
トラップ
  6
CONTINUOUS
 62
     6
100
AcDbVertex
100
AcDb2dVertex
 10
122.79537
 20
102.287622
 30
0.0
  0
VERTEX
  5
718
100
AcDbEntity
  8
トラップ
  6
CONTINUOUS
 62
     6
100
AcDbVertex
100
AcDb2dVertex
 10
122.812949
 20
102.251978
 30
0.0
  0
VERTEX
  5
719
100
AcDbEntity
  8
トラップ
  6
CONTINUOUS
 62
     6
100
AcDbVertex
100
AcDb2dVertex
 10
122.832861
 20
102.21853
 30
0.0
  0
VERTEX
  5
71A
100
AcDbEntity
  8
トラップ
  6
CONTINUOUS
 62
     6
100
AcDbVertex
100
AcDb2dVertex
 10
122.854971
 20
102.18728
 30
0.0
  0
VERTEX
  5
71B
100
AcDbEntity
  8
トラップ
  6
CONTINUOUS
 62
     6
100
AcDbVertex
100
AcDb2dVertex
 10
122.879095
 20
102.158716
 30
0.0
  0
VERTEX
  5
71C
100
AcDbEntity
  8
トラップ
  6
CONTINUOUS
 62
     6
100
AcDbVertex
100
AcDb2dVertex
 10
122.905035
 20
102.133081
 30
0.0
  0
VERTEX
  5
71D
100
AcDbEntity
  8
トラップ
  6
CONTINUOUS
 62
     6
100
AcDbVertex
100
AcDb2dVertex
 10
122.932654
 20
102.110376
 30
0.0
  0
VERTEX
  5
71E
100
AcDbEntity
  8
トラップ
  6
CONTINUOUS
 62
     6
100
AcDbVertex
100
AcDb2dVertex
 10
122.961676
 20
102.090845
 30
0.0
  0
VERTEX
  5
71F
100
AcDbEntity
  8
トラップ
  6
CONTINUOUS
 62
     6
100
AcDbVertex
100
AcDb2dVertex
 10
122.991904
 20
102.074731
 30
0.0
  0
VERTEX
  5
720
100
AcDbEntity
  8
トラップ
  6
CONTINUOUS
 62
     6
100
AcDbVertex
100
AcDb2dVertex
 10
123.023108
 20
102.062036
 30
0.0
  0
VERTEX
  5
721
100
AcDbEntity
  8
トラップ
  6
CONTINUOUS
 62
     6
100
AcDbVertex
100
AcDb2dVertex
 10
123.05506
 20
102.053003
 30
0.0
  0
VERTEX
  5
722
100
AcDbEntity
  8
トラップ
  6
CONTINUOUS
 62
     6
100
AcDbVertex
100
AcDb2dVertex
 10
123.0875
 20
102.047388
 30
0.0
  0
VERTEX
  5
723
100
AcDbEntity
  8
トラップ
  6
CONTINUOUS
 62
     6
100
AcDbVertex
100
AcDb2dVertex
 10
123.120184
 20
102.045435
 30
0.0
  0
VERTEX
  5
724
100
AcDbEntity
  8
トラップ
  6
CONTINUOUS
 62
     6
100
AcDbVertex
100
AcDb2dVertex
 10
123.152869
 20
102.047388
 30
0.0
  0
VERTEX
  5
725
100
AcDbEntity
  8
トラップ
  6
CONTINUOUS
 62
     6
100
AcDbVertex
100
AcDb2dVertex
 10
123.185324
 20
102.052759
 30
0.0
  0
VERTEX
  5
726
100
AcDbEntity
  8
トラップ
  6
CONTINUOUS
 62
     6
100
AcDbVertex
100
AcDb2dVertex
 10
123.217245
 20
102.062036
 30
0.0
  0
VERTEX
  5
727
100
AcDbEntity
  8
トラップ
  6
CONTINUOUS
 62
     6
100
AcDbVertex
100
AcDb2dVertex
 10
123.24845
 20
102.074731
 30
0.0
  0
VERTEX
  5
728
100
AcDbEntity
  8
トラップ
  6
CONTINUOUS
 62
     6
100
AcDbVertex
100
AcDb2dVertex
 10
123.278693
 20
102.090845
 30
0.0
  0
SEQEND
  5
729
100
AcDbEntity
  8
トラップ
  6
CONTINUOUS
 62
     6
  0
POLYLINE
  5
72A
100
AcDbEntity
  8
トラップ
  6
CONTINUOUS
 62
     6
100
AcDb2dPolyline
 66
     1
 10
0.0
 20
0.0
 30
0.0
 70
   128
  0
VERTEX
  5
72B
100
AcDbEntity
  8
トラップ
  6
CONTINUOUS
 62
     6
100
AcDbVertex
100
AcDb2dVertex
 10
123.278693
 20
102.090845
 30
0.0
  0
VERTEX
  5
72C
100
AcDbEntity
  8
トラップ
  6
CONTINUOUS
 62
     6
100
AcDbVertex
100
AcDb2dVertex
 10
123.307715
 20
102.110376
 30
0.0
  0
VERTEX
  5
72D
100
AcDbEntity
  8
トラップ
  6
CONTINUOUS
 62
     6
100
AcDbVertex
100
AcDb2dVertex
 10
123.335318
 20
102.133081
 30
0.0
  0
VERTEX
  5
72E
100
AcDbEntity
  8
トラップ
  6
CONTINUOUS
 62
     6
100
AcDbVertex
100
AcDb2dVertex
 10
123.361288
 20
102.15896
 30
0.0
  0
VERTEX
  5
72F
100
AcDbEntity
  8
トラップ
  6
CONTINUOUS
 62
     6
100
AcDbVertex
100
AcDb2dVertex
 10
123.385352
 20
102.18728
 30
0.0
  0
VERTEX
  5
730
100
AcDbEntity
  8
トラップ
  6
CONTINUOUS
 62
     6
100
AcDbVertex
100
AcDb2dVertex
 10
123.407446
 20
102.218286
 30
0.0
  0
VERTEX
  5
731
100
AcDbEntity
  8
トラップ
  6
CONTINUOUS
 62
     6
100
AcDbVertex
100
AcDb2dVertex
 10
123.427344
 20
102.251978
 30
0.0
  0
VERTEX
  5
732
100
AcDbEntity
  8
トラップ
  6
CONTINUOUS
 62
     6
100
AcDbVertex
100
AcDb2dVertex
 10
123.444952
 20
102.287622
 30
0.0
  0
VERTEX
  5
733
100
AcDbEntity
  8
トラップ
  6
CONTINUOUS
 62
     6
100
AcDbVertex
100
AcDb2dVertex
 10
123.460043
 20
102.324976
 30
0.0
  0
VERTEX
  5
734
100
AcDbEntity
  8
トラップ
  6
CONTINUOUS
 62
     6
100
AcDbVertex
100
AcDb2dVertex
 10
123.472556
 20
102.364038
 30
0.0
  0
VERTEX
  5
735
100
AcDbEntity
  8
トラップ
  6
CONTINUOUS
 62
     6
100
AcDbVertex
100
AcDb2dVertex
 10
123.482428
 20
102.404321
 30
0.0
  0
SEQEND
  5
736
100
AcDbEntity
  8
トラップ
  6
CONTINUOUS
 62
     6
  0
POLYLINE
  5
737
100
AcDbEntity
  8
トラップ
  6
CONTINUOUS
 62
     6
100
AcDb2dPolyline
 66
     1
 10
0.0
 20
0.0
 30
0.0
 70
   128
  0
VERTEX
  5
738
100
AcDbEntity
  8
トラップ
  6
CONTINUOUS
 62
     6
100
AcDbVertex
100
AcDb2dVertex
 10
123.482428
 20
102.404321
 30
0.0
  0
VERTEX
  5
739
100
AcDbEntity
  8
トラップ
  6
CONTINUOUS
 62
     6
100
AcDbVertex
100
AcDb2dVertex
 10
123.489508
 20
102.445581
 30
0.0
  0
VERTEX
  5
73A
100
AcDbEntity
  8
トラップ
  6
CONTINUOUS
 62
     6
100
AcDbVertex
100
AcDb2dVertex
 10
123.493765
 20
102.487573
 30
0.0
  0
VERTEX
  5
73B
100
AcDbEntity
  8
トラップ
  6
CONTINUOUS
 62
     6
100
AcDbVertex
100
AcDb2dVertex
 10
123.495169
 20
102.52981
 30
0.0
  0
SEQEND
  5
73C
100
AcDbEntity
  8
トラップ
  6
CONTINUOUS
 62
     6
  0
ARC
  5
73D
100
AcDbEntity
  8
トラップ
  6
CONTINUOUS
 62
     6
100
AcDbCircle
 10
121.561392
 20
90.829614
 30
0.0
 40
1.270004
100
AcDbArc
 50
180.000015
 51
0.0
  0
LINE
  5
73E
100
AcDbEntity
  8
トラップ
  6
CONTINUOUS
 62
     6
100
AcDbLine
 10
120.191382
 20
97.729517
 30
0.0
 11
122.931372
 21
97.729517
 31
0.0
  0
LINE
  5
73F
100
AcDbEntity
  8
トラップ
  6
CONTINUOUS
 62
     6
100
AcDbLine
 10
120.191382
 20
97.720239
 30
0.0
 11
120.191351
 21
101.979517
 31
0.0
  0
LINE
  5
740
100
AcDbEntity
  8
トラップ
  6
CONTINUOUS
 62
     6
100
AcDbLine
 10
120.291373
 20
97.347192
 30
0.0
 11
120.191382
 21
97.720239
 31
0.0
  0
LINE
  5
741
100
AcDbEntity
  8
トラップ
  6
CONTINUOUS
 62
     6
100
AcDbLine
 10
120.291373
 20
97.347192
 30
0.0
 11
120.291403
 21
90.829614
 31
0.0
  0
LINE
  5
742
100
AcDbEntity
  8
トラップ
  6
CONTINUOUS
 62
     6
100
AcDbLine
 10
122.831381
 20
97.347192
 30
0.0
 11
122.831412
 21
90.829614
 31
0.0
  0
LINE
  5
743
100
AcDbEntity
  8
トラップ
  6
CONTINUOUS
 62
     6
100
AcDbLine
 10
122.831381
 20
97.347192
 30
0.0
 11
122.931372
 21
97.720483
 31
0.0
  0
LINE
  5
744
100
AcDbEntity
  8
トラップ
  6
CONTINUOUS
 62
     6
100
AcDbLine
 10
122.931372
 20
97.720483
 30
0.0
 11
122.931342
 21
101.979517
 31
0.0
  0
ARC
  5
745
100
AcDbEntity
  8
トラップ
  6
CONTINUOUS
 62
     6
100
AcDbCircle
 10
121.561362
 20
99.379663
 30
0.0
 40
2.999992
100
AcDbArc
 50
295.044739
 51
60.067902
  0
ARC
  5
746
100
AcDbEntity
  8
トラップ
  6
CONTINUOUS
 62
     6
100
AcDbCircle
 10
121.561362
 20
99.379663
 30
0.0
 40
3.0
100
AcDbArc
 50
119.932098
 51
244.955627
  0
LINE
  5
747
100
AcDbEntity
  8
トラップ
  6
CONTINUOUS
 62
     6
100
AcDbLine
 10
119.761374
 20
95.579614
 30
0.0
 11
119.761374
 21
94.479517
 31
0.0
  0
LINE
  5
748
100
AcDbEntity
  8
トラップ
  6
CONTINUOUS
 62
     6
100
AcDbLine
 10
123.36138
 20
95.579614
 30
0.0
 11
123.36138
 21
94.479517
 31
0.0
  0
LINE
  5
749
100
AcDbEntity
  8
トラップ
  6
CONTINUOUS
 62
     6
100
AcDbLine
 10
119.761374
 20
95.579614
 30
0.0
 11
120.291388
 21
95.579614
 31
0.0
  0
LINE
  5
74A
100
AcDbEntity
  8
トラップ
  6
CONTINUOUS
 62
     6
100
AcDbLine
 10
122.831396
 20
95.579614
 30
0.0
 11
123.36138
 21
95.579614
 31
0.0
  0
LINE
  5
74B
100
AcDbEntity
  8
トラップ
  6
CONTINUOUS
 62
     6
100
AcDbLine
 10
119.761374
 20
94.479517
 30
0.0
 11
120.291388
 21
94.479517
 31
0.0
  0
LINE
  5
74C
100
AcDbEntity
  8
トラップ
  6
CONTINUOUS
 62
     6
100
AcDbLine
 10
122.831396
 20
94.479517
 30
0.0
 11
123.36138
 21
94.479517
 31
0.0
  0
LINE
  5
74D
100
AcDbEntity
  8
トラップ
  6
CONTINUOUS
 62
     6
100
AcDbLine
 10
122.831396
 20
103.079614
 30
0.0
 11
122.831396
 21
107.11181
 31
0.0
  0
LINE
  5
74E
100
AcDbEntity
  8
トラップ
  6
CONTINUOUS
 62
     6
100
AcDbLine
 10
120.291388
 20
103.079614
 30
0.0
 11
120.291388
 21
107.11181
 31
0.0
  0
LINE
  5
74F
100
AcDbEntity
  8
トラップ
  6
CONTINUOUS
 62
     6
100
AcDbLine
 10
121.561362
 20
104.379655
 30
0.0
 11
121.561362
 21
100.979663
 31
0.0
  0
LINE
  5
750
100
AcDbEntity
  8
トラップ
  6
CONTINUOUS
 62
     6
100
AcDbLine
 10
121.561362
 20
99.779663
 30
0.0
 11
121.561362
 21
98.979663
 31
0.0
  0
LINE
  5
751
100
AcDbEntity
  8
トラップ
  6
CONTINUOUS
 62
     6
100
AcDbLine
 10
121.561362
 20
97.779663
 30
0.0
 11
121.561362
 21
84.8
 31
0.0
  0
LINE
  5
752
100
AcDbEntity
  8
トラップ
  6
CONTINUOUS
 62
     6
100
AcDbLine
 10
107.380069
 20
216.1
 30
0.0
 11
114.7
 21
216.1
 31
0.0
  0
TEXT
  5
753
100
AcDbEntity
  8
トラップ
  6
CONTINUOUS
 62
     2
100
AcDbText
 10
106.980069
 20
216.450006
 30
0.0
 40
4.0
  1
２５
 41
0.861
  7
EXCADSTD
 72
     5
 11
114.496189
 21
216.450006
 31
0.0
100
AcDbText
  0
LINE
  5
754
100
AcDbEntity
  8
トラップ
  6
CONTINUOUS
 62
     6
100
AcDbLine
 10
122.811362
 20
214.179657
 30
0.0
 11
122.811362
 21
211.179656
 31
0.0
  0
LINE
  5
755
100
AcDbEntity
  8
トラップ
  6
CONTINUOUS
 62
     6
100
AcDbLine
 10
120.311362
 20
214.179657
 30
0.0
 11
120.311362
 21
211.179657
 31
0.0
  0
LINE
  5
756
100
AcDbEntity
  8
トラップ
  6
CONTINUOUS
 62
     6
100
AcDbLine
 10
120.311362
 20
214.179657
 30
0.0
 11
122.811362
 21
214.179656
 31
0.0
  0
LEADER
  5
757
100
AcDbEntity
  8
トラップ
  6
CONTINUOUS
 62
     6
100
AcDbLeader
  3
STANDARD
 73
     3
 74
     1
 75
     0
 40
0.0
 76
     2
 10
120.191367
 20
47.129663
 30
0.0
 10
124.41
 20
40.52
 30
0.0
 77
     6
1001
ACAD
1000
DSTYLE
1002
{
1070
    41
1040
3.5
1070
     5
1000
_EX_NORM
1070
     6
1000
_EX_NORM
1070
     7
1000
_EX_NORM
1070
   341
1005
2C
1002
}
  0
TEXT
  5
758
100
AcDbEntity
  8
トラップ
  6
CONTINUOUS
 62
     2
100
AcDbText
 10
124.41
 20
40.870006
 30
0.0
 40
4.0
  1
２５
 41
0.861
  7
EXCADSTD
 72
     5
 11
131.92612
 21
40.870006
 31
0.0
100
AcDbText
  0
LINE
  5
759
100
AcDbEntity
  8
トラップ
  6
CONTINUOUS
 62
     6
100
AcDbLine
 10
124.41
 20
40.52
 30
0.0
 11
131.729931
 21
40.52
 31
0.0
  0
TEXT
  5
75A
100
AcDbEntity
  8
トラップ
  6
CONTINUOUS
 62
     2
100
AcDbText
 10
94.0
 20
63.850006
 30
0.0
 40
4.0
  1
ＮＬ３１Ｓ
 41
0.8106
  7
EXCADSTD
 72
     5
 11
113.3
 21
63.850006
 31
0.0
100
AcDbText
  0
LINE
  5
75B
100
AcDbEntity
  8
トラップ
  6
CONTINUOUS
 62
     6
100
AcDbLine
 10
93.952469
 20
63.5
 30
0.0
 11
113.0
 21
63.5
 31
0.0
  0
LEADER
  5
75C
100
AcDbEntity
  8
トラップ
  6
CONTINUOUS
 62
     6
100
AcDbLeader
  3
STANDARD
 73
     3
 74
     1
 75
     0
 40
0.0
 76
     2
 10
117.651358
 20
69.4
 30
0.0
 10
113.0
 20
63.5
 30
0.0
 77
     6
1001
ACAD
1000
DSTYLE
1002
{
1070
    41
1040
3.5
1070
     5
1000
_EX_NORM
1070
     6
1000
_EX_NORM
1070
     7
1000
_EX_NORM
1070
   341
1005
2C
1002
}
  0
TEXT
  5
75D
100
AcDbEntity
  8
トラップ
  6
CONTINUOUS
 62
     2
100
AcDbText
 10
94.000002
 20
87.590006
 30
0.0
 40
4.0
  1
ＮＬ３１Ｐ
 41
0.8106
  7
EXCADSTD
 72
     5
 11
113.300002
 21
87.590006
 31
0.0
100
AcDbText
  0
LINE
  5
75E
100
AcDbEntity
  8
トラップ
  6
CONTINUOUS
 62
     6
100
AcDbLine
 10
93.952471
 20
87.24
 30
0.0
 11
113.000002
 21
87.24
 31
0.0
  0
LINE
  5
75F
100
AcDbEntity
  8
トラップ
  6
EXLTYPE4
 62
     6
100
AcDbLine
 10
117.651358
 20
49.979669
 30
0.0
 11
117.651358
 21
98.976862
 31
0.0
  0
LINE
  5
760
100
AcDbEntity
  8
トラップ
  6
EXLTYPE4
 62
     6
100
AcDbLine
 10
120.191367
 20
49.979669
 30
0.0
 11
120.191367
 21
102.361856
 31
0.0
  0
ARC
  5
761
100
AcDbEntity
  8
トラップ
  6
EXLTYPE2
 62
     6
100
AcDbCircle
 10
119.60636
 20
98.976862
 30
0.0
 40
1.955002
100
AcDbArc
 50
72.588242
 51
180.0
  0
LINE
  5
762
100
AcDbEntity
  8
トラップ
  6
EXLTYPE2
 62
     6
100
AcDbLine
 10
117.651358
 20
45.879663
 30
0.0
 11
117.651358
 21
48.379663
 31
0.0
  0
LINE
  5
763
100
AcDbEntity
  8
トラップ
  6
EXLTYPE2
 62
     6
100
AcDbLine
 10
117.651358
 20
45.879663
 30
0.0
 11
120.191367
 21
45.879663
 31
0.0
  0
LINE
  5
764
100
AcDbEntity
  8
トラップ
  6
EXLTYPE2
 62
     6
100
AcDbLine
 10
120.191367
 20
45.879663
 30
0.0
 11
120.191367
 21
48.379663
 31
0.0
  0
ARC
  5
765
100
AcDbEntity
  8
トラップ
  6
EXLTYPE2
 62
     6
100
AcDbCircle
 10
120.521368
 20
48.579675
 30
0.0
 40
1.4
100
AcDbArc
 50
0.0
 51
90.0
  0
LINE
  5
766
100
AcDbEntity
  8
トラップ
  6
EXLTYPE2
 62
     6
100
AcDbLine
 10
121.921362
 20
48.379663
 30
0.0
 11
121.921362
 21
48.579675
 31
0.0
  0
ARC
  5
767
100
AcDbEntity
  8
トラップ
  6
EXLTYPE2
 62
     6
100
AcDbCircle
 10
117.321356
 20
48.579675
 30
0.0
 40
1.4
100
AcDbArc
 50
90.0
 51
180.0
  0
LINE
  5
768
100
AcDbEntity
  8
トラップ
  6
EXLTYPE2
 62
     6
100
AcDbLine
 10
117.321356
 20
49.979669
 30
0.0
 11
120.521368
 21
49.979669
 31
0.0
  0
LINE
  5
769
100
AcDbEntity
  8
トラップ
  6
EXLTYPE2
 62
     6
100
AcDbLine
 10
115.921362
 20
48.379663
 30
0.0
 11
115.921362
 21
48.579675
 31
0.0
  0
TEXT
  5
76A
100
AcDbEntity
  8
寸法
  6
CONTINUOUS
 62
     2
100
AcDbText
 10
87.760037
 20
107.779655
 30
0.0
 40
4.0
  1
２５
 50
90.0
 41
0.861
  7
EXCADSTD
 72
     5
 11
87.760037
 21
115.295775
 31
0.0
100
AcDbText
  0
LINE
  5
76B
100
AcDbEntity
  8
寸法
  6
CONTINUOUS
 62
     3
100
AcDbLine
 10
88.110037
 20
124.379648
 30
0.0
 11
88.110037
 21
99.379663
 31
0.0
  0
LINE
  5
76C
100
AcDbEntity
  8
寸法
  6
CONTINUOUS
 62
     3
100
AcDbLine
 10
88.693371
 20
120.879648
 30
0.0
 11
88.110037
 21
124.379648
 31
0.0
  0
LINE
  5
76D
100
AcDbEntity
  8
寸法
  6
CONTINUOUS
 62
     3
100
AcDbLine
 10
88.110037
 20
124.379648
 30
0.0
 11
87.526704
 21
120.879648
 31
0.0
  0
LINE
  5
76E
100
AcDbEntity
  8
寸法
  6
CONTINUOUS
 62
     3
100
AcDbLine
 10
87.526704
 20
102.879663
 30
0.0
 11
88.110037
 21
99.379663
 31
0.0
  0
LINE
  5
76F
100
AcDbEntity
  8
寸法
  6
CONTINUOUS
 62
     3
100
AcDbLine
 10
88.110037
 20
99.379663
 30
0.0
 11
88.693371
 21
102.879663
 31
0.0
  0
TEXT
  5
770
100
AcDbEntity
  8
寸法
  6
CONTINUOUS
 62
     2
100
AcDbText
 10
87.760037
 20
69.779663
 30
0.0
 40
4.0
  1
５１
 50
90.0
 41
0.861
  7
EXCADSTD
 72
     5
 11
87.760037
 21
77.295783
 31
0.0
100
AcDbText
  0
LINE
  5
771
100
AcDbEntity
  8
寸法
  6
CONTINUOUS
 62
     3
100
AcDbLine
 10
88.110037
 20
99.379663
 30
0.0
 11
88.110037
 21
48.379663
 31
0.0
  0
LINE
  5
772
100
AcDbEntity
  8
寸法
  6
CONTINUOUS
 62
     3
100
AcDbLine
 10
88.693371
 20
95.879663
 30
0.0
 11
88.110037
 21
99.379663
 31
0.0
  0
LINE
  5
773
100
AcDbEntity
  8
寸法
  6
CONTINUOUS
 62
     3
100
AcDbLine
 10
88.110037
 20
99.379663
 30
0.0
 11
87.526704
 21
95.879663
 31
0.0
  0
LINE
  5
774
100
AcDbEntity
  8
寸法
  6
CONTINUOUS
 62
     3
100
AcDbLine
 10
87.526704
 20
51.879663
 30
0.0
 11
88.110037
 21
48.379663
 31
0.0
  0
LINE
  5
775
100
AcDbEntity
  8
寸法
  6
CONTINUOUS
 62
     3
100
AcDbLine
 10
88.110037
 20
48.379663
 30
0.0
 11
88.693371
 21
51.879663
 31
0.0
  0
POLYLINE
  5
776
100
AcDbEntity
  8
寸法
  6
CONTINUOUS
 62
     3
100
AcDb2dPolyline
 66
     1
 10
0.0
 20
0.0
 30
0.0
 70
   128
  0
VERTEX
  5
777
100
AcDbEntity
  8
寸法
  6
CONTINUOUS
 62
     3
100
AcDbVertex
100
AcDb2dVertex
 10
127.380621
 20
93.894131
 30
0.0
  0
VERTEX
  5
778
100
AcDbEntity
  8
寸法
  6
CONTINUOUS
 62
     3
100
AcDbVertex
100
AcDb2dVertex
 10
130.761359
 20
94.8
 30
0.0
  0
VERTEX
  5
779
100
AcDbEntity
  8
寸法
  6
CONTINUOUS
 62
     3
100
AcDbVertex
100
AcDb2dVertex
 10
127.380621
 20
95.705869
 30
0.0
  0
SEQEND
  5
77A
100
AcDbEntity
  8
寸法
  6
CONTINUOUS
 62
     3
  0
POLYLINE
  5
77B
100
AcDbEntity
  8
寸法
  6
CONTINUOUS
 62
     3
100
AcDb2dPolyline
 66
     1
 10
0.0
 20
0.0
 30
0.0
 70
   128
  0
VERTEX
  5
77C
100
AcDbEntity
  8
寸法
  6
CONTINUOUS
 62
     3
100
AcDbVertex
100
AcDb2dVertex
 10
141.442099
 20
95.705869
 30
0.0
  0
VERTEX
  5
77D
100
AcDbEntity
  8
寸法
  6
CONTINUOUS
 62
     3
100
AcDbVertex
100
AcDb2dVertex
 10
138.061362
 20
94.8
 30
0.0
  0
VERTEX
  5
77E
100
AcDbEntity
  8
寸法
  6
CONTINUOUS
 62
     3
100
AcDbVertex
100
AcDb2dVertex
 10
141.442099
 20
93.894131
 30
0.0
  0
SEQEND
  5
77F
100
AcDbEntity
  8
寸法
  6
CONTINUOUS
 62
     3
  0
LINE
  5
780
100
AcDbEntity
  8
寸法
  6
CONTINUOUS
 62
     3
100
AcDbLine
 10
126.261359
 20
94.8
 30
0.0
 11
142.561362
 21
94.8
 31
0.0
  0
POLYLINE
  5
781
100
AcDbEntity
  8
寸法
  6
CONTINUOUS
 62
     3
100
AcDb2dPolyline
 66
     1
 10
0.0
 20
0.0
 30
0.0
 70
   128
  0
VERTEX
  5
782
100
AcDbEntity
  8
寸法
  6
CONTINUOUS
 62
     3
100
AcDbVertex
100
AcDb2dVertex
 10
143.835669
 20
51.7604
 30
0.0
  0
VERTEX
  5
783
100
AcDbEntity
  8
寸法
  6
CONTINUOUS
 62
     3
100
AcDbVertex
100
AcDb2dVertex
 10
144.741537
 20
48.379663
 30
0.0
  0
VERTEX
  5
784
100
AcDbEntity
  8
寸法
  6
CONTINUOUS
 62
     3
100
AcDbVertex
100
AcDb2dVertex
 10
145.647406
 20
51.7604
 30
0.0
  0
SEQEND
  5
785
100
AcDbEntity
  8
寸法
  6
CONTINUOUS
 62
     3
  0
POLYLINE
  5
786
100
AcDbEntity
  8
寸法
  6
CONTINUOUS
 62
     3
100
AcDb2dPolyline
 66
     1
 10
0.0
 20
0.0
 30
0.0
 70
   128
  0
VERTEX
  5
787
100
AcDbEntity
  8
寸法
  6
CONTINUOUS
 62
     3
100
AcDbVertex
100
AcDb2dVertex
 10
145.647406
 20
99.998926
 30
0.0
  0
VERTEX
  5
788
100
AcDbEntity
  8
寸法
  6
CONTINUOUS
 62
     3
100
AcDbVertex
100
AcDb2dVertex
 10
144.741537
 20
103.379663
 30
0.0
  0
VERTEX
  5
789
100
AcDbEntity
  8
寸法
  6
CONTINUOUS
 62
     3
100
AcDbVertex
100
AcDb2dVertex
 10
143.835669
 20
99.998926
 30
0.0
  0
SEQEND
  5
78A
100
AcDbEntity
  8
寸法
  6
CONTINUOUS
 62
     3
  0
LINE
  5
78B
100
AcDbEntity
  8
寸法
  6
CONTINUOUS
 62
     3
100
AcDbLine
 10
144.741537
 20
48.379663
 30
0.0
 11
144.741537
 21
103.379663
 31
0.0
  0
LINE
  5
78C
100
AcDbEntity
  8
寸法
  6
CONTINUOUS
 62
     3
100
AcDbLine
 10
146.741537
 20
48.379663
 30
0.0
 11
138.561362
 21
48.379663
 31
0.0
  0
POLYLINE
  5
78D
100
AcDbEntity
  8
寸法
  6
CONTINUOUS
 62
     3
100
AcDb2dPolyline
 66
     1
 10
0.0
 20
0.0
 30
0.0
 70
   128
  0
VERTEX
  5
78E
100
AcDbEntity
  8
寸法
  6
CONTINUOUS
 62
     3
100
AcDbVertex
100
AcDb2dVertex
 10
81.204169
 20
51.7604
 30
0.0
  0
VERTEX
  5
78F
100
AcDbEntity
  8
寸法
  6
CONTINUOUS
 62
     3
100
AcDbVertex
100
AcDb2dVertex
 10
82.110037
 20
48.379663
 30
0.0
  0
VERTEX
  5
790
100
AcDbEntity
  8
寸法
  6
CONTINUOUS
 62
     3
100
AcDbVertex
100
AcDb2dVertex
 10
83.015906
 20
51.7604
 30
0.0
  0
SEQEND
  5
791
100
AcDbEntity
  8
寸法
  6
CONTINUOUS
 62
     3
  0
POLYLINE
  5
792
100
AcDbEntity
  8
寸法
  6
CONTINUOUS
 62
     3
100
AcDb2dPolyline
 66
     1
 10
0.0
 20
0.0
 30
0.0
 70
   128
  0
VERTEX
  5
793
100
AcDbEntity
  8
寸法
  6
CONTINUOUS
 62
     3
100
AcDbVertex
100
AcDb2dVertex
 10
83.015906
 20
120.998911
 30
0.0
  0
VERTEX
  5
794
100
AcDbEntity
  8
寸法
  6
CONTINUOUS
 62
     3
100
AcDbVertex
100
AcDb2dVertex
 10
82.110037
 20
124.379648
 30
0.0
  0
VERTEX
  5
795
100
AcDbEntity
  8
寸法
  6
CONTINUOUS
 62
     3
100
AcDbVertex
100
AcDb2dVertex
 10
81.204169
 20
120.998911
 30
0.0
  0
SEQEND
  5
796
100
AcDbEntity
  8
寸法
  6
CONTINUOUS
 62
     3
  0
LINE
  5
797
100
AcDbEntity
  8
寸法
  6
CONTINUOUS
 62
     3
100
AcDbLine
 10
82.110037
 20
48.379663
 30
0.0
 11
82.110037
 21
124.379648
 31
0.0
  0
LINE
  5
798
100
AcDbEntity
  8
寸法
  6
CONTINUOUS
 62
     3
100
AcDbLine
 10
126.631659
 20
103.379663
 30
0.0
 11
146.741537
 21
103.379663
 31
0.0
  0
TEXT
  5
799
100
AcDbEntity
  8
寸法
  6
CONTINUOUS
 62
     2
100
AcDbText
 10
144.391547
 20
70.07966
 30
0.0
 40
4.0
  1
５５０
 50
90.0
 41
0.833
  7
EXCADSTD
 72
     5
 11
144.391547
 21
81.97966
 31
0.0
100
AcDbText
  0
TEXT
  5
79A
100
AcDbEntity
  8
寸法
  6
CONTINUOUS
 62
     2
100
AcDbText
 10
130.611349
 20
95.150006
 30
0.0
 40
4.0
  1
７３
 41
0.861
  7
EXCADSTD
 72
     5
 11
138.127469
 21
95.150006
 31
0.0
100
AcDbText
  0
TEXT
  5
79B
100
AcDbEntity
  8
寸法
  6
CONTINUOUS
 62
     2
100
AcDbText
 10
81.760031
 20
80.57966
 30
0.0
 40
4.0
  1
７６０
 50
90.0
 41
0.833
  7
EXCADSTD
 72
     5
 11
81.760031
 21
92.47966
 31
0.0
100
AcDbText
  0
LINE
  5
79C
100
AcDbEntity
  8
寸法
  6
CONTINUOUS
 62
     6
100
AcDbLine
 10
86.110037
 20
99.379663
 30
0.0
 11
119.961362
 21
99.379663
 31
0.0
  0
LINE
  5
79D
100
AcDbEntity
  8
寸法
  6
CONTINUOUS
 62
     6
100
AcDbLine
 10
121.161362
 20
99.379663
 30
0.0
 11
121.961362
 21
99.379663
 31
0.0
  0
LINE
  5
79E
100
AcDbEntity
  8
寸法
  6
CONTINUOUS
 62
     6
100
AcDbLine
 10
123.161362
 20
99.379663
 30
0.0
 11
126.561354
 21
99.379663
 31
0.0
  0
LINE
  5
79F
100
AcDbEntity
  8
器具明細表
  6
CONTINUOUS
 62
     6
100
AcDbLine
 10
73.9
 20
242.893604
 30
0.0
 11
143.9
 21
242.893604
 31
0.0
  0
LINE
  5
7A0
100
AcDbEntity
  8
器具明細表
  6
CONTINUOUS
 62
     6
100
AcDbLine
 10
73.9
 20
249.393604
 30
0.0
 11
143.9
 21
249.393604
 31
0.0
  0
LINE
  5
7A1
100
AcDbEntity
  8
器具明細表
  6
CONTINUOUS
 62
     6
100
AcDbLine
 10
73.9
 20
262.393604
 30
0.0
 11
143.9
 21
262.393604
 31
0.0
  0
LINE
  5
7A2
100
AcDbEntity
  8
器具明細表
  6
CONTINUOUS
 62
     6
100
AcDbLine
 10
73.9
 20
268.893604
 30
0.0
 11
143.9
 21
268.893604
 31
0.0
  0
LINE
  5
7A3
100
AcDbEntity
  8
器具明細表
  6
CONTINUOUS
 62
     6
100
AcDbLine
 10
73.9
 20
275.393604
 30
0.0
 11
143.9
 21
275.393604
 31
0.0
  0
LINE
  5
7A4
100
AcDbEntity
  8
器具明細表
  6
CONTINUOUS
 62
     6
100
AcDbLine
 10
73.9
 20
281.893604
 30
0.0
 11
143.9
 21
281.893604
 31
0.0
  0
LINE
  5
7A5
100
AcDbEntity
  8
器具明細表
  6
CONTINUOUS
 62
     6
100
AcDbLine
 10
73.9
 20
242.893604
 30
0.0
 11
73.9
 21
281.893604
 31
0.0
  0
LINE
  5
7A6
100
AcDbEntity
  8
器具明細表
  6
CONTINUOUS
 62
     6
100
AcDbLine
 10
106.9
 20
242.893604
 30
0.0
 11
106.9
 21
281.893604
 31
0.0
  0
LINE
  5
7A7
100
AcDbEntity
  8
器具明細表
  6
CONTINUOUS
 62
     6
100
AcDbLine
 10
134.9
 20
242.893604
 30
0.0
 11
134.9
 21
281.893604
 31
0.0
  0
LINE
  5
7A8
100
AcDbEntity
  8
器具明細表
  6
CONTINUOUS
 62
     6
100
AcDbLine
 10
143.9
 20
242.893604
 30
0.0
 11
143.9
 21
281.893604
 31
0.0
  0
TEXT
  5
7A9
100
AcDbEntity
  8
器具明細表
  6
CONTINUOUS
 62
     2
100
AcDbText
 10
75.640021
 20
282.637012
 30
0.0
 40
6.0
  1
器具明細
 41
1.54
  7
EXCADSTD
 72
     5
 11
119.640021
 21
282.637012
 31
0.0
100
AcDbText
  0
TEXT
  5
7AA
100
AcDbEntity
  8
器具明細表
  6
CONTINUOUS
 62
     2
100
AcDbText
 10
79.6
 20
275.893604
 30
0.0
 40
5.5
  1
品　　番
 41
0.830455
  7
EXCADSTD
 72
     5
 11
101.35
 21
275.893604
 31
0.0
100
AcDbText
  0
TEXT
  5
7AB
100
AcDbEntity
  8
器具明細表
  6
CONTINUOUS
 62
     2
100
AcDbText
 10
135.0
 20
275.893604
 30
0.0
 40
5.5
  1
個数
 41
0.664364
  7
EXCADSTD
 72
     5
 11
142.97442
 21
275.893604
 31
0.0
100
AcDbText
  0
TEXT
  5
7AC
100
AcDbEntity
  8
器具明細表
  6
CONTINUOUS
 62
     2
100
AcDbText
 10
137.25
 20
269.743603
 30
0.0
 40
4.8
  1
１
 41
0.88795
  7
EXCADSTD
 72
     5
 11
141.3092
 21
269.743603
 31
0.0
100
AcDbText
  0
TEXT
  5
7AD
100
AcDbEntity
  8
器具明細表
  6
CONTINUOUS
 62
     2
100
AcDbText
 10
137.25
 20
263.243603
 30
0.0
 40
4.8
  1
１
 41
0.88795
  7
EXCADSTD
 72
     5
 11
141.3092
 21
263.243603
 31
0.0
100
AcDbText
  0
TEXT
  5
7AE
100
AcDbEntity
  8
器具明細表
  6
CONTINUOUS
 62
     2
100
AcDbText
 10
137.25
 20
256.743603
 30
0.0
 40
4.8
  1
１
 41
0.88795
  7
EXCADSTD
 72
     5
 11
141.3092
 21
256.743603
 31
0.0
100
AcDbText
  0
TEXT
  5
7AF
100
AcDbEntity
  8
器具明細表
  6
CONTINUOUS
 62
     2
100
AcDbText
 10
137.25
 20
250.243603
 30
0.0
 40
4.8
  1
１
 41
0.88795
  7
EXCADSTD
 72
     5
 11
141.3092
 21
250.243603
 31
0.0
100
AcDbText
  0
TEXT
  5
7B0
100
AcDbEntity
  8
器具明細表
  6
CONTINUOUS
 62
     2
100
AcDbText
 10
137.25
 20
243.743603
 30
0.0
 40
4.8
  1
４
 41
0.88795
  7
EXCADSTD
 72
     5
 11
141.3092
 21
243.743603
 31
0.0
100
AcDbText
  0
TEXT
  5
7B1
100
AcDbEntity
  8
器具明細表
  6
CONTINUOUS
 62
     2
100
AcDbText
 10
111.9
 20
275.893604
 30
0.0
 40
5.5
  1
品　　名
 41
0.687273
  7
EXCADSTD
 72
     5
 11
129.9
 21
275.893604
 31
0.0
100
AcDbText
  0
TEXT
  5
7B2
100
AcDbEntity
  8
器具明細表
  6
CONTINUOUS
 62
     2
100
AcDbText
 10
74.534216
 20
269.643604
 30
0.0
 40
5.0
  1
Ｌ８１０
 41
0.6552
  7
EXCADSTD
 72
     5
 11
90.134216
 21
269.643604
 31
0.0
100
AcDbText
  0
TEXT
  5
7B3
100
AcDbEntity
  8
器具明細表
  6
CONTINUOUS
 62
     2
100
AcDbText
 10
74.534216
 20
250.143604
 30
0.0
 40
5.0
  1
ＮＬ３１Ｐ
 41
0.64848
  7
EXCADSTD
 72
     5
 11
93.834216
 21
250.143604
 31
0.0
100
AcDbText
  0
TEXT
  5
7B4
100
AcDbEntity
  8
器具明細表
  6
CONTINUOUS
 62
     2
100
AcDbText
 10
107.690329
 20
269.393604
 30
0.0
 40
5.0
  1
手洗器
 41
0.6664
  7
EXCADSTD
 72
     5
 11
119.590329
 21
269.393604
 31
0.0
100
AcDbText
  0
TEXT
  5
7B5
100
AcDbEntity
  8
器具明細表
  6
CONTINUOUS
 62
     2
100
AcDbText
 10
107.690329
 20
262.893604
 30
0.0
 40
5.0
  1
立水栓
 41
0.6664
  7
EXCADSTD
 72
     5
 11
119.590329
 21
262.893604
 31
0.0
100
AcDbText
  0
INSERT
  5
7B6
100
AcDbEntity
  8
器具明細表
  6
CONTINUOUS
 62
     0
100
AcDbBlockReference
  2
NC510LSK
 10
131.853735
 20
265.402393
 30
0.0
  0
LINE
  5
7B7
100
AcDbEntity
  8
器具明細表
  6
CONTINUOUS
 62
     6
100
AcDbLine
 10
73.9
 20
255.893604
 30
0.0
 11
143.9
 21
255.893604
 31
0.0
  0
TEXT
  5
7B8
100
AcDbEntity
  8
器具明細表
  6
CONTINUOUS
 62
     2
100
AcDbText
 10
107.690329
 20
249.893604
 30
0.0
 40
5.0
  1
Ｐトラップ
 41
0.64848
  7
EXCADSTD
 72
     5
 11
126.990329
 21
249.893604
 31
0.0
100
AcDbText
  0
TEXT
  5
7B9
100
AcDbEntity
  8
器具明細表
  6
CONTINUOUS
 62
     2
100
AcDbText
 10
74.534216
 20
243.643604
 30
0.0
 40
5.0
  1
ＮＴ７Ａ
 41
0.6552
  7
EXCADSTD
 72
     5
 11
90.134216
 21
243.643604
 31
0.0
100
AcDbText
  0
TEXT
  5
7BA
100
AcDbEntity
  8
器具明細表
  6
CONTINUOUS
 62
     2
100
AcDbText
 10
107.690329
 20
243.393604
 30
0.0
 40
5.0
  1
化粧頭付木ねじ
 41
0.6408
  7
EXCADSTD
 72
     5
 11
134.390329
 21
243.393604
 31
0.0
100
AcDbText
  0
TEXT
  5
7BB
100
AcDbEntity
  8
器具明細表
  6
CONTINUOUS
 62
     2
100
AcDbText
 10
74.534216
 20
263.143604
 30
0.0
 40
5.0
  1
ＮＬ１－ＭＹ
 41
0.644
  7
EXCADSTD
 72
     5
 11
97.534216
 21
263.143604
 31
0.0
100
AcDbText
  0
LINE
  5
7BC
100
AcDbEntity
  8
器具明細表
  6
CONTINUOUS
 62
     6
100
AcDbLine
 10
73.9
 20
229.893634
 30
0.0
 11
143.9
 21
229.893634
 31
0.0
  0
LINE
  5
7BD
100
AcDbEntity
  8
器具明細表
  6
CONTINUOUS
 62
     6
100
AcDbLine
 10
73.9
 20
236.393604
 30
0.0
 11
143.9
 21
236.393604
 31
0.0
  0
TEXT
  5
7BE
100
AcDbEntity
  8
器具明細表
  6
CONTINUOUS
 62
     2
100
AcDbText
 10
137.4
 20
230.640216
 30
0.0
 40
4.75
  1
１
 41
0.834695
  7
EXCADSTD
 72
     5
 11
141.176
 21
230.640216
 31
0.0
100
AcDbText
  0
LINE
  5
7BF
100
AcDbEntity
  8
器具明細表
  6
CONTINUOUS
 62
     6
100
AcDbLine
 10
73.9
 20
236.393604
 30
0.0
 11
73.9
 21
229.893634
 31
0.0
  0
LINE
  5
7C0
100
AcDbEntity
  8
器具明細表
  6
CONTINUOUS
 62
     6
100
AcDbLine
 10
106.9
 20
236.393604
 30
0.0
 11
106.9
 21
229.893634
 31
0.0
  0
LINE
  5
7C1
100
AcDbEntity
  8
器具明細表
  6
CONTINUOUS
 62
     6
100
AcDbLine
 10
134.9
 20
236.393604
 30
0.0
 11
134.9
 21
229.893634
 31
0.0
  0
LINE
  5
7C2
100
AcDbEntity
  8
器具明細表
  6
CONTINUOUS
 62
     6
100
AcDbLine
 10
143.9
 20
236.393604
 30
0.0
 11
143.9
 21
229.893634
 31
0.0
  0
TEXT
  5
7C3
100
AcDbEntity
  8
器具明細表
  6
CONTINUOUS
 62
     2
100
AcDbText
 10
74.198386
 20
237.14162
 30
0.0
 40
5.0
  1
Ｓトラップの場合
 41
0.693
  7
EXCADSTD
 72
     5
 11
107.198386
 21
237.14162
 31
0.0
100
AcDbText
  0
TEXT
  5
7C4
100
AcDbEntity
  8
器具明細表
  6
CONTINUOUS
 62
     2
100
AcDbText
 10
107.291846
 20
230.471484
 30
0.0
 40
5.0
  1
Ｓトラップ
 41
0.64848
  7
EXCADSTD
 72
     5
 11
126.591846
 21
230.471484
 31
0.0
100
AcDbText
  0
TEXT
  5
7C5
100
AcDbEntity
  8
器具明細表
  6
CONTINUOUS
 62
     2
100
AcDbText
 10
74.198386
 20
230.641559
 30
0.0
 40
5.0
  1
ＮＬ３１Ｓ
 41
0.7056
  7
EXCADSTD
 72
     5
 11
95.198386
 21
230.641559
 31
0.0
100
AcDbText
  0
TEXT
  5
7C6
100
AcDbEntity
  8
器具明細表
  6
CONTINUOUS
 62
     2
100
AcDbText
 10
107.690329
 20
256.393604
 30
0.0
 40
4.5
  1
アングル形止水栓（共用形）
 41
0.406359
  7
EXCADSTD
 72
     5
 11
135.990328
 21
256.393604
 31
0.0
100
AcDbText
  0
TEXT
  5
7C7
100
AcDbEntity
  8
器具明細表
  6
CONTINUOUS
 62
     2
100
AcDbText
 10
74.534216
 20
256.643604
 30
0.0
 40
5.0
  1
ＮＬ２Ｙ
 41
0.6552
  7
EXCADSTD
 72
     5
 11
90.134216
 21
256.643604
 31
0.0
100
AcDbText
  0
ENDSEC
  0
SECTION
  2
OBJECTS
  0
DICTIONARY
  5
19
100
AcDbDictionary
  3
ACAD_GROUP
350
1A
  3
ACAD_MLINESTYLE
350
1B
  0
DICTIONARY
  5
1A
102
{ACAD_REACTORS
330
19
102
}
100
AcDbDictionary
  0
DICTIONARY
  5
1B
102
{ACAD_REACTORS
330
19
102
}
100
AcDbDictionary
  3
STANDARD
350
1C
  0
MLINESTYLE
  5
1C
102
{ACAD_REACTORS
330
1B
102
}
100
AcDbMlineStyle
  2
Standard
 70
     0
  3

 62
     0
 51
90.0
 52
90.0
 71
     2
 49
0.5
 62
   256
  6
ByLayer
 49
-0.5
 62
   256
  6
ByLayer
  0
ENDSEC
  0
EOF
